ISO-10303-21;
HEADER;
FILE_DESCRIPTION (( 'STEP AP203' ),
    '1' );
FILE_NAME ('327064.step',
    '2021-12-01T14:04:08',
    ( '' ),
    ( '' ),
    'SwSTEP 2.0',
    'SolidWorks 2019',
    '' );
FILE_SCHEMA (( 'CONFIG_CONTROL_DESIGN' ));
ENDSEC;

DATA;
#1 = AXIS2_PLACEMENT_3D ( 'NONE', #24, #15, #55 ) ;
#2 = CIRCLE ( 'NONE', #220, 1.500000000000001554 ) ;
#3 = CYLINDRICAL_SURFACE ( 'NONE', #213, 1.109999999999999432 ) ;
#4 = PRODUCT ( '327064', '327064', '', ( #219 ) ) ;
#5 = VERTEX_POINT ( 'NONE', #250 ) ;
#6 = ORIENTED_EDGE ( 'NONE', *, *, #91, .T. ) ;
#7 = FACE_OUTER_BOUND ( 'NONE', #206, .T. ) ;
#8 = DIRECTION ( 'NONE',  ( -3.491481338843133355E-15, 1.224646799147353207E-16, -1.000000000000000000 ) ) ;
#9 = AXIS2_PLACEMENT_3D ( 'NONE', #125, #59, #98 ) ;
#10 = DIRECTION ( 'NONE',  ( 4.275831445896958607E-31, 1.000000000000000000, 1.224646799147353454E-16 ) ) ;
#11 = CC_DESIGN_APPROVAL ( #286, ( #46 ) ) ;
#12 = APPROVAL_DATE_TIME ( #119, #129 ) ;
#13 = EDGE_CURVE ( 'NONE', #140, #140, #267, .T. ) ;
#14 = ORIENTED_EDGE ( 'NONE', *, *, #294, .F. ) ;
#15 = DIRECTION ( 'NONE',  ( -3.491481338843133355E-15, 1.224646799147353207E-16, -1.000000000000000000 ) ) ;
#16 = ADVANCED_BREP_SHAPE_REPRESENTATION ( '327064', ( #196, #93, #158 ), #124 ) ;
#17 = APPROVAL_DATE_TIME ( #230, #286 ) ;
#18 = DIRECTION ( 'NONE',  ( -3.491481338843133355E-15, 1.224646799147353207E-16, -1.000000000000000000 ) ) ;
#19 = ORIENTED_EDGE ( 'NONE', *, *, #13, .T. ) ;
#20 = CALENDAR_DATE ( 2021, 1, 12 ) ;
#21 = PRODUCT_RELATED_PRODUCT_CATEGORY ( 'detail', '', ( #4 ) ) ;
#22 = COORDINATED_UNIVERSAL_TIME_OFFSET ( 1, 0, .AHEAD. ) ;
#23 = EDGE_LOOP ( 'NONE', ( #6 ) ) ;
#24 = CARTESIAN_POINT ( 'NONE',  ( 2.793185071074506684E-14, -9.797174393178825657E-16, 8.000000000000000000 ) ) ;
#25 = APPROVAL_ROLE ( '' ) ;
#26 = FACE_OUTER_BOUND ( 'NONE', #299, .T. ) ;
#27 = AXIS2_PLACEMENT_3D ( 'NONE', #150, #239, #47 ) ;
#28 = DIRECTION ( 'NONE',  ( 0.0000000000000000000, 1.000000000000000000, 0.0000000000000000000 ) ) ;
#29 = AXIS2_PLACEMENT_3D ( 'NONE', #279, #217, #245 ) ;
#30 = EDGE_LOOP ( 'NONE', ( #19 ) ) ;
#31 = ADVANCED_FACE ( 'NONE', ( #149, #204 ), #186, .T. ) ;
#32 = DIRECTION ( 'NONE',  ( 0.0000000000000000000, 1.000000000000000000, 0.0000000000000000000 ) ) ;
#33 = CARTESIAN_POINT ( 'NONE',  ( 0.0000000000000000000, 0.0000000000000000000, 0.0000000000000000000 ) ) ;
#34 = CIRCLE ( 'NONE', #87, 0.9903844939755800381 ) ;
#35 = DIRECTION ( 'NONE',  ( 0.0000000000000000000, 1.000000000000000000, 0.0000000000000000000 ) ) ;
#36 = ORIENTED_EDGE ( 'NONE', *, *, #13, .F. ) ;
#37 = EDGE_LOOP ( 'NONE', ( #190 ) ) ;
#38 = DIRECTION ( 'NONE',  ( 1.000000000000000000, 0.0000000000000000000, 0.0000000000000000000 ) ) ;
#39 = CARTESIAN_POINT ( 'NONE',  ( 2.883896417162832445E-14, 0.9599999999999977440, 8.259807621135337286 ) ) ;
#40 = EDGE_CURVE ( 'NONE', #134, #134, #165, .T. ) ;
#41 = AXIS2_PLACEMENT_3D ( 'NONE', #193, #118, #221 ) ;
#42 = DIRECTION ( 'NONE',  ( 4.275831445896958607E-31, 1.000000000000000000, 1.224646799147353207E-16 ) ) ;
#43 = PERSON_AND_ORGANIZATION ( #254, #183 ) ;
#44 = ORIENTED_EDGE ( 'NONE', *, *, #294, .T. ) ;
#45 = PERSON_AND_ORGANIZATION ( #254, #183 ) ;
#46 = PRODUCT_DEFINITION ( 'UNKNOWN', '', #274, #176 ) ;
#47 = DIRECTION ( 'NONE',  ( 0.0000000000000000000, 1.000000000000000000, 0.0000000000000000000 ) ) ;
#48 = CARTESIAN_POINT ( 'NONE',  ( 1.745740669421566678E-13, -6.123233995736766085E-15, 50.00000000000000000 ) ) ;
#49 = EDGE_LOOP ( 'NONE', ( #110 ) ) ;
#50 = CALENDAR_DATE ( 2021, 1, 12 ) ;
#51 = CIRCLE ( 'NONE', #216, 0.9599999999999999645 ) ;
#52 = CALENDAR_DATE ( 2021, 1, 12 ) ;
#53 = ORIENTED_EDGE ( 'NONE', *, *, #40, .F. ) ;
#54 = DIRECTION ( 'NONE',  ( -3.470144043940968866E-31, -1.000000000000000000, -1.465138070926358702E-16 ) ) ;
#55 = DIRECTION ( 'NONE',  ( 0.0000000000000000000, 1.000000000000000000, 0.0000000000000000000 ) ) ;
#56 = ORIENTED_EDGE ( 'NONE', *, *, #262, .T. ) ;
#57 = PERSON_AND_ORGANIZATION ( #254, #183 ) ;
#58 = FACE_OUTER_BOUND ( 'NONE', #236, .T. ) ;
#59 = DIRECTION ( 'NONE',  ( -3.491481338843133355E-15, 1.224646799147353207E-16, -1.000000000000000000 ) ) ;
#60 = CC_DESIGN_PERSON_AND_ORGANIZATION_ASSIGNMENT ( #208, #260, ( #274 ) ) ;
#61 = AXIS2_PLACEMENT_3D ( 'NONE', #141, #102, #100 ) ;
#62 = CARTESIAN_POINT ( 'NONE',  ( -2.064504897935554775E-31, 7.241308400973819722E-33, -5.912977036330393980E-17 ) ) ;
#63 = PLANE ( 'NONE',  #215 ) ;
#64 = AXIS2_PLACEMENT_3D ( 'NONE', #283, #265, #28 ) ;
#65 = AXIS2_PLACEMENT_3D ( 'NONE', #266, #281, #179 ) ;
#66 = FACE_OUTER_BOUND ( 'NONE', #114, .T. ) ;
#67 = VERTEX_POINT ( 'NONE', #182 ) ;
#68 = DIRECTION ( 'NONE',  ( 3.491481338843133355E-15, -1.224646799147353207E-16, 1.000000000000000000 ) ) ;
#69 = CIRCLE ( 'NONE', #133, 0.9599999999999987432 ) ;
#70 = CARTESIAN_POINT ( 'NONE',  ( 2.793185071074506684E-14, 1.109999999999998987, 8.000000000000000000 ) ) ;
#71 = DIRECTION ( 'NONE',  ( 0.0000000000000000000, 1.000000000000000000, 0.0000000000000000000 ) ) ;
#72 = VERTEX_POINT ( 'NONE', #290 ) ;
#73 = PLANE ( 'NONE',  #202 ) ;
#74 = DIRECTION ( 'NONE',  ( 0.0000000000000000000, 1.000000000000000000, 0.0000000000000000000 ) ) ;
#75 = TOROIDAL_SURFACE ( 'NONE', #300, 2.959999999999999964, 2.000000000000000444 ) ;
#76 = CC_DESIGN_APPROVAL ( #246, ( #298 ) ) ;
#77 = DIRECTION ( 'NONE',  ( 3.491481338843133355E-15, -1.224646799147353207E-16, 1.000000000000000000 ) ) ;
#78 = CALENDAR_DATE ( 2021, 1, 12 ) ;
#79 = PERSON_AND_ORGANIZATION ( #254, #183 ) ;
#80 = ADVANCED_FACE ( 'NONE', ( #26, #58 ), #122, .T. ) ;
#81 = CARTESIAN_POINT ( 'NONE',  ( 8.728703347107827472E-16, -3.061616997868381169E-17, 0.2499999999999998335 ) ) ;
#82 = CIRCLE ( 'NONE', #61, 1.499999999999996669 ) ;
#83 = FACE_OUTER_BOUND ( 'NONE', #302, .T. ) ;
#84 = AXIS2_PLACEMENT_3D ( 'NONE', #130, #18, #42 ) ;
#85 = DIRECTION ( 'NONE',  ( -4.275831445896958607E-31, -1.000000000000000000, -1.224646799147353207E-16 ) ) ;
#86 = CARTESIAN_POINT ( 'NONE',  ( 1.745740669421566678E-13, 1.199999999999995515, 50.00000000000000000 ) ) ;
#87 = AXIS2_PLACEMENT_3D ( 'NONE', #163, #264, #74 ) ;
#88 = CARTESIAN_POINT ( 'NONE',  ( 6.284666409917640040E-14, -2.168404344971008868E-15, 18.00000000000000000 ) ) ;
#89 = ADVANCED_FACE ( 'NONE', ( #83, #285 ), #3, .T. ) ;
#90 = EDGE_LOOP ( 'NONE', ( #56 ) ) ;
#91 = EDGE_CURVE ( 'NONE', #226, #226, #69, .T. ) ;
#92 = APPROVAL_PERSON_ORGANIZATION ( #43, #129, #168 ) ;
#93 = MANIFOLD_SOLID_BREP ( 'Corps-Déplacer/Copier1[2]', #139 ) ;
#94 = SHAPE_DEFINITION_REPRESENTATION ( #194, #16 ) ;
#95 = APPROVAL_STATUS ( 'not_yet_approved' ) ;
#96 = ADVANCED_FACE ( 'NONE', ( #178 ), #199, .F. ) ;
#97 = LOCAL_TIME ( 15, 4, 8.000000000000000000, #146 ) ;
#98 = DIRECTION ( 'NONE',  ( 4.275831445896958607E-31, 1.000000000000000000, 1.224646799147352961E-16 ) ) ;
#99 = ADVANCED_FACE ( 'NONE', ( #113, #144 ), #203, .T. ) ;
#100 = DIRECTION ( 'NONE',  ( 0.0000000000000000000, 1.000000000000000000, 0.0000000000000000000 ) ) ;
#101 = FACE_OUTER_BOUND ( 'NONE', #155, .T. ) ;
#102 = DIRECTION ( 'NONE',  ( -3.491481338843133355E-15, 1.224646799147353207E-16, -1.000000000000000000 ) ) ;
#103 = CARTESIAN_POINT ( 'NONE',  ( 2.793185071074506684E-14, 8.323666793773296586E-33, 8.000000000000000000 ) ) ;
#104 = DIRECTION ( 'NONE',  ( 0.0000000000000000000, 1.000000000000000000, 0.0000000000000000000 ) ) ;
#105 = DIRECTION ( 'NONE',  ( -4.275831445896958607E-31, -1.000000000000000000, -1.224646799147353207E-16 ) ) ;
#106 = AXIS2_PLACEMENT_3D ( 'NONE', #109, #180, #85 ) ;
#107 = DIRECTION ( 'NONE',  ( 4.275831445896958607E-31, 1.000000000000000000, 1.224646799147353207E-16 ) ) ;
#108 =( NAMED_UNIT ( * ) PLANE_ANGLE_UNIT ( ) SI_UNIT ( $, .RADIAN. ) );
#109 = CARTESIAN_POINT ( 'NONE',  ( 2.793185071074506684E-14, 8.323666793773296586E-33, 8.000000000000000000 ) ) ;
#110 = ORIENTED_EDGE ( 'NONE', *, *, #268, .F. ) ;
#111 = PERSON_AND_ORGANIZATION_ROLE ( 'classification_officer' ) ;
#112 = EDGE_CURVE ( 'NONE', #67, #67, #82, .T. ) ;
#113 = FACE_OUTER_BOUND ( 'NONE', #175, .T. ) ;
#114 = EDGE_LOOP ( 'NONE', ( #282 ) ) ;
#115 = ORIENTED_EDGE ( 'NONE', *, *, #112, .T. ) ;
#116 = DATE_AND_TIME ( #52, #195 ) ;
#117 = COORDINATED_UNIVERSAL_TIME_OFFSET ( 1, 0, .AHEAD. ) ;
#118 = DIRECTION ( 'NONE',  ( -3.491481338843133355E-15, 1.224646799147353207E-16, -1.000000000000000000 ) ) ;
#119 = DATE_AND_TIME ( #237, #97 ) ;
#120 = EDGE_CURVE ( 'NONE', #5, #5, #51, .T. ) ;
#121 = PERSON_AND_ORGANIZATION ( #254, #183 ) ;
#122 = CYLINDRICAL_SURFACE ( 'NONE', #41, 0.9599999999999992983 ) ;
#123 = CONICAL_SURFACE ( 'NONE', #64, 0.9599999999999987432, 0.5235987755982943748 ) ;
#124 =( GEOMETRIC_REPRESENTATION_CONTEXT ( 3 ) GLOBAL_UNCERTAINTY_ASSIGNED_CONTEXT ( ( #128 ) ) GLOBAL_UNIT_ASSIGNED_CONTEXT ( ( #222, #108, #303 ) ) REPRESENTATION_CONTEXT ( 'NONE', 'WORKASPACE' ) );
#125 = CARTESIAN_POINT ( 'NONE',  ( -4.129009795871109551E-31, 1.448261680194763944E-32, -1.182595407266078796E-16 ) ) ;
#126 = CONICAL_SURFACE ( 'NONE', #287, 1.200000000000001732, 0.7853981633974453924 ) ;
#127 = LOCAL_TIME ( 15, 4, 8.000000000000000000, #170 ) ;
#128 = UNCERTAINTY_MEASURE_WITH_UNIT (LENGTH_MEASURE( 1.000000000000000082E-05 ), #222, 'distance_accuracy_value', 'NONE');
#129 = APPROVAL ( #295, 'UNSPECIFIED' ) ;
#130 = CARTESIAN_POINT ( 'NONE',  ( 1.745740669421566678E-13, 8.998558695971067645E-33, 50.00000000000000000 ) ) ;
#131 = APPLICATION_CONTEXT ( 'configuration controlled 3d designs of mechanical parts and assemblies' ) ;
#132 = APPLICATION_PROTOCOL_DEFINITION ( 'international standard', 'config_control_design', 1994, #131 ) ;
#133 = AXIS2_PLACEMENT_3D ( 'NONE', #177, #197, #35 ) ;
#134 = VERTEX_POINT ( 'NONE', #86 ) ;
#135 = CC_DESIGN_PERSON_AND_ORGANIZATION_ASSIGNMENT ( #121, #234, ( #274 ) ) ;
#136 = CARTESIAN_POINT ( 'NONE',  ( 6.284666409917640040E-14, -2.204364238465235428E-15, 18.00000000000000000 ) ) ;
#137 = PERSON_AND_ORGANIZATION ( #254, #183 ) ;
#138 = CARTESIAN_POINT ( 'NONE',  ( 1.735266225405037467E-13, 1.499999999999995559, 49.70000000000000284 ) ) ;
#139 = CLOSED_SHELL ( 'NONE', ( #205, #31, #89, #301 ) ) ;
#140 = VERTEX_POINT ( 'NONE', #184 ) ;
#141 = CARTESIAN_POINT ( 'NONE',  ( 7.415022847717733083E-14, -2.600839905697688200E-15, 21.23746950964550706 ) ) ;
#142 = FACE_OUTER_BOUND ( 'NONE', #228, .T. ) ;
#143 = ORIENTED_EDGE ( 'NONE', *, *, #120, .T. ) ;
#144 = FACE_OUTER_BOUND ( 'NONE', #37, .T. ) ;
#145 = AXIS2_PLACEMENT_3D ( 'NONE', #81, #297, #54 ) ;
#146 = COORDINATED_UNIVERSAL_TIME_OFFSET ( 1, 0, .AHEAD. ) ;
#147 = LOCAL_TIME ( 15, 4, 8.000000000000000000, #22 ) ;
#148 = SECURITY_CLASSIFICATION_LEVEL ( 'unclassified' ) ;
#149 = FACE_BOUND ( 'NONE', #187, .T. ) ;
#150 = CARTESIAN_POINT ( 'NONE',  ( 1.745740669421566678E-13, -6.123233995736766085E-15, 50.00000000000000000 ) ) ;
#151 = ADVANCED_FACE ( 'NONE', ( #225, #278 ), #126, .T. ) ;
#152 = DIRECTION ( 'NONE',  ( -3.491481338843133355E-15, 1.224646799147353207E-16, -1.000000000000000000 ) ) ;
#153 = CC_DESIGN_APPROVAL ( #129, ( #274 ) ) ;
#154 = EDGE_CURVE ( 'NONE', #252, #252, #256, .T. ) ;
#155 = EDGE_LOOP ( 'NONE', ( #44 ) ) ;
#156 = DIRECTION ( 'NONE',  ( 0.0000000000000000000, 0.0000000000000000000, 1.000000000000000000 ) ) ;
#157 = ADVANCED_FACE ( 'NONE', ( #7 ), #73, .F. ) ;
#158 = AXIS2_PLACEMENT_3D ( 'NONE', #198, #156, #38 ) ;
#160 = ORIENTED_EDGE ( 'NONE', *, *, #91, .F. ) ;
#159 = DIRECTION ( 'NONE',  ( -3.491481338843133355E-15, 1.224646799147353207E-16, -1.000000000000000000 ) ) ;
#161 = VERTEX_POINT ( 'NONE', #138 ) ;
#162 = FACE_BOUND ( 'NONE', #23, .T. ) ;
#163 = CARTESIAN_POINT ( 'NONE',  ( 6.405924284287273902E-14, -2.246895775456748746E-15, 18.34729635533384240 ) ) ;
#164 = CARTESIAN_POINT ( 'NONE',  ( 6.405924284287273902E-14, 0.9903844939755778176, 18.34729635533384240 ) ) ;
#165 = CIRCLE ( 'NONE', #27, 1.200000000000001732 ) ;
#166 = ADVANCED_FACE ( 'NONE', ( #66, #162 ), #123, .T. ) ;
#167 = APPROVAL_PERSON_ORGANIZATION ( #275, #286, #293 ) ;
#168 = APPROVAL_ROLE ( '' ) ;
#169 = DATE_TIME_ROLE ( 'creation_date' ) ;
#170 = COORDINATED_UNIVERSAL_TIME_OFFSET ( 1, 0, .AHEAD. ) ;
#171 = ORIENTED_EDGE ( 'NONE', *, *, #154, .T. ) ;
#172 = EDGE_LOOP ( 'NONE', ( #296 ) ) ;
#173 = EDGE_CURVE ( 'NONE', #247, #247, #277, .T. ) ;
#174 = EDGE_LOOP ( 'NONE', ( #36 ) ) ;
#175 = EDGE_LOOP ( 'NONE', ( #276 ) ) ;
#176 = DESIGN_CONTEXT ( 'detailed design', #244, 'design' ) ;
#177 = CARTESIAN_POINT ( 'NONE',  ( 2.883896417162832445E-14, -1.011534696479630343E-15, 8.259807621135337286 ) ) ;
#178 = FACE_OUTER_BOUND ( 'NONE', #249, .T. ) ;
#179 = DIRECTION ( 'NONE',  ( 3.470144043940968866E-31, 1.000000000000000000, 1.465138070926358702E-16 ) ) ;
#180 = DIRECTION ( 'NONE',  ( 3.491481338843133355E-15, -1.224646799147353207E-16, 1.000000000000000000 ) ) ;
#181 = FACE_BOUND ( 'NONE', #255, .T. ) ;
#182 = CARTESIAN_POINT ( 'NONE',  ( 7.415022847717733083E-14, 1.499999999999994005, 21.23746950964550706 ) ) ;
#183 = ORGANIZATION ( 'UNSPECIFIED', 'UNSPECIFIED', '' ) ;
#184 = CARTESIAN_POINT ( 'NONE',  ( 2.793185071074506684E-14, 1.109999999999998987, 8.000000000000000000 ) ) ;
#185 = VERTEX_POINT ( 'NONE', #164 ) ;
#186 = CONICAL_SURFACE ( 'NONE', #145, 1.109999999999998987, 0.5235987755982928205 ) ;
#187 = EDGE_LOOP ( 'NONE', ( #218 ) ) ;
#188 = AXIS2_PLACEMENT_3D ( 'NONE', #229, #77, #238 ) ;
#189 = PERSON_AND_ORGANIZATION_ROLE ( 'creator' ) ;
#190 = ORIENTED_EDGE ( 'NONE', *, *, #268, .T. ) ;
#191 = CC_DESIGN_PERSON_AND_ORGANIZATION_ASSIGNMENT ( #57, #189, ( #46 ) ) ;
#192 = ORIENTED_EDGE ( 'NONE', *, *, #262, .F. ) ;
#193 = CARTESIAN_POINT ( 'NONE',  ( 0.0000000000000000000, 0.0000000000000000000, 0.0000000000000000000 ) ) ;
#194 = PRODUCT_DEFINITION_SHAPE ( 'NONE', 'NONE',  #46 ) ;
#195 = LOCAL_TIME ( 15, 4, 8.000000000000000000, #117 ) ;
#196 = MANIFOLD_SOLID_BREP ( 'Corps-Déplacer/Copier1[1]', #272 ) ;
#197 = DIRECTION ( 'NONE',  ( -3.491481338843133355E-15, 1.224646799147353207E-16, -1.000000000000000000 ) ) ;
#198 = CARTESIAN_POINT ( 'NONE',  ( 0.0000000000000000000, 0.0000000000000000000, 0.0000000000000000000 ) ) ;
#199 = PLANE ( 'NONE',  #84 ) ;
#200 = CARTESIAN_POINT ( 'NONE',  ( 0.0000000000000000000, 0.9656624327025946641, 0.0000000000000000000 ) ) ;
#201 = PERSON_AND_ORGANIZATION_ROLE ( 'design_owner' ) ;
#202 = AXIS2_PLACEMENT_3D ( 'NONE', #103, #68, #292 ) ;
#203 = CYLINDRICAL_SURFACE ( 'NONE', #209, 1.499999999999999112 ) ;
#204 = FACE_OUTER_BOUND ( 'NONE', #90, .T. ) ;
#205 = ADVANCED_FACE ( 'NONE', ( #142 ), #63, .F. ) ;
#206 = EDGE_LOOP ( 'NONE', ( #171 ) ) ;
#207 = APPROVAL_DATE_TIME ( #232, #246 ) ;
#208 = PERSON_AND_ORGANIZATION ( #254, #183 ) ;
#209 = AXIS2_PLACEMENT_3D ( 'NONE', #289, #233, #10 ) ;
#210 = CC_DESIGN_SECURITY_CLASSIFICATION ( #298, ( #274 ) ) ;
#211 = EDGE_LOOP ( 'NONE', ( #115 ) ) ;
#212 = DATE_AND_TIME ( #20, #147 ) ;
#213 = AXIS2_PLACEMENT_3D ( 'NONE', #33, #159, #107 ) ;
#214 = FACE_OUTER_BOUND ( 'NONE', #211, .T. ) ;
#215 = AXIS2_PLACEMENT_3D ( 'NONE', #62, #251, #105 ) ;
#216 = AXIS2_PLACEMENT_3D ( 'NONE', #136, #223, #71 ) ;
#217 = DIRECTION ( 'NONE',  ( -3.491481338843133355E-15, 1.224646799147353207E-16, -1.000000000000000000 ) ) ;
#218 = ORIENTED_EDGE ( 'NONE', *, *, #173, .F. ) ;
#219 = MECHANICAL_CONTEXT ( 'NONE', #131, 'mechanical' ) ;
#220 = AXIS2_PLACEMENT_3D ( 'NONE', #224, #8, #104 ) ;
#221 = DIRECTION ( 'NONE',  ( 4.275831445896957731E-31, 1.000000000000000000, 1.224646799147352961E-16 ) ) ;
#222 =( LENGTH_UNIT ( ) NAMED_UNIT ( * ) SI_UNIT ( .MILLI., .METRE. ) );
#223 = DIRECTION ( 'NONE',  ( -3.491481338843133355E-15, 1.224646799147353207E-16, -1.000000000000000000 ) ) ;
#224 = CARTESIAN_POINT ( 'NONE',  ( 1.735266225405037467E-13, -6.086494591762345225E-15, 49.70000000000000284 ) ) ;
#225 = FACE_OUTER_BOUND ( 'NONE', #49, .T. ) ;
#226 = VERTEX_POINT ( 'NONE', #39 ) ;
#227 = LOCAL_TIME ( 15, 4, 8.000000000000000000, #271 ) ;
#228 = EDGE_LOOP ( 'NONE', ( #235 ) ) ;
#229 = CARTESIAN_POINT ( 'NONE',  ( 7.415022847717733083E-14, -2.600839905697688200E-15, 21.23746950964550706 ) ) ;
#230 = DATE_AND_TIME ( #50, #127 ) ;
#231 = ADVANCED_FACE ( 'NONE', ( #181, #214 ), #241, .T. ) ;
#232 = DATE_AND_TIME ( #78, #227 ) ;
#233 = DIRECTION ( 'NONE',  ( -3.491481338843133355E-15, 1.224646799147353207E-16, -1.000000000000000000 ) ) ;
#234 = PERSON_AND_ORGANIZATION_ROLE ( 'design_supplier' ) ;
#235 = ORIENTED_EDGE ( 'NONE', *, *, #173, .T. ) ;
#236 = EDGE_LOOP ( 'NONE', ( #143 ) ) ;
#237 = CALENDAR_DATE ( 2021, 1, 12 ) ;
#238 = DIRECTION ( 'NONE',  ( 0.0000000000000000000, -1.000000000000000000, 0.0000000000000000000 ) ) ;
#239 = DIRECTION ( 'NONE',  ( -3.491481338843133355E-15, 1.224646799147353207E-16, -1.000000000000000000 ) ) ;
#240 = CC_DESIGN_DATE_AND_TIME_ASSIGNMENT ( #116, #169, ( #46 ) ) ;
#241 = CONICAL_SURFACE ( 'NONE', #188, 1.499999999999996669, 0.1745329251994262032 ) ;
#242 = FACE_OUTER_BOUND ( 'NONE', #257, .T. ) ;
#243 = APPROVAL_PERSON_ORGANIZATION ( #79, #246, #25 ) ;
#244 = APPLICATION_CONTEXT ( 'configuration controlled 3d designs of mechanical parts and assemblies' ) ;
#245 = DIRECTION ( 'NONE',  ( 0.0000000000000000000, 1.000000000000000000, 0.0000000000000000000 ) ) ;
#246 = APPROVAL ( #95, 'UNSPECIFIED' ) ;
#247 = VERTEX_POINT ( 'NONE', #200 ) ;
#248 = PLANE ( 'NONE',  #106 ) ;
#249 = EDGE_LOOP ( 'NONE', ( #53 ) ) ;
#250 = CARTESIAN_POINT ( 'NONE',  ( 6.284666409917640040E-14, 0.9599999999999977440, 18.00000000000000000 ) ) ;
#251 = DIRECTION ( 'NONE',  ( 3.491481338843133355E-15, -1.224646799147353207E-16, 1.000000000000000000 ) ) ;
#252 = VERTEX_POINT ( 'NONE', #70 ) ;
#253 = APPROVAL_STATUS ( 'not_yet_approved' ) ;
#254 = PERSON ( 'UNSPECIFIED', 'UNSPECIFIED', 'UNSPECIFIED', ('UNSPECIFIED'), ('UNSPECIFIED'), ('UNSPECIFIED') ) ;
#255 = EDGE_LOOP ( 'NONE', ( #14 ) ) ;
#256 = CIRCLE ( 'NONE', #29, 1.110000000000000098 ) ;
#257 = EDGE_LOOP ( 'NONE', ( #273 ) ) ;
#258 = DATE_TIME_ROLE ( 'classification_date' ) ;
#259 = ADVANCED_FACE ( 'NONE', ( #242, #101 ), #75, .F. ) ;
#260 = PERSON_AND_ORGANIZATION_ROLE ( 'creator' ) ;
#261 = CIRCLE ( 'NONE', #65, 1.109999999999998987 ) ;
#262 = EDGE_CURVE ( 'NONE', #72, #72, #261, .T. ) ;
#263 = CC_DESIGN_PERSON_AND_ORGANIZATION_ASSIGNMENT ( #45, #111, ( #298 ) ) ;
#264 = DIRECTION ( 'NONE',  ( -3.491481338843133355E-15, 1.224646799147353207E-16, -1.000000000000000000 ) ) ;
#265 = DIRECTION ( 'NONE',  ( -3.491481338843133355E-15, 1.224646799147353207E-16, -1.000000000000000000 ) ) ;
#266 = CARTESIAN_POINT ( 'NONE',  ( 8.728703347107827472E-16, -3.061616997868381169E-17, 0.2499999999999998335 ) ) ;
#267 = CIRCLE ( 'NONE', #1, 1.110000000000000098 ) ;
#268 = EDGE_CURVE ( 'NONE', #161, #161, #2, .T. ) ;
#269 = DIRECTION ( 'NONE',  ( -3.491481338843133355E-15, 1.224646799147353207E-16, -1.000000000000000000 ) ) ;
#270 = DIRECTION ( 'NONE',  ( 4.275831445896958607E-31, 1.000000000000000000, 1.224646799147353207E-16 ) ) ;
#271 = COORDINATED_UNIVERSAL_TIME_OFFSET ( 1, 0, .AHEAD. ) ;
#272 = CLOSED_SHELL ( 'NONE', ( #157, #166, #80, #259, #231, #99, #151, #96 ) ) ;
#273 = ORIENTED_EDGE ( 'NONE', *, *, #120, .F. ) ;
#274 = PRODUCT_DEFINITION_FORMATION_WITH_SPECIFIED_SOURCE ( 'ANY', '', #4, .NOT_KNOWN. ) ;
#275 = PERSON_AND_ORGANIZATION ( #254, #183 ) ;
#276 = ORIENTED_EDGE ( 'NONE', *, *, #112, .F. ) ;
#277 = CIRCLE ( 'NONE', #9, 0.9656624327025946641 ) ;
#278 = FACE_BOUND ( 'NONE', #172, .T. ) ;
#279 = CARTESIAN_POINT ( 'NONE',  ( 2.793185071074506684E-14, -9.797174393178825657E-16, 8.000000000000000000 ) ) ;
#280 = CC_DESIGN_PERSON_AND_ORGANIZATION_ASSIGNMENT ( #137, #201, ( #4 ) ) ;
#281 = DIRECTION ( 'NONE',  ( -3.491481338843133355E-15, 1.224646799147353207E-16, -1.000000000000000000 ) ) ;
#282 = ORIENTED_EDGE ( 'NONE', *, *, #154, .F. ) ;
#283 = CARTESIAN_POINT ( 'NONE',  ( 2.883896417162832445E-14, -1.011534696479630343E-15, 8.259807621135337286 ) ) ;
#284 = FACE_OUTER_BOUND ( 'NONE', #174, .T. ) ;
#285 = FACE_OUTER_BOUND ( 'NONE', #30, .T. ) ;
#286 = APPROVAL ( #253, 'UNSPECIFIED' ) ;
#287 = AXIS2_PLACEMENT_3D ( 'NONE', #48, #152, #32 ) ;
#288 = APPLICATION_PROTOCOL_DEFINITION ( 'international standard', 'config_control_design', 1994, #244 ) ;
#289 = CARTESIAN_POINT ( 'NONE',  ( 0.0000000000000000000, 0.0000000000000000000, 0.0000000000000000000 ) ) ;
#290 = CARTESIAN_POINT ( 'NONE',  ( 8.728703347107831416E-16, 1.109999999999998987, 0.2500000000000000000 ) ) ;
#291 = CC_DESIGN_DATE_AND_TIME_ASSIGNMENT ( #212, #258, ( #298 ) ) ;
#292 = DIRECTION ( 'NONE',  ( -4.275831445896958607E-31, -1.000000000000000000, -1.224646799147353207E-16 ) ) ;
#293 = APPROVAL_ROLE ( '' ) ;
#294 = EDGE_CURVE ( 'NONE', #185, #185, #34, .T. ) ;
#295 = APPROVAL_STATUS ( 'not_yet_approved' ) ;
#296 = ORIENTED_EDGE ( 'NONE', *, *, #40, .T. ) ;
#297 = DIRECTION ( 'NONE',  ( 3.491481338843133355E-15, -1.224646799147353207E-16, 1.000000000000000000 ) ) ;
#298 = SECURITY_CLASSIFICATION ( '', '', #148 ) ;
#299 = EDGE_LOOP ( 'NONE', ( #160 ) ) ;
#300 = AXIS2_PLACEMENT_3D ( 'NONE', #88, #269, #270 ) ;
#301 = ADVANCED_FACE ( 'NONE', ( #284 ), #248, .T. ) ;
#302 = EDGE_LOOP ( 'NONE', ( #192 ) ) ;
#303 =( NAMED_UNIT ( * ) SI_UNIT ( $, .STERADIAN. ) SOLID_ANGLE_UNIT ( ) );
ENDSEC;
END-ISO-10303-21;
