ISO-10303-21;
HEADER;
FILE_DESCRIPTION (( 'STEP AP203' ),
    '1' );
FILE_NAME ('327063.step',
    '2021-12-01T14:04:08',
    ( '' ),
    ( '' ),
    'SwSTEP 2.0',
    'SolidWorks 2019',
    '' );
FILE_SCHEMA (( 'CONFIG_CONTROL_DESIGN' ));
ENDSEC;

DATA;
#1 = CARTESIAN_POINT ( 'NONE',  ( 2.883896417162832445E-14, -1.011534696479630343E-15, 8.259807621135337286 ) ) ;
#2 = FACE_BOUND ( 'NONE', #47, .T. ) ;
#3 = DIRECTION ( 'NONE',  ( 4.275831445896958607E-31, 1.000000000000000000, 1.224646799147353454E-16 ) ) ;
#4 = DIRECTION ( 'NONE',  ( -4.275831445896958607E-31, -1.000000000000000000, -1.224646799147353207E-16 ) ) ;
#5 = DATE_AND_TIME ( #276, #177 ) ;
#6 = PLANE ( 'NONE',  #65 ) ;
#7 = PRODUCT_RELATED_PRODUCT_CATEGORY ( 'detail', '', ( #283 ) ) ;
#8 = APPROVAL_PERSON_ORGANIZATION ( #9, #241, #13 ) ;
#9 = PERSON_AND_ORGANIZATION ( #271, #78 ) ;
#10 = DIRECTION ( 'NONE',  ( -3.491481338843133355E-15, 1.224646799147353207E-16, -1.000000000000000000 ) ) ;
#11 = PRODUCT_DEFINITION_SHAPE ( 'NONE', 'NONE',  #98 ) ;
#12 = FACE_OUTER_BOUND ( 'NONE', #21, .T. ) ;
#13 = APPROVAL_ROLE ( '' ) ;
#14 = EDGE_CURVE ( 'NONE', #244, #244, #278, .T. ) ;
#15 = VERTEX_POINT ( 'NONE', #248 ) ;
#16 = ORIENTED_EDGE ( 'NONE', *, *, #14, .F. ) ;
#17 = EDGE_LOOP ( 'NONE', ( #176 ) ) ;
#18 = CARTESIAN_POINT ( 'NONE',  ( 7.424923435037990254E-14, 1.499999999999994005, 21.26582591874359807 ) ) ;
#19 = CARTESIAN_POINT ( 'NONE',  ( 0.0000000000000000000, 0.0000000000000000000, 0.0000000000000000000 ) ) ;
#20 = EDGE_CURVE ( 'NONE', #217, #217, #96, .T. ) ;
#21 = EDGE_LOOP ( 'NONE', ( #23 ) ) ;
#22 = AXIS2_PLACEMENT_3D ( 'NONE', #63, #59, #35 ) ;
#23 = ORIENTED_EDGE ( 'NONE', *, *, #201, .T. ) ;
#24 = AXIS2_PLACEMENT_3D ( 'NONE', #223, #66, #202 ) ;
#25 = COORDINATED_UNIVERSAL_TIME_OFFSET ( 1, 0, .AHEAD. ) ;
#26 = PERSON_AND_ORGANIZATION ( #271, #78 ) ;
#27 = APPROVAL_ROLE ( '' ) ;
#28 = CC_DESIGN_PERSON_AND_ORGANIZATION_ASSIGNMENT ( #183, #37, ( #98 ) ) ;
#29 =( NAMED_UNIT ( * ) SI_UNIT ( $, .STERADIAN. ) SOLID_ANGLE_UNIT ( ) );
#30 = FACE_BOUND ( 'NONE', #155, .T. ) ;
#31 = AXIS2_PLACEMENT_3D ( 'NONE', #170, #32, #140 ) ;
#32 = DIRECTION ( 'NONE',  ( -3.491481338843133355E-15, 1.224646799147353207E-16, -1.000000000000000000 ) ) ;
#33 = PLANE ( 'NONE',  #206 ) ;
#34 = EDGE_CURVE ( 'NONE', #111, #111, #266, .T. ) ;
#35 = DIRECTION ( 'NONE',  ( 4.275831445896958607E-31, 1.000000000000000000, 1.224646799147352961E-16 ) ) ;
#36 = AXIS2_PLACEMENT_3D ( 'NONE', #124, #243, #256 ) ;
#37 = PERSON_AND_ORGANIZATION_ROLE ( 'creator' ) ;
#38 = CARTESIAN_POINT ( 'NONE',  ( 7.424923435037990254E-14, -2.604312564261416988E-15, 21.26582591874359807 ) ) ;
#39 = CARTESIAN_POINT ( 'NONE',  ( 1.745740669421566678E-13, 1.199999999999995515, 50.00000000000000000 ) ) ;
#40 = DATE_TIME_ROLE ( 'classification_date' ) ;
#41 = VERTEX_POINT ( 'NONE', #296 ) ;
#42 = ORIENTED_EDGE ( 'NONE', *, *, #147, .T. ) ;
#43 = DIRECTION ( 'NONE',  ( 0.0000000000000000000, 0.0000000000000000000, 1.000000000000000000 ) ) ;
#44 = CC_DESIGN_DATE_AND_TIME_ASSIGNMENT ( #5, #40, ( #231 ) ) ;
#45 = APPLICATION_PROTOCOL_DEFINITION ( 'international standard', 'config_control_design', 1994, #55 ) ;
#46 = CYLINDRICAL_SURFACE ( 'NONE', #195, 1.499999999999999112 ) ;
#47 = EDGE_LOOP ( 'NONE', ( #117 ) ) ;
#48 = TOROIDAL_SURFACE ( 'NONE', #167, 2.955000000000000071, 2.000000000000000888 ) ;
#49 = DESIGN_CONTEXT ( 'detailed design', #301, 'design' ) ;
#50 = LOCAL_TIME ( 15, 4, 8.000000000000000000, #95 ) ;
#51 = ADVANCED_FACE ( 'NONE', ( #191, #288 ), #123, .T. ) ;
#52 = APPROVAL_STATUS ( 'not_yet_approved' ) ;
#53 = DIRECTION ( 'NONE',  ( -4.275831445896958607E-31, -1.000000000000000000, -1.224646799147353207E-16 ) ) ;
#54 = APPROVAL_ROLE ( '' ) ;
#55 = APPLICATION_CONTEXT ( 'configuration controlled 3d designs of mechanical parts and assemblies' ) ;
#56 = FACE_OUTER_BOUND ( 'NONE', #252, .T. ) ;
#57 = CIRCLE ( 'NONE', #172, 1.104999999999999982 ) ;
#58 = EDGE_CURVE ( 'NONE', #180, #180, #179, .T. ) ;
#59 = DIRECTION ( 'NONE',  ( -3.491481338843133355E-15, 1.224646799147353207E-16, -1.000000000000000000 ) ) ;
#60 = PERSON_AND_ORGANIZATION ( #271, #78 ) ;
#61 = CARTESIAN_POINT ( 'NONE',  ( 2.883896417162832445E-14, -1.011534696479630343E-15, 8.259807621135337286 ) ) ;
#62 = COORDINATED_UNIVERSAL_TIME_OFFSET ( 1, 0, .AHEAD. ) ;
#63 = CARTESIAN_POINT ( 'NONE',  ( 0.0000000000000000000, 0.0000000000000000000, 0.0000000000000000000 ) ) ;
#64 = EDGE_CURVE ( 'NONE', #106, #106, #136, .T. ) ;
#65 = AXIS2_PLACEMENT_3D ( 'NONE', #294, #149, #173 ) ;
#66 = DIRECTION ( 'NONE',  ( 3.491481338843133355E-15, -1.224646799147353207E-16, 1.000000000000000000 ) ) ;
#67 = CARTESIAN_POINT ( 'NONE',  ( 0.0000000000000000000, 0.0000000000000000000, 0.0000000000000000000 ) ) ;
#68 = ORIENTED_EDGE ( 'NONE', *, *, #20, .F. ) ;
#69 = CC_DESIGN_APPROVAL ( #241, ( #188 ) ) ;
#70 = APPROVAL ( #52, 'UNSPECIFIED' ) ;
#71 = EDGE_LOOP ( 'NONE', ( #42 ) ) ;
#72 = EDGE_LOOP ( 'NONE', ( #178 ) ) ;
#73 = ADVANCED_FACE ( 'NONE', ( #130, #2 ), #159, .T. ) ;
#74 = APPLICATION_PROTOCOL_DEFINITION ( 'international standard', 'config_control_design', 1994, #301 ) ;
#75 = MANIFOLD_SOLID_BREP ( 'Corps-Déplacer/Copier1[1]', #238 ) ;
#76 = CARTESIAN_POINT ( 'NONE',  ( 1.745740669421566678E-13, -6.123233995736766085E-15, 50.00000000000000000 ) ) ;
#77 = CARTESIAN_POINT ( 'NONE',  ( 2.793185071074506684E-14, 8.286172799206747136E-33, 8.000000000000000000 ) ) ;
#78 = ORGANIZATION ( 'UNSPECIFIED', 'UNSPECIFIED', '' ) ;
#79 = MANIFOLD_SOLID_BREP ( 'Corps-Déplacer/Copier1[2]', #230 ) ;
#80 = DIRECTION ( 'NONE',  ( -3.491481338843133355E-15, 1.224646799147353207E-16, -1.000000000000000000 ) ) ;
#81 = DIRECTION ( 'NONE',  ( -3.491481338843133355E-15, 1.224646799147353207E-16, -1.000000000000000000 ) ) ;
#82 = CC_DESIGN_PERSON_AND_ORGANIZATION_ASSIGNMENT ( #139, #205, ( #231 ) ) ;
#83 = CARTESIAN_POINT ( 'NONE',  ( 6.284666409917640040E-14, -2.168404344971008868E-15, 18.00000000000000000 ) ) ;
#84 = EDGE_LOOP ( 'NONE', ( #268 ) ) ;
#85 = CC_DESIGN_PERSON_AND_ORGANIZATION_ASSIGNMENT ( #26, #121, ( #283 ) ) ;
#86 = EDGE_LOOP ( 'NONE', ( #250 ) ) ;
#87 = LOCAL_TIME ( 15, 4, 8.000000000000000000, #62 ) ;
#88 = EDGE_LOOP ( 'NONE', ( #292 ) ) ;
#89 = ORIENTED_EDGE ( 'NONE', *, *, #14, .T. ) ;
#90 = AXIS2_PLACEMENT_3D ( 'NONE', #1, #97, #240 ) ;
#91 = DATE_AND_TIME ( #211, #253 ) ;
#92 = PERSON_AND_ORGANIZATION_ROLE ( 'design_supplier' ) ;
#93 = CALENDAR_DATE ( 2021, 1, 12 ) ;
#94 = CONICAL_SURFACE ( 'NONE', #90, 0.9549999999999988498, 0.5235987755982940417 ) ;
#95 = COORDINATED_UNIVERSAL_TIME_OFFSET ( 1, 0, .AHEAD. ) ;
#96 = CIRCLE ( 'NONE', #154, 1.104999999999999094 ) ;
#97 = DIRECTION ( 'NONE',  ( -3.491481338843133355E-15, 1.224646799147353207E-16, -1.000000000000000000 ) ) ;
#98 = PRODUCT_DEFINITION ( 'UNKNOWN', '', #188, #49 ) ;
#99 = DIRECTION ( 'NONE',  ( 0.0000000000000000000, 1.000000000000000000, 0.0000000000000000000 ) ) ;
#100 = CARTESIAN_POINT ( 'NONE',  ( 6.405924284287275164E-14, -2.246895775456749140E-15, 18.34729635533384595 ) ) ;
#101 = AXIS2_PLACEMENT_3D ( 'NONE', #76, #207, #146 ) ;
#102 = DIRECTION ( 'NONE',  ( 3.485846053189570097E-31, 1.000000000000000000, 9.811784366384663794E-17 ) ) ;
#103 = CALENDAR_DATE ( 2021, 1, 12 ) ;
#104 = DIRECTION ( 'NONE',  ( -3.491481338843133355E-15, 1.224646799147353207E-16, -1.000000000000000000 ) ) ;
#105 = CARTESIAN_POINT ( 'NONE',  ( 8.728703347107833388E-16, 1.104999999999999094, 0.2500000000000000000 ) ) ;
#106 = VERTEX_POINT ( 'NONE', #192 ) ;
#107 = FACE_BOUND ( 'NONE', #86, .T. ) ;
#108 = EDGE_LOOP ( 'NONE', ( #199 ) ) ;
#109 = CONICAL_SURFACE ( 'NONE', #247, 1.104999999999999094, 0.5235987755982920433 ) ;
#110 = CARTESIAN_POINT ( 'NONE',  ( 0.0000000000000000000, 0.0000000000000000000, 0.0000000000000000000 ) ) ;
#111 = VERTEX_POINT ( 'NONE', #18 ) ;
#112 = ADVANCED_FACE ( 'NONE', ( #56 ), #237, .F. ) ;
#113 = LOCAL_TIME ( 15, 4, 8.000000000000000000, #132 ) ;
#114 = EDGE_LOOP ( 'NONE', ( #16 ) ) ;
#115 = EDGE_CURVE ( 'NONE', #197, #197, #242, .T. ) ;
#116 = CYLINDRICAL_SURFACE ( 'NONE', #122, 1.104999999999999538 ) ;
#117 = ORIENTED_EDGE ( 'NONE', *, *, #115, .T. ) ;
#118 = APPROVAL_PERSON_ORGANIZATION ( #163, #232, #27 ) ;
#119 = CC_DESIGN_PERSON_AND_ORGANIZATION_ASSIGNMENT ( #60, #92, ( #188 ) ) ;
#120 = CARTESIAN_POINT ( 'NONE',  ( 8.728703347107829444E-16, -3.061616997868381785E-17, 0.2499999999999998890 ) ) ;
#121 = PERSON_AND_ORGANIZATION_ROLE ( 'design_owner' ) ;
#122 = AXIS2_PLACEMENT_3D ( 'NONE', #67, #297, #299 ) ;
#123 = CYLINDRICAL_SURFACE ( 'NONE', #22, 0.9549999999999995159 ) ;
#124 = CARTESIAN_POINT ( 'NONE',  ( 1.745740669421566678E-13, 8.998558695971067645E-33, 50.00000000000000000 ) ) ;
#125 = PERSON_AND_ORGANIZATION ( #271, #78 ) ;
#126 = CARTESIAN_POINT ( 'NONE',  ( 2.793185071074506684E-14, 8.286172799206747136E-33, 8.000000000000000000 ) ) ;
#127 = DIRECTION ( 'NONE',  ( 0.0000000000000000000, 1.000000000000000000, 0.0000000000000000000 ) ) ;
#128 = CC_DESIGN_APPROVAL ( #70, ( #231 ) ) ;
#129 = APPROVAL_STATUS ( 'not_yet_approved' ) ;
#130 = FACE_OUTER_BOUND ( 'NONE', #72, .T. ) ;
#131 = FACE_OUTER_BOUND ( 'NONE', #71, .T. ) ;
#132 = COORDINATED_UNIVERSAL_TIME_OFFSET ( 1, 0, .AHEAD. ) ;
#133 = AXIS2_PLACEMENT_3D ( 'NONE', #208, #104, #280 ) ;
#134 = DIRECTION ( 'NONE',  ( 1.000000000000000000, 0.0000000000000000000, 0.0000000000000000000 ) ) ;
#135 = ORIENTED_EDGE ( 'NONE', *, *, #147, .F. ) ;
#136 = CIRCLE ( 'NONE', #133, 0.9550000000000000711 ) ;
#137 = EDGE_LOOP ( 'NONE', ( #218 ) ) ;
#138 = ADVANCED_FACE ( 'NONE', ( #235 ), #148, .F. ) ;
#139 = PERSON_AND_ORGANIZATION ( #271, #78 ) ;
#140 = DIRECTION ( 'NONE',  ( 0.0000000000000000000, 1.000000000000000000, 0.0000000000000000000 ) ) ;
#141 = DIRECTION ( 'NONE',  ( 3.491481338843133355E-15, -1.224646799147353207E-16, 1.000000000000000000 ) ) ;
#142 = DATE_AND_TIME ( #181, #50 ) ;
#143 = FACE_OUTER_BOUND ( 'NONE', #114, .T. ) ;
#144 = DIRECTION ( 'NONE',  ( -3.491481338843133355E-15, 1.224646799147353207E-16, -1.000000000000000000 ) ) ;
#145 = DATE_AND_TIME ( #93, #87 ) ;
#146 = DIRECTION ( 'NONE',  ( 0.0000000000000000000, 1.000000000000000000, 0.0000000000000000000 ) ) ;
#147 = EDGE_CURVE ( 'NONE', #15, #15, #57, .T. ) ;
#148 = PLANE ( 'NONE',  #36 ) ;
#149 = DIRECTION ( 'NONE',  ( 3.491481338843133355E-15, -1.224646799147353207E-16, 1.000000000000000000 ) ) ;
#150 = AXIS2_PLACEMENT_3D ( 'NONE', #259, #264, #171 ) ;
#151 = ADVANCED_FACE ( 'NONE', ( #185, #12 ), #48, .F. ) ;
#152 = FACE_OUTER_BOUND ( 'NONE', #249, .T. ) ;
#153 = MECHANICAL_CONTEXT ( 'NONE', #55, 'mechanical' ) ;
#154 = AXIS2_PLACEMENT_3D ( 'NONE', #213, #10, #102 ) ;
#155 = EDGE_LOOP ( 'NONE', ( #227 ) ) ;
#156 = VERTEX_POINT ( 'NONE', #215 ) ;
#157 = EDGE_LOOP ( 'NONE', ( #135 ) ) ;
#158 = FACE_OUTER_BOUND ( 'NONE', #245, .T. ) ;
#159 = CONICAL_SURFACE ( 'NONE', #101, 1.200000000000001732, 0.7853981633974453924 ) ;
#160 = FACE_BOUND ( 'NONE', #88, .T. ) ;
#161 = ADVANCED_FACE ( 'NONE', ( #143, #30 ), #94, .T. ) ;
#162 = UNCERTAINTY_MEASURE_WITH_UNIT (LENGTH_MEASURE( 1.000000000000000082E-05 ), #174, 'distance_accuracy_value', 'NONE');
#163 = PERSON_AND_ORGANIZATION ( #271, #78 ) ;
#164 = CONICAL_SURFACE ( 'NONE', #24, 1.499999999999996669, 0.1745329251994263697 ) ;
#165 = APPROVAL_DATE_TIME ( #142, #232 ) ;
#166 = CARTESIAN_POINT ( 'NONE',  ( 2.793185071074506684E-14, -9.797174393178825657E-16, 8.000000000000000000 ) ) ;
#167 = AXIS2_PLACEMENT_3D ( 'NONE', #83, #168, #261 ) ;
#168 = DIRECTION ( 'NONE',  ( -3.491481338843133355E-15, 1.224646799147353207E-16, -1.000000000000000000 ) ) ;
#169 = EDGE_CURVE ( 'NONE', #267, #267, #182, .T. ) ;
#170 = CARTESIAN_POINT ( 'NONE',  ( 1.745740669421566678E-13, -6.123233995736766085E-15, 50.00000000000000000 ) ) ;
#171 = DIRECTION ( 'NONE',  ( 0.0000000000000000000, 1.000000000000000000, 0.0000000000000000000 ) ) ;
#172 = AXIS2_PLACEMENT_3D ( 'NONE', #166, #216, #99 ) ;
#173 = DIRECTION ( 'NONE',  ( -4.275831445896958607E-31, -1.000000000000000000, -1.224646799147353207E-16 ) ) ;
#174 =( LENGTH_UNIT ( ) NAMED_UNIT ( * ) SI_UNIT ( .MILLI., .METRE. ) );
#175 = ORIENTED_EDGE ( 'NONE', *, *, #64, .T. ) ;
#176 = ORIENTED_EDGE ( 'NONE', *, *, #115, .F. ) ;
#177 = LOCAL_TIME ( 15, 4, 8.000000000000000000, #25 ) ;
#178 = ORIENTED_EDGE ( 'NONE', *, *, #302, .F. ) ;
#179 = CIRCLE ( 'NONE', #228, 0.9549999999999988498 ) ;
#180 = VERTEX_POINT ( 'NONE', #254 ) ;
#181 = CALENDAR_DATE ( 2021, 1, 12 ) ;
#182 = CIRCLE ( 'NONE', #273, 0.9606624327025947707 ) ;
#183 = PERSON_AND_ORGANIZATION ( #271, #78 ) ;
#184 = DIRECTION ( 'NONE',  ( -3.491481338843133355E-15, 1.224646799147353207E-16, -1.000000000000000000 ) ) ;
#185 = FACE_OUTER_BOUND ( 'NONE', #194, .T. ) ;
#186 = DIRECTION ( 'NONE',  ( -3.485846053189570097E-31, -1.000000000000000000, -9.811784366384663794E-17 ) ) ;
#187 = ADVANCED_FACE ( 'NONE', ( #210 ), #33, .T. ) ;
#188 = PRODUCT_DEFINITION_FORMATION_WITH_SPECIFIED_SOURCE ( 'ANY', '', #283, .NOT_KNOWN. ) ;
#189 = DATE_AND_TIME ( #103, #113 ) ;
#190 = DIRECTION ( 'NONE',  ( -3.491481338843133355E-15, 1.224646799147353207E-16, -1.000000000000000000 ) ) ;
#191 = FACE_OUTER_BOUND ( 'NONE', #84, .T. ) ;
#192 = CARTESIAN_POINT ( 'NONE',  ( 6.284666409917640040E-14, 0.9549999999999979616, 18.00000000000000000 ) ) ;
#193 = CARTESIAN_POINT ( 'NONE',  ( -4.107630638641625712E-31, 1.440762881281455149E-32, -1.176472173270342413E-16 ) ) ;
#194 = EDGE_LOOP ( 'NONE', ( #224 ) ) ;
#195 = AXIS2_PLACEMENT_3D ( 'NONE', #110, #196, #3 ) ;
#196 = DIRECTION ( 'NONE',  ( -3.491481338843133355E-15, 1.224646799147353207E-16, -1.000000000000000000 ) ) ;
#197 = VERTEX_POINT ( 'NONE', #39 ) ;
#198 = ORIENTED_EDGE ( 'NONE', *, *, #34, .F. ) ;
#199 = ORIENTED_EDGE ( 'NONE', *, *, #302, .T. ) ;
#200 = EDGE_LOOP ( 'NONE', ( #229 ) ) ;
#201 = EDGE_CURVE ( 'NONE', #41, #41, #204, .T. ) ;
#202 = DIRECTION ( 'NONE',  ( 0.0000000000000000000, -1.000000000000000000, 0.0000000000000000000 ) ) ;
#203 = FACE_OUTER_BOUND ( 'NONE', #137, .T. ) ;
#204 = CIRCLE ( 'NONE', #269, 0.9853844939755802557 ) ;
#205 = PERSON_AND_ORGANIZATION_ROLE ( 'classification_officer' ) ;
#206 = AXIS2_PLACEMENT_3D ( 'NONE', #126, #262, #4 ) ;
#207 = DIRECTION ( 'NONE',  ( -3.491481338843133355E-15, 1.224646799147353207E-16, -1.000000000000000000 ) ) ;
#208 = CARTESIAN_POINT ( 'NONE',  ( 6.284666409917640040E-14, -2.204364238465235428E-15, 18.00000000000000000 ) ) ;
#209 = PERSON_AND_ORGANIZATION_ROLE ( 'creator' ) ;
#210 = FACE_OUTER_BOUND ( 'NONE', #157, .T. ) ;
#211 = CALENDAR_DATE ( 2021, 1, 12 ) ;
#212 = APPROVAL_PERSON_ORGANIZATION ( #290, #70, #54 ) ;
#213 = CARTESIAN_POINT ( 'NONE',  ( 8.728703347107829444E-16, -3.061616997868381785E-17, 0.2499999999999998890 ) ) ;
#214 = CC_DESIGN_PERSON_AND_ORGANIZATION_ASSIGNMENT ( #125, #209, ( #188 ) ) ;
#215 = CARTESIAN_POINT ( 'NONE',  ( 1.735266225405037467E-13, 1.499999999999995559, 49.70000000000000284 ) ) ;
#216 = DIRECTION ( 'NONE',  ( -3.491481338843133355E-15, 1.224646799147353207E-16, -1.000000000000000000 ) ) ;
#217 = VERTEX_POINT ( 'NONE', #105 ) ;
#218 = ORIENTED_EDGE ( 'NONE', *, *, #20, .T. ) ;
#219 = FACE_OUTER_BOUND ( 'NONE', #295, .T. ) ;
#220 = DATE_TIME_ROLE ( 'creation_date' ) ;
#221 = AXIS2_PLACEMENT_3D ( 'NONE', #19, #43, #134 ) ;
#222 =( GEOMETRIC_REPRESENTATION_CONTEXT ( 3 ) GLOBAL_UNCERTAINTY_ASSIGNED_CONTEXT ( ( #162 ) ) GLOBAL_UNIT_ASSIGNED_CONTEXT ( ( #174, #272, #29 ) ) REPRESENTATION_CONTEXT ( 'NONE', 'WORKASPACE' ) );
#223 = CARTESIAN_POINT ( 'NONE',  ( 7.424923435037990254E-14, -2.604312564261416988E-15, 21.26582591874359807 ) ) ;
#224 = ORIENTED_EDGE ( 'NONE', *, *, #64, .F. ) ;
#225 = ADVANCED_FACE ( 'NONE', ( #158, #251 ), #46, .T. ) ;
#226 = CARTESIAN_POINT ( 'NONE',  ( 0.0000000000000000000, 0.9606624327025947707, 0.0000000000000000000 ) ) ;
#227 = ORIENTED_EDGE ( 'NONE', *, *, #58, .T. ) ;
#228 = AXIS2_PLACEMENT_3D ( 'NONE', #61, #81, #282 ) ;
#229 = ORIENTED_EDGE ( 'NONE', *, *, #34, .T. ) ;
#230 = CLOSED_SHELL ( 'NONE', ( #275, #265, #258, #187 ) ) ;
#231 = SECURITY_CLASSIFICATION ( '', '', #233 ) ;
#232 = APPROVAL ( #281, 'UNSPECIFIED' ) ;
#233 = SECURITY_CLASSIFICATION_LEVEL ( 'unclassified' ) ;
#234 = DIRECTION ( 'NONE',  ( 3.491481338843133355E-15, -1.224646799147353207E-16, 1.000000000000000000 ) ) ;
#235 = FACE_OUTER_BOUND ( 'NONE', #17, .T. ) ;
#236 = AXIS2_PLACEMENT_3D ( 'NONE', #284, #144, #263 ) ;
#237 = PLANE ( 'NONE',  #293 ) ;
#238 = CLOSED_SHELL ( 'NONE', ( #112, #161, #51, #151, #246, #225, #73, #138 ) ) ;
#239 = DIRECTION ( 'NONE',  ( 4.275831445896958607E-31, 1.000000000000000000, 1.224646799147353207E-16 ) ) ;
#240 = DIRECTION ( 'NONE',  ( 0.0000000000000000000, 1.000000000000000000, 0.0000000000000000000 ) ) ;
#241 = APPROVAL ( #129, 'UNSPECIFIED' ) ;
#242 = CIRCLE ( 'NONE', #31, 1.200000000000001732 ) ;
#243 = DIRECTION ( 'NONE',  ( -3.491481338843133355E-15, 1.224646799147353207E-16, -1.000000000000000000 ) ) ;
#244 = VERTEX_POINT ( 'NONE', #289 ) ;
#245 = EDGE_LOOP ( 'NONE', ( #198 ) ) ;
#246 = ADVANCED_FACE ( 'NONE', ( #107, #291 ), #164, .T. ) ;
#247 = AXIS2_PLACEMENT_3D ( 'NONE', #120, #234, #186 ) ;
#248 = CARTESIAN_POINT ( 'NONE',  ( 2.793185071074506684E-14, 1.104999999999999094, 8.000000000000000000 ) ) ;
#249 = EDGE_LOOP ( 'NONE', ( #68 ) ) ;
#250 = ORIENTED_EDGE ( 'NONE', *, *, #201, .F. ) ;
#251 = FACE_OUTER_BOUND ( 'NONE', #108, .T. ) ;
#252 = EDGE_LOOP ( 'NONE', ( #89 ) ) ;
#253 = LOCAL_TIME ( 15, 4, 8.000000000000000000, #286 ) ;
#254 = CARTESIAN_POINT ( 'NONE',  ( 2.883896417162832445E-14, 0.9549999999999978506, 8.259807621135337286 ) ) ;
#255 = ADVANCED_BREP_SHAPE_REPRESENTATION ( '327063', ( #75, #79, #221 ), #222 ) ;
#256 = DIRECTION ( 'NONE',  ( 4.275831445896958607E-31, 1.000000000000000000, 1.224646799147353207E-16 ) ) ;
#257 = SHAPE_DEFINITION_REPRESENTATION ( #11, #255 ) ;
#258 = ADVANCED_FACE ( 'NONE', ( #152, #131 ), #116, .T. ) ;
#259 = CARTESIAN_POINT ( 'NONE',  ( 2.793185071074506684E-14, -9.797174393178825657E-16, 8.000000000000000000 ) ) ;
#260 = CIRCLE ( 'NONE', #236, 1.500000000000001554 ) ;
#261 = DIRECTION ( 'NONE',  ( 4.275831445896958607E-31, 1.000000000000000000, 1.224646799147353207E-16 ) ) ;
#262 = DIRECTION ( 'NONE',  ( 3.491481338843133355E-15, -1.224646799147353207E-16, 1.000000000000000000 ) ) ;
#263 = DIRECTION ( 'NONE',  ( 0.0000000000000000000, 1.000000000000000000, 0.0000000000000000000 ) ) ;
#264 = DIRECTION ( 'NONE',  ( -3.491481338843133355E-15, 1.224646799147353207E-16, -1.000000000000000000 ) ) ;
#265 = ADVANCED_FACE ( 'NONE', ( #160, #203 ), #109, .T. ) ;
#266 = CIRCLE ( 'NONE', #300, 1.499999999999996669 ) ;
#267 = VERTEX_POINT ( 'NONE', #226 ) ;
#268 = ORIENTED_EDGE ( 'NONE', *, *, #58, .F. ) ;
#269 = AXIS2_PLACEMENT_3D ( 'NONE', #100, #190, #287 ) ;
#270 = EDGE_LOOP ( 'NONE', ( #175 ) ) ;
#271 = PERSON ( 'UNSPECIFIED', 'UNSPECIFIED', 'UNSPECIFIED', ('UNSPECIFIED'), ('UNSPECIFIED'), ('UNSPECIFIED') ) ;
#272 =( NAMED_UNIT ( * ) PLANE_ANGLE_UNIT ( ) SI_UNIT ( $, .RADIAN. ) );
#273 = AXIS2_PLACEMENT_3D ( 'NONE', #193, #184, #239 ) ;
#274 = APPROVAL_DATE_TIME ( #91, #241 ) ;
#275 = ADVANCED_FACE ( 'NONE', ( #219 ), #6, .F. ) ;
#276 = CALENDAR_DATE ( 2021, 1, 12 ) ;
#277 = CC_DESIGN_SECURITY_CLASSIFICATION ( #231, ( #188 ) ) ;
#278 = CIRCLE ( 'NONE', #150, 1.104999999999999982 ) ;
#279 = APPROVAL_DATE_TIME ( #145, #70 ) ;
#280 = DIRECTION ( 'NONE',  ( 0.0000000000000000000, 1.000000000000000000, 0.0000000000000000000 ) ) ;
#281 = APPROVAL_STATUS ( 'not_yet_approved' ) ;
#282 = DIRECTION ( 'NONE',  ( 0.0000000000000000000, 1.000000000000000000, 0.0000000000000000000 ) ) ;
#283 = PRODUCT ( '327063', '327063', '', ( #153 ) ) ;
#284 = CARTESIAN_POINT ( 'NONE',  ( 1.735266225405037467E-13, -6.086494591762345225E-15, 49.70000000000000284 ) ) ;
#285 = CC_DESIGN_APPROVAL ( #232, ( #98 ) ) ;
#286 = COORDINATED_UNIVERSAL_TIME_OFFSET ( 1, 0, .AHEAD. ) ;
#287 = DIRECTION ( 'NONE',  ( 0.0000000000000000000, 1.000000000000000000, 0.0000000000000000000 ) ) ;
#288 = FACE_OUTER_BOUND ( 'NONE', #270, .T. ) ;
#289 = CARTESIAN_POINT ( 'NONE',  ( 2.793185071074506684E-14, 1.104999999999999094, 8.000000000000000000 ) ) ;
#290 = PERSON_AND_ORGANIZATION ( #271, #78 ) ;
#291 = FACE_OUTER_BOUND ( 'NONE', #200, .T. ) ;
#292 = ORIENTED_EDGE ( 'NONE', *, *, #169, .F. ) ;
#293 = AXIS2_PLACEMENT_3D ( 'NONE', #77, #141, #53 ) ;
#294 = CARTESIAN_POINT ( 'NONE',  ( -2.053815319320812856E-31, 7.203814406407275745E-33, -5.882360866351712067E-17 ) ) ;
#295 = EDGE_LOOP ( 'NONE', ( #298 ) ) ;
#296 = CARTESIAN_POINT ( 'NONE',  ( 6.405924284287275164E-14, 0.9853844939755780352, 18.34729635533384595 ) ) ;
#297 = DIRECTION ( 'NONE',  ( -3.491481338843133355E-15, 1.224646799147353207E-16, -1.000000000000000000 ) ) ;
#298 = ORIENTED_EDGE ( 'NONE', *, *, #169, .T. ) ;
#299 = DIRECTION ( 'NONE',  ( 4.275831445896958607E-31, 1.000000000000000000, 1.224646799147353454E-16 ) ) ;
#300 = AXIS2_PLACEMENT_3D ( 'NONE', #38, #80, #127 ) ;
#301 = APPLICATION_CONTEXT ( 'configuration controlled 3d designs of mechanical parts and assemblies' ) ;
#302 = EDGE_CURVE ( 'NONE', #156, #156, #260, .T. ) ;
#303 = CC_DESIGN_DATE_AND_TIME_ASSIGNMENT ( #189, #220, ( #98 ) ) ;
ENDSEC;
END-ISO-10303-21;
