ISO-10303-21;
HEADER;
FILE_DESCRIPTION (( 'STEP AP203' ),
    '1' );
FILE_NAME ('327062.step',
    '2021-12-01T14:04:07',
    ( '' ),
    ( '' ),
    'SwSTEP 2.0',
    'SolidWorks 2019',
    '' );
FILE_SCHEMA (( 'CONFIG_CONTROL_DESIGN' ));
ENDSEC;

DATA;
#1 = APPROVAL_PERSON_ORGANIZATION ( #77, #105, #30 ) ;
#2 = CARTESIAN_POINT ( 'NONE',  ( 6.405924284287272640E-14, -2.246895775456748352E-15, 18.34729635533383885 ) ) ;
#3 = CALENDAR_DATE ( 2021, 1, 12 ) ;
#4 = FACE_OUTER_BOUND ( 'NONE', #79, .T. ) ;
#5 = CC_DESIGN_PERSON_AND_ORGANIZATION_ASSIGNMENT ( #174, #27, ( #210 ) ) ;
#6 = DATE_AND_TIME ( #45, #236 ) ;
#7 = EDGE_LOOP ( 'NONE', ( #303 ) ) ;
#8 = ORIENTED_EDGE ( 'NONE', *, *, #248, .F. ) ;
#9 = APPROVAL_ROLE ( '' ) ;
#10 = AXIS2_PLACEMENT_3D ( 'NONE', #231, #41, #43 ) ;
#11 = EDGE_LOOP ( 'NONE', ( #170 ) ) ;
#12 = COORDINATED_UNIVERSAL_TIME_OFFSET ( 1, 0, .AHEAD. ) ;
#13 = ADVANCED_FACE ( 'NONE', ( #219, #32 ), #151, .T. ) ;
#14 = DIRECTION ( 'NONE',  ( -3.491481338843133355E-15, 1.224646799147353207E-16, -1.000000000000000000 ) ) ;
#15 = CARTESIAN_POINT ( 'NONE',  ( 2.793185071074506684E-14, -9.797174393178825657E-16, 8.000000000000000000 ) ) ;
#16 = AXIS2_PLACEMENT_3D ( 'NONE', #125, #217, #120 ) ;
#17 = DIRECTION ( 'NONE',  ( 0.0000000000000000000, 1.000000000000000000, 0.0000000000000000000 ) ) ;
#18 = CC_DESIGN_PERSON_AND_ORGANIZATION_ASSIGNMENT ( #188, #97, ( #263 ) ) ;
#19 = DIRECTION ( 'NONE',  ( 0.0000000000000000000, 1.000000000000000000, 0.0000000000000000000 ) ) ;
#20 = DIRECTION ( 'NONE',  ( -3.491481338843133355E-15, 1.224646799147353207E-16, -1.000000000000000000 ) ) ;
#21 =( GEOMETRIC_REPRESENTATION_CONTEXT ( 3 ) GLOBAL_UNCERTAINTY_ASSIGNED_CONTEXT ( ( #183 ) ) GLOBAL_UNIT_ASSIGNED_CONTEXT ( ( #81, #216, #35 ) ) REPRESENTATION_CONTEXT ( 'NONE', 'WORKASPACE' ) );
#22 = VERTEX_POINT ( 'NONE', #232 ) ;
#23 = EDGE_LOOP ( 'NONE', ( #173 ) ) ;
#24 = ORIENTED_EDGE ( 'NONE', *, *, #280, .T. ) ;
#25 = EDGE_CURVE ( 'NONE', #249, #249, #160, .T. ) ;
#26 = ORIENTED_EDGE ( 'NONE', *, *, #71, .T. ) ;
#27 = PERSON_AND_ORGANIZATION_ROLE ( 'classification_officer' ) ;
#28 = ADVANCED_FACE ( 'NONE', ( #287, #264 ), #215, .T. ) ;
#29 = ORIENTED_EDGE ( 'NONE', *, *, #49, .T. ) ;
#30 = APPROVAL_ROLE ( '' ) ;
#31 = AXIS2_PLACEMENT_3D ( 'NONE', #133, #107, #111 ) ;
#32 = FACE_OUTER_BOUND ( 'NONE', #11, .T. ) ;
#33 = APPLICATION_PROTOCOL_DEFINITION ( 'international standard', 'config_control_design', 1994, #258 ) ;
#34 = DIRECTION ( 'NONE',  ( -3.491481338843133355E-15, 1.224646799147353207E-16, -1.000000000000000000 ) ) ;
#35 =( NAMED_UNIT ( * ) SI_UNIT ( $, .STERADIAN. ) SOLID_ANGLE_UNIT ( ) );
#36 = EDGE_LOOP ( 'NONE', ( #29 ) ) ;
#37 = CALENDAR_DATE ( 2021, 1, 12 ) ;
#38 = CIRCLE ( 'NONE', #256, 1.090000000000000080 ) ;
#39 = ADVANCED_FACE ( 'NONE', ( #4, #212 ), #242, .T. ) ;
#40 = DIRECTION ( 'NONE',  ( 4.275831445896958607E-31, 1.000000000000000000, 1.224646799147353207E-16 ) ) ;
#41 = DIRECTION ( 'NONE',  ( -3.491481338843133355E-15, 1.224646799147353207E-16, -1.000000000000000000 ) ) ;
#42 = DIRECTION ( 'NONE',  ( 0.0000000000000000000, 1.000000000000000000, 0.0000000000000000000 ) ) ;
#43 = DIRECTION ( 'NONE',  ( 4.275831445896958607E-31, 1.000000000000000000, 1.224646799147353207E-16 ) ) ;
#44 = CARTESIAN_POINT ( 'NONE',  ( 1.735266225405037467E-13, -6.086494591762345225E-15, 49.70000000000000284 ) ) ;
#45 = CALENDAR_DATE ( 2021, 1, 12 ) ;
#46 = PRODUCT ( '327062', '327062', '', ( #224 ) ) ;
#47 = CARTESIAN_POINT ( 'NONE',  ( 6.284666409917640040E-14, 0.9399999999999977263, 18.00000000000000000 ) ) ;
#48 = EDGE_LOOP ( 'NONE', ( #74 ) ) ;
#49 = EDGE_CURVE ( 'NONE', #70, #70, #72, .T. ) ;
#50 = LOCAL_TIME ( 15, 4, 7.000000000000000000, #56 ) ;
#51 = EDGE_LOOP ( 'NONE', ( #24 ) ) ;
#52 = CIRCLE ( 'NONE', #272, 1.090000000000000080 ) ;
#53 = COORDINATED_UNIVERSAL_TIME_OFFSET ( 1, 0, .AHEAD. ) ;
#54 = CARTESIAN_POINT ( 'NONE',  ( 2.883896417162832445E-14, -1.011534696479630343E-15, 8.259807621135337286 ) ) ;
#55 = ORIENTED_EDGE ( 'NONE', *, *, #244, .F. ) ;
#56 = COORDINATED_UNIVERSAL_TIME_OFFSET ( 1, 0, .AHEAD. ) ;
#57 = ORIENTED_EDGE ( 'NONE', *, *, #297, .F. ) ;
#58 = EDGE_LOOP ( 'NONE', ( #145 ) ) ;
#59 = VERTEX_POINT ( 'NONE', #291 ) ;
#60 = CC_DESIGN_APPROVAL ( #193, ( #263 ) ) ;
#61 = FACE_OUTER_BOUND ( 'NONE', #153, .T. ) ;
#62 = AXIS2_PLACEMENT_3D ( 'NONE', #44, #276, #300 ) ;
#63 = DIRECTION ( 'NONE',  ( 0.0000000000000000000, 1.000000000000000000, 0.0000000000000000000 ) ) ;
#64 = CC_DESIGN_PERSON_AND_ORGANIZATION_ASSIGNMENT ( #148, #75, ( #46 ) ) ;
#65 = SHAPE_DEFINITION_REPRESENTATION ( #112, #204 ) ;
#66 = DIRECTION ( 'NONE',  ( -3.533816411719702232E-31, -1.000000000000000000, -9.946808921885371403E-17 ) ) ;
#67 = DIRECTION ( 'NONE',  ( -3.491481338843133355E-15, 1.224646799147353207E-16, -1.000000000000000000 ) ) ;
#68 = TOROIDAL_SURFACE ( 'NONE', #246, 2.939999999999999947, 2.000000000000000444 ) ;
#69 = DIRECTION ( 'NONE',  ( -4.275831445896958607E-31, -1.000000000000000000, -1.224646799147353207E-16 ) ) ;
#70 = VERTEX_POINT ( 'NONE', #206 ) ;
#71 = EDGE_CURVE ( 'NONE', #163, #163, #85, .T. ) ;
#72 = CIRCLE ( 'NONE', #279, 0.9456624327025945353 ) ;
#73 = DESIGN_CONTEXT ( 'detailed design', #258, 'design' ) ;
#74 = ORIENTED_EDGE ( 'NONE', *, *, #293, .F. ) ;
#75 = PERSON_AND_ORGANIZATION_ROLE ( 'design_owner' ) ;
#76 = DIRECTION ( 'NONE',  ( -3.491481338843133355E-15, 1.224646799147353207E-16, -1.000000000000000000 ) ) ;
#77 = PERSON_AND_ORGANIZATION ( #261, #185 ) ;
#78 = CC_DESIGN_SECURITY_CLASSIFICATION ( #210, ( #190 ) ) ;
#79 = EDGE_LOOP ( 'NONE', ( #80 ) ) ;
#80 = ORIENTED_EDGE ( 'NONE', *, *, #119, .F. ) ;
#81 =( LENGTH_UNIT ( ) NAMED_UNIT ( * ) SI_UNIT ( .MILLI., .METRE. ) );
#82 = EDGE_LOOP ( 'NONE', ( #266 ) ) ;
#83 = DATE_AND_TIME ( #37, #227 ) ;
#84 = CARTESIAN_POINT ( 'NONE',  ( 8.728703347107829444E-16, -3.061616997868381785E-17, 0.2499999999999998890 ) ) ;
#85 = CIRCLE ( 'NONE', #260, 0.9399999999999987255 ) ;
#86 = CARTESIAN_POINT ( 'NONE',  ( 2.883896417162832445E-14, -1.011534696479630343E-15, 8.259807621135337286 ) ) ;
#87 = CARTESIAN_POINT ( 'NONE',  ( 2.793185071074506684E-14, -9.797174393178825657E-16, 8.000000000000000000 ) ) ;
#88 = DIRECTION ( 'NONE',  ( -3.491481338843133355E-15, 1.224646799147353207E-16, -1.000000000000000000 ) ) ;
#89 = CIRCLE ( 'NONE', #301, 0.9399999999999998357 ) ;
#90 = DIRECTION ( 'NONE',  ( 3.491481338843133355E-15, -1.224646799147353207E-16, 1.000000000000000000 ) ) ;
#91 = VERTEX_POINT ( 'NONE', #47 ) ;
#92 = ADVANCED_FACE ( 'NONE', ( #284, #168 ), #68, .F. ) ;
#93 = DIRECTION ( 'NONE',  ( -3.491481338843133355E-15, 1.224646799147353207E-16, -1.000000000000000000 ) ) ;
#94 = CARTESIAN_POINT ( 'NONE',  ( 0.0000000000000000000, 0.0000000000000000000, 0.0000000000000000000 ) ) ;
#95 = CARTESIAN_POINT ( 'NONE',  ( 1.745740669421566678E-13, 1.199999999999995515, 50.00000000000000000 ) ) ;
#96 = DIRECTION ( 'NONE',  ( -3.491481338843133355E-15, 1.224646799147353207E-16, -1.000000000000000000 ) ) ;
#97 = PERSON_AND_ORGANIZATION_ROLE ( 'creator' ) ;
#98 = CC_DESIGN_PERSON_AND_ORGANIZATION_ASSIGNMENT ( #218, #285, ( #190 ) ) ;
#99 = EDGE_LOOP ( 'NONE', ( #150 ) ) ;
#100 = CALENDAR_DATE ( 2021, 1, 12 ) ;
#101 = AXIS2_PLACEMENT_3D ( 'NONE', #110, #90, #251 ) ;
#102 = CARTESIAN_POINT ( 'NONE',  ( -5.936228993336331831E-31, 2.082148844623016506E-32, -1.700203557525884003E-16 ) ) ;
#103 = APPROVAL_DATE_TIME ( #83, #193 ) ;
#104 = DIRECTION ( 'NONE',  ( -3.491481338843133355E-15, 1.224646799147353207E-16, -1.000000000000000000 ) ) ;
#105 = APPROVAL ( #262, 'UNSPECIFIED' ) ;
#106 = CC_DESIGN_APPROVAL ( #221, ( #210 ) ) ;
#107 = DIRECTION ( 'NONE',  ( -3.491481338843133355E-15, 1.224646799147353207E-16, -1.000000000000000000 ) ) ;
#108 = PERSON_AND_ORGANIZATION ( #261, #185 ) ;
#109 = CLOSED_SHELL ( 'NONE', ( #164, #211, #184, #92, #13, #39, #127, #118 ) ) ;
#110 = CARTESIAN_POINT ( 'NONE',  ( 2.793185071074506684E-14, 8.173690815507111099E-33, 8.000000000000000000 ) ) ;
#111 = DIRECTION ( 'NONE',  ( 0.0000000000000000000, 1.000000000000000000, 0.0000000000000000000 ) ) ;
#112 = PRODUCT_DEFINITION_SHAPE ( 'NONE', 'NONE',  #263 ) ;
#113 = PRODUCT_RELATED_PRODUCT_CATEGORY ( 'detail', '', ( #46 ) ) ;
#114 = FACE_OUTER_BOUND ( 'NONE', #235, .T. ) ;
#115 = CONICAL_SURFACE ( 'NONE', #233, 1.200000000000001732, 0.7853981633974453924 ) ;
#116 = VERTEX_POINT ( 'NONE', #254 ) ;
#117 = EDGE_LOOP ( 'NONE', ( #57 ) ) ;
#118 = ADVANCED_FACE ( 'NONE', ( #289 ), #250, .F. ) ;
#119 = EDGE_CURVE ( 'NONE', #22, #22, #140, .T. ) ;
#120 = DIRECTION ( 'NONE',  ( 0.0000000000000000000, -1.000000000000000000, 0.0000000000000000000 ) ) ;
#121 = VERTEX_POINT ( 'NONE', #269 ) ;
#122 = EDGE_LOOP ( 'NONE', ( #240 ) ) ;
#123 = AXIS2_PLACEMENT_3D ( 'NONE', #138, #67, #63 ) ;
#124 = CALENDAR_DATE ( 2021, 1, 12 ) ;
#125 = CARTESIAN_POINT ( 'NONE',  ( 7.454625196998764291E-14, -2.614730539952603354E-15, 21.35089514603786753 ) ) ;
#126 = DIRECTION ( 'NONE',  ( 0.0000000000000000000, 0.0000000000000000000, 1.000000000000000000 ) ) ;
#127 = ADVANCED_FACE ( 'NONE', ( #135, #136 ), #115, .T. ) ;
#128 = DIRECTION ( 'NONE',  ( 4.275831445896958607E-31, 1.000000000000000000, 1.224646799147353207E-16 ) ) ;
#129 = PERSON_AND_ORGANIZATION ( #261, #185 ) ;
#130 = DIRECTION ( 'NONE',  ( 0.0000000000000000000, 1.000000000000000000, 0.0000000000000000000 ) ) ;
#131 = APPLICATION_PROTOCOL_DEFINITION ( 'international standard', 'config_control_design', 1994, #209 ) ;
#132 = AXIS2_PLACEMENT_3D ( 'NONE', #292, #229, #295 ) ;
#133 = CARTESIAN_POINT ( 'NONE',  ( 7.454625196998764291E-14, -2.614730539952603354E-15, 21.35089514603786753 ) ) ;
#134 = PLANE ( 'NONE',  #177 ) ;
#135 = FACE_OUTER_BOUND ( 'NONE', #48, .T. ) ;
#136 = FACE_BOUND ( 'NONE', #175, .T. ) ;
#137 = EDGE_CURVE ( 'NONE', #116, #116, #52, .T. ) ;
#138 = CARTESIAN_POINT ( 'NONE',  ( 1.745740669421566678E-13, -6.123233995736766085E-15, 50.00000000000000000 ) ) ;
#139 = VERTEX_POINT ( 'NONE', #281 ) ;
#140 = CIRCLE ( 'NONE', #31, 1.499999999999996669 ) ;
#141 = ORIENTED_EDGE ( 'NONE', *, *, #137, .F. ) ;
#142 = LOCAL_TIME ( 15, 4, 7.000000000000000000, #53 ) ;
#143 = AXIS2_PLACEMENT_3D ( 'NONE', #197, #201, #66 ) ;
#144 = CC_DESIGN_DATE_AND_TIME_ASSIGNMENT ( #195, #243, ( #263 ) ) ;
#145 = ORIENTED_EDGE ( 'NONE', *, *, #137, .T. ) ;
#146 = APPROVAL_DATE_TIME ( #270, #105 ) ;
#147 = DIRECTION ( 'NONE',  ( 0.0000000000000000000, 1.000000000000000000, 0.0000000000000000000 ) ) ;
#148 = PERSON_AND_ORGANIZATION ( #261, #185 ) ;
#149 = ADVANCED_FACE ( 'NONE', ( #157 ), #156, .T. ) ;
#150 = ORIENTED_EDGE ( 'NONE', *, *, #293, .T. ) ;
#151 = CONICAL_SURFACE ( 'NONE', #16, 1.499999999999996669, 0.1745329251994260922 ) ;
#152 = EDGE_LOOP ( 'NONE', ( #271 ) ) ;
#153 = EDGE_LOOP ( 'NONE', ( #194 ) ) ;
#154 = DIRECTION ( 'NONE',  ( 4.275831445896959482E-31, 1.000000000000000000, 1.224646799147353207E-16 ) ) ;
#155 = AXIS2_PLACEMENT_3D ( 'NONE', #86, #225, #19 ) ;
#156 = PLANE ( 'NONE',  #101 ) ;
#157 = FACE_OUTER_BOUND ( 'NONE', #152, .T. ) ;
#158 = FACE_BOUND ( 'NONE', #7, .T. ) ;
#159 = ADVANCED_FACE ( 'NONE', ( #158, #182 ), #222, .T. ) ;
#160 = CIRCLE ( 'NONE', #282, 0.9703844939755796872 ) ;
#161 = FACE_OUTER_BOUND ( 'NONE', #122, .T. ) ;
#162 = APPROVAL_ROLE ( '' ) ;
#163 = VERTEX_POINT ( 'NONE', #302 ) ;
#164 = ADVANCED_FACE ( 'NONE', ( #273 ), #134, .F. ) ;
#165 = AXIS2_PLACEMENT_3D ( 'NONE', #94, #187, #223 ) ;
#166 = ADVANCED_FACE ( 'NONE', ( #203 ), #298, .F. ) ;
#167 = CIRCLE ( 'NONE', #239, 1.089999999999998970 ) ;
#168 = FACE_OUTER_BOUND ( 'NONE', #82, .T. ) ;
#169 = CARTESIAN_POINT ( 'NONE',  ( 0.0000000000000000000, 0.0000000000000000000, 0.0000000000000000000 ) ) ;
#170 = ORIENTED_EDGE ( 'NONE', *, *, #119, .T. ) ;
#171 = VERTEX_POINT ( 'NONE', #95 ) ;
#172 = CARTESIAN_POINT ( 'NONE',  ( 0.0000000000000000000, 0.0000000000000000000, 0.0000000000000000000 ) ) ;
#173 = ORIENTED_EDGE ( 'NONE', *, *, #25, .F. ) ;
#174 = PERSON_AND_ORGANIZATION ( #261, #185 ) ;
#175 = EDGE_LOOP ( 'NONE', ( #290 ) ) ;
#176 = DIRECTION ( 'NONE',  ( -3.491481338843133355E-15, 1.224646799147353207E-16, -1.000000000000000000 ) ) ;
#177 = AXIS2_PLACEMENT_3D ( 'NONE', #275, #278, #69 ) ;
#178 = CARTESIAN_POINT ( 'NONE',  ( 1.745740669421566678E-13, -6.123233995736766085E-15, 50.00000000000000000 ) ) ;
#179 = MANIFOLD_SOLID_BREP ( 'Corps-Déplacer/Copier1[1]', #109 ) ;
#180 = CYLINDRICAL_SURFACE ( 'NONE', #294, 0.9399999999999992806 ) ;
#181 = DIRECTION ( 'NONE',  ( 0.0000000000000000000, 1.000000000000000000, 0.0000000000000000000 ) ) ;
#182 = FACE_OUTER_BOUND ( 'NONE', #255, .T. ) ;
#183 = UNCERTAINTY_MEASURE_WITH_UNIT (LENGTH_MEASURE( 1.000000000000000082E-05 ), #81, 'distance_accuracy_value', 'NONE');
#184 = ADVANCED_FACE ( 'NONE', ( #161, #61 ), #180, .T. ) ;
#185 = ORGANIZATION ( 'UNSPECIFIED', 'UNSPECIFIED', '' ) ;
#186 = DIRECTION ( 'NONE',  ( -3.491481338843133355E-15, 1.224646799147353207E-16, -1.000000000000000000 ) ) ;
#187 = DIRECTION ( 'NONE',  ( -3.491481338843133355E-15, 1.224646799147353207E-16, -1.000000000000000000 ) ) ;
#188 = PERSON_AND_ORGANIZATION ( #261, #185 ) ;
#189 = EDGE_LOOP ( 'NONE', ( #55 ) ) ;
#190 = PRODUCT_DEFINITION_FORMATION_WITH_SPECIFIED_SOURCE ( 'ANY', '', #46, .NOT_KNOWN. ) ;
#191 = EDGE_LOOP ( 'NONE', ( #26 ) ) ;
#192 = SECURITY_CLASSIFICATION_LEVEL ( 'unclassified' ) ;
#193 = APPROVAL ( #245, 'UNSPECIFIED' ) ;
#194 = ORIENTED_EDGE ( 'NONE', *, *, #244, .T. ) ;
#195 = DATE_AND_TIME ( #100, #142 ) ;
#196 = DIRECTION ( 'NONE',  ( 0.0000000000000000000, 1.000000000000000000, 0.0000000000000000000 ) ) ;
#197 = CARTESIAN_POINT ( 'NONE',  ( 8.728703347107829444E-16, -3.061616997868381785E-17, 0.2499999999999998890 ) ) ;
#198 = APPROVAL_STATUS ( 'not_yet_approved' ) ;
#199 = CONICAL_SURFACE ( 'NONE', #155, 0.9399999999999987255, 0.5235987755982940417 ) ;
#200 = DIRECTION ( 'NONE',  ( -3.491481338843133355E-15, 1.224646799147353207E-16, -1.000000000000000000 ) ) ;
#201 = DIRECTION ( 'NONE',  ( 3.491481338843133355E-15, -1.224646799147353207E-16, 1.000000000000000000 ) ) ;
#202 = CC_DESIGN_APPROVAL ( #105, ( #190 ) ) ;
#203 = FACE_OUTER_BOUND ( 'NONE', #36, .T. ) ;
#204 = ADVANCED_BREP_SHAPE_REPRESENTATION ( '327062', ( #179, #274, #277 ), #21 ) ;
#205 = AXIS2_PLACEMENT_3D ( 'NONE', #172, #93, #268 ) ;
#206 = CARTESIAN_POINT ( 'NONE',  ( -1.892735826383161356E-31, 0.9456624327025945353, -5.421010862427522170E-17 ) ) ;
#207 = CC_DESIGN_PERSON_AND_ORGANIZATION_ASSIGNMENT ( #129, #220, ( #190 ) ) ;
#208 = APPROVAL_DATE_TIME ( #6, #221 ) ;
#209 = APPLICATION_CONTEXT ( 'configuration controlled 3d designs of mechanical parts and assemblies' ) ;
#210 = SECURITY_CLASSIFICATION ( '', '', #192 ) ;
#211 = ADVANCED_FACE ( 'NONE', ( #114, #247 ), #199, .T. ) ;
#212 = FACE_OUTER_BOUND ( 'NONE', #99, .T. ) ;
#213 = COORDINATED_UNIVERSAL_TIME_OFFSET ( 1, 0, .AHEAD. ) ;
#214 = CIRCLE ( 'NONE', #123, 1.200000000000001732 ) ;
#215 = CYLINDRICAL_SURFACE ( 'NONE', #205, 1.089999999999999414 ) ;
#216 =( NAMED_UNIT ( * ) PLANE_ANGLE_UNIT ( ) SI_UNIT ( $, .RADIAN. ) );
#217 = DIRECTION ( 'NONE',  ( 3.491481338843133355E-15, -1.224646799147353207E-16, 1.000000000000000000 ) ) ;
#218 = PERSON_AND_ORGANIZATION ( #261, #185 ) ;
#219 = FACE_BOUND ( 'NONE', #23, .T. ) ;
#220 = PERSON_AND_ORGANIZATION_ROLE ( 'design_supplier' ) ;
#221 = APPROVAL ( #198, 'UNSPECIFIED' ) ;
#222 = CONICAL_SURFACE ( 'NONE', #143, 1.089999999999998970, 0.5235987755982925984 ) ;
#223 = DIRECTION ( 'NONE',  ( 4.275831445896958607E-31, 1.000000000000000000, 1.224646799147353454E-16 ) ) ;
#224 = MECHANICAL_CONTEXT ( 'NONE', #209, 'mechanical' ) ;
#225 = DIRECTION ( 'NONE',  ( -3.491481338843133355E-15, 1.224646799147353207E-16, -1.000000000000000000 ) ) ;
#226 = CARTESIAN_POINT ( 'NONE',  ( 6.405924284287272640E-14, 0.9703844939755773558, 18.34729635533383885 ) ) ;
#227 = LOCAL_TIME ( 15, 4, 7.000000000000000000, #12 ) ;
#228 = APPROVAL_PERSON_ORGANIZATION ( #267, #193, #9 ) ;
#229 = DIRECTION ( 'NONE',  ( 3.491481338843133355E-15, -1.224646799147353207E-16, 1.000000000000000000 ) ) ;
#230 = CARTESIAN_POINT ( 'NONE',  ( 0.0000000000000000000, 0.0000000000000000000, 0.0000000000000000000 ) ) ;
#231 = CARTESIAN_POINT ( 'NONE',  ( 1.745740669421566678E-13, 8.998558695971067645E-33, 50.00000000000000000 ) ) ;
#232 = CARTESIAN_POINT ( 'NONE',  ( 7.454625196998764291E-14, 1.499999999999994005, 21.35089514603786753 ) ) ;
#233 = AXIS2_PLACEMENT_3D ( 'NONE', #178, #88, #181 ) ;
#234 = APPROVAL_PERSON_ORGANIZATION ( #108, #221, #162 ) ;
#235 = EDGE_LOOP ( 'NONE', ( #141 ) ) ;
#236 = LOCAL_TIME ( 15, 4, 7.000000000000000000, #253 ) ;
#237 = EDGE_LOOP ( 'NONE', ( #8 ) ) ;
#238 = DATE_TIME_ROLE ( 'classification_date' ) ;
#239 = AXIS2_PLACEMENT_3D ( 'NONE', #84, #200, #296 ) ;
#240 = ORIENTED_EDGE ( 'NONE', *, *, #71, .F. ) ;
#241 = DIRECTION ( 'NONE',  ( 1.000000000000000000, 0.0000000000000000000, 0.0000000000000000000 ) ) ;
#242 = CYLINDRICAL_SURFACE ( 'NONE', #165, 1.499999999999999112 ) ;
#243 = DATE_TIME_ROLE ( 'creation_date' ) ;
#244 = EDGE_CURVE ( 'NONE', #91, #91, #89, .T. ) ;
#245 = APPROVAL_STATUS ( 'not_yet_approved' ) ;
#246 = AXIS2_PLACEMENT_3D ( 'NONE', #286, #76, #40 ) ;
#247 = FACE_BOUND ( 'NONE', #191, .T. ) ;
#248 = EDGE_CURVE ( 'NONE', #139, #139, #167, .T. ) ;
#249 = VERTEX_POINT ( 'NONE', #226 ) ;
#250 = PLANE ( 'NONE',  #10 ) ;
#251 = DIRECTION ( 'NONE',  ( -4.275831445896958607E-31, -1.000000000000000000, -1.224646799147353207E-16 ) ) ;
#252 = CARTESIAN_POINT ( 'NONE',  ( 6.284666409917640040E-14, -2.204364238465235428E-15, 18.00000000000000000 ) ) ;
#253 = COORDINATED_UNIVERSAL_TIME_OFFSET ( 1, 0, .AHEAD. ) ;
#254 = CARTESIAN_POINT ( 'NONE',  ( 2.793185071074506684E-14, 1.089999999999998970, 8.000000000000000000 ) ) ;
#255 = EDGE_LOOP ( 'NONE', ( #259 ) ) ;
#256 = AXIS2_PLACEMENT_3D ( 'NONE', #87, #20, #42 ) ;
#257 = CC_DESIGN_DATE_AND_TIME_ASSIGNMENT ( #265, #238, ( #210 ) ) ;
#258 = APPLICATION_CONTEXT ( 'configuration controlled 3d designs of mechanical parts and assemblies' ) ;
#259 = ORIENTED_EDGE ( 'NONE', *, *, #248, .T. ) ;
#260 = AXIS2_PLACEMENT_3D ( 'NONE', #54, #186, #147 ) ;
#261 = PERSON ( 'UNSPECIFIED', 'UNSPECIFIED', 'UNSPECIFIED', ('UNSPECIFIED'), ('UNSPECIFIED'), ('UNSPECIFIED') ) ;
#262 = APPROVAL_STATUS ( 'not_yet_approved' ) ;
#263 = PRODUCT_DEFINITION ( 'UNKNOWN', '', #190, #73 ) ;
#264 = FACE_OUTER_BOUND ( 'NONE', #51, .T. ) ;
#265 = DATE_AND_TIME ( #3, #299 ) ;
#266 = ORIENTED_EDGE ( 'NONE', *, *, #25, .T. ) ;
#267 = PERSON_AND_ORGANIZATION ( #261, #185 ) ;
#268 = DIRECTION ( 'NONE',  ( 4.275831445896958607E-31, 1.000000000000000000, 1.224646799147353207E-16 ) ) ;
#269 = CARTESIAN_POINT ( 'NONE',  ( 1.735266225405037467E-13, 1.499999999999995559, 49.70000000000000284 ) ) ;
#270 = DATE_AND_TIME ( #124, #50 ) ;
#271 = ORIENTED_EDGE ( 'NONE', *, *, #280, .F. ) ;
#272 = AXIS2_PLACEMENT_3D ( 'NONE', #15, #14, #196 ) ;
#273 = FACE_OUTER_BOUND ( 'NONE', #58, .T. ) ;
#274 = MANIFOLD_SOLID_BREP ( 'Corps-Déplacer/Copier1[2]', #288 ) ;
#275 = CARTESIAN_POINT ( 'NONE',  ( 2.793185071074506684E-14, 8.173690815507111099E-33, 8.000000000000000000 ) ) ;
#276 = DIRECTION ( 'NONE',  ( -3.491481338843133355E-15, 1.224646799147353207E-16, -1.000000000000000000 ) ) ;
#277 = AXIS2_PLACEMENT_3D ( 'NONE', #169, #126, #241 ) ;
#278 = DIRECTION ( 'NONE',  ( 3.491481338843133355E-15, -1.224646799147353207E-16, 1.000000000000000000 ) ) ;
#279 = AXIS2_PLACEMENT_3D ( 'NONE', #102, #34, #128 ) ;
#280 = EDGE_CURVE ( 'NONE', #59, #59, #38, .T. ) ;
#281 = CARTESIAN_POINT ( 'NONE',  ( 8.728703347107833388E-16, 1.089999999999998970, 0.2500000000000000000 ) ) ;
#282 = AXIS2_PLACEMENT_3D ( 'NONE', #2, #96, #130 ) ;
#283 = CIRCLE ( 'NONE', #62, 1.500000000000001554 ) ;
#284 = FACE_OUTER_BOUND ( 'NONE', #189, .T. ) ;
#285 = PERSON_AND_ORGANIZATION_ROLE ( 'creator' ) ;
#286 = CARTESIAN_POINT ( 'NONE',  ( 6.284666409917640040E-14, -2.168404344971008868E-15, 18.00000000000000000 ) ) ;
#287 = FACE_OUTER_BOUND ( 'NONE', #237, .T. ) ;
#288 = CLOSED_SHELL ( 'NONE', ( #166, #159, #28, #149 ) ) ;
#289 = FACE_OUTER_BOUND ( 'NONE', #117, .T. ) ;
#290 = ORIENTED_EDGE ( 'NONE', *, *, #297, .T. ) ;
#291 = CARTESIAN_POINT ( 'NONE',  ( 2.793185071074506684E-14, 1.089999999999998970, 8.000000000000000000 ) ) ;
#292 = CARTESIAN_POINT ( 'NONE',  ( -2.968114496668165916E-31, 1.041074422311508253E-32, -8.501017787629420016E-17 ) ) ;
#293 = EDGE_CURVE ( 'NONE', #121, #121, #283, .T. ) ;
#294 = AXIS2_PLACEMENT_3D ( 'NONE', #230, #176, #154 ) ;
#295 = DIRECTION ( 'NONE',  ( -4.275831445896958607E-31, -1.000000000000000000, -1.224646799147353207E-16 ) ) ;
#296 = DIRECTION ( 'NONE',  ( 3.533816411719702232E-31, 1.000000000000000000, 9.946808921885371403E-17 ) ) ;
#297 = EDGE_CURVE ( 'NONE', #171, #171, #214, .T. ) ;
#298 = PLANE ( 'NONE',  #132 ) ;
#299 = LOCAL_TIME ( 15, 4, 7.000000000000000000, #213 ) ;
#300 = DIRECTION ( 'NONE',  ( 0.0000000000000000000, 1.000000000000000000, 0.0000000000000000000 ) ) ;
#301 = AXIS2_PLACEMENT_3D ( 'NONE', #252, #104, #17 ) ;
#302 = CARTESIAN_POINT ( 'NONE',  ( 2.883896417162832445E-14, 0.9399999999999978373, 8.259807621135337286 ) ) ;
#303 = ORIENTED_EDGE ( 'NONE', *, *, #49, .F. ) ;
ENDSEC;
END-ISO-10303-21;
