ISO-10303-21;
HEADER;
FILE_DESCRIPTION (( 'STEP AP203' ),
    '1' );
FILE_NAME ('327061.step',
    '2021-12-01T14:04:06',
    ( '' ),
    ( '' ),
    'SwSTEP 2.0',
    'SolidWorks 2019',
    '' );
FILE_SCHEMA (( 'CONFIG_CONTROL_DESIGN' ));
ENDSEC;

DATA;
#1 = COORDINATED_UNIVERSAL_TIME_OFFSET ( 1, 0, .AHEAD. ) ;
#2 = AXIS2_PLACEMENT_3D ( 'NONE', #115, #208, #299 ) ;
#3 =( GEOMETRIC_REPRESENTATION_CONTEXT ( 3 ) GLOBAL_UNCERTAINTY_ASSIGNED_CONTEXT ( ( #278 ) ) GLOBAL_UNIT_ASSIGNED_CONTEXT ( ( #124, #98, #189 ) ) REPRESENTATION_CONTEXT ( 'NONE', 'WORKASPACE' ) );
#4 = PERSON_AND_ORGANIZATION ( #202, #229 ) ;
#5 = EDGE_CURVE ( 'NONE', #30, #30, #215, .T. ) ;
#6 = CARTESIAN_POINT ( 'NONE',  ( 8.728703347107833388E-16, 1.084999999999998854, 0.2500000000000000000 ) ) ;
#7 = APPROVAL_DATE_TIME ( #52, #79 ) ;
#8 = AXIS2_PLACEMENT_3D ( 'NONE', #113, #71, #253 ) ;
#9 = ADVANCED_FACE ( 'NONE', ( #155, #16 ), #54, .T. ) ;
#10 = ORIENTED_EDGE ( 'NONE', *, *, #37, .T. ) ;
#11 = ORIENTED_EDGE ( 'NONE', *, *, #206, .F. ) ;
#12 = APPROVAL_PERSON_ORGANIZATION ( #28, #79, #122 ) ;
#13 = PERSON_AND_ORGANIZATION ( #202, #229 ) ;
#14 = DIRECTION ( 'NONE',  ( 0.0000000000000000000, 1.000000000000000000, 0.0000000000000000000 ) ) ;
#15 = SECURITY_CLASSIFICATION_LEVEL ( 'unclassified' ) ;
#16 = FACE_BOUND ( 'NONE', #194, .T. ) ;
#17 = EDGE_LOOP ( 'NONE', ( #227 ) ) ;
#18 = AXIS2_PLACEMENT_3D ( 'NONE', #207, #162, #74 ) ;
#19 = CIRCLE ( 'NONE', #140, 0.9653844939755811261 ) ;
#20 = PLANE ( 'NONE',  #204 ) ;
#21 = DIRECTION ( 'NONE',  ( -3.491481338843133355E-15, 1.224646799147353207E-16, -1.000000000000000000 ) ) ;
#22 = CARTESIAN_POINT ( 'NONE',  ( -2.011057004861842990E-31, 7.053838428141088890E-33, -5.759896186436975785E-17 ) ) ;
#23 = ADVANCED_BREP_SHAPE_REPRESENTATION ( '327061', ( #69, #264, #270 ), #3 ) ;
#24 = FACE_OUTER_BOUND ( 'NONE', #86, .T. ) ;
#25 = VERTEX_POINT ( 'NONE', #97 ) ;
#26 = CALENDAR_DATE ( 2021, 1, 12 ) ;
#27 = AXIS2_PLACEMENT_3D ( 'NONE', #137, #251, #163 ) ;
#28 = PERSON_AND_ORGANIZATION ( #202, #229 ) ;
#29 = PERSON_AND_ORGANIZATION_ROLE ( 'creator' ) ;
#30 = VERTEX_POINT ( 'NONE', #80 ) ;
#31 = CIRCLE ( 'NONE', #27, 1.499999999999996669 ) ;
#32 = LOCAL_TIME ( 15, 4, 6.000000000000000000, #260 ) ;
#33 = ADVANCED_FACE ( 'NONE', ( #242, #157 ), #160, .T. ) ;
#34 = APPROVAL_ROLE ( '' ) ;
#35 = SHAPE_DEFINITION_REPRESENTATION ( #267, #23 ) ;
#36 = DIRECTION ( 'NONE',  ( -3.491481338843133355E-15, 1.224646799147353207E-16, -1.000000000000000000 ) ) ;
#37 = EDGE_CURVE ( 'NONE', #239, #239, #301, .T. ) ;
#38 = ORIENTED_EDGE ( 'NONE', *, *, #282, .T. ) ;
#39 = AXIS2_PLACEMENT_3D ( 'NONE', #177, #249, #104 ) ;
#40 = ORIENTED_EDGE ( 'NONE', *, *, #232, .F. ) ;
#41 = PERSON_AND_ORGANIZATION ( #202, #229 ) ;
#42 = EDGE_LOOP ( 'NONE', ( #174 ) ) ;
#43 = CC_DESIGN_PERSON_AND_ORGANIZATION_ASSIGNMENT ( #4, #287, ( #63 ) ) ;
#44 = DIRECTION ( 'NONE',  ( -3.491481338843133355E-15, 1.224646799147353207E-16, -1.000000000000000000 ) ) ;
#45 = DIRECTION ( 'NONE',  ( 3.491481338843133355E-15, -1.224646799147353207E-16, 1.000000000000000000 ) ) ;
#46 = CARTESIAN_POINT ( 'NONE',  ( 1.745740669421566678E-13, -6.123233995736766085E-15, 50.00000000000000000 ) ) ;
#47 = EDGE_CURVE ( 'NONE', #219, #219, #246, .T. ) ;
#48 = DIRECTION ( 'NONE',  ( 0.0000000000000000000, 1.000000000000000000, 0.0000000000000000000 ) ) ;
#49 = LOCAL_TIME ( 15, 4, 6.000000000000000000, #61 ) ;
#50 = CYLINDRICAL_SURFACE ( 'NONE', #8, 1.499999999999999112 ) ;
#51 = APPROVAL ( #178, 'UNSPECIFIED' ) ;
#52 = DATE_AND_TIME ( #95, #277 ) ;
#53 = VERTEX_POINT ( 'NONE', #55 ) ;
#54 = CONICAL_SURFACE ( 'NONE', #150, 0.9349999999999988320, 0.5235987755982937086 ) ;
#55 = CARTESIAN_POINT ( 'NONE',  ( 6.284666409917640040E-14, 0.9349999999999979439, 18.00000000000000000 ) ) ;
#56 = VERTEX_POINT ( 'NONE', #6 ) ;
#57 = CALENDAR_DATE ( 2021, 1, 12 ) ;
#58 = SECURITY_CLASSIFICATION ( '', '', #15 ) ;
#59 = EDGE_LOOP ( 'NONE', ( #40 ) ) ;
#60 = PRODUCT_RELATED_PRODUCT_CATEGORY ( 'detail', '', ( #63 ) ) ;
#61 = COORDINATED_UNIVERSAL_TIME_OFFSET ( 1, 0, .AHEAD. ) ;
#62 = ORIENTED_EDGE ( 'NONE', *, *, #232, .T. ) ;
#63 = PRODUCT ( '327061', '327061', '', ( #147 ) ) ;
#64 = DIRECTION ( 'NONE',  ( -4.275831445896958607E-31, -1.000000000000000000, -1.224646799147353207E-16 ) ) ;
#65 = AXIS2_PLACEMENT_3D ( 'NONE', #91, #72, #254 ) ;
#66 = DATE_TIME_ROLE ( 'classification_date' ) ;
#67 = ORIENTED_EDGE ( 'NONE', *, *, #5, .T. ) ;
#68 = ORIENTED_EDGE ( 'NONE', *, *, #83, .T. ) ;
#69 = MANIFOLD_SOLID_BREP ( 'Corps-Déplacer/Copier1[1]', #245 ) ;
#70 = CARTESIAN_POINT ( 'NONE',  ( 2.793185071074506684E-14, 8.136196820940563017E-33, 8.000000000000000000 ) ) ;
#71 = DIRECTION ( 'NONE',  ( -3.491481338843133355E-15, 1.224646799147353207E-16, -1.000000000000000000 ) ) ;
#72 = DIRECTION ( 'NONE',  ( -3.491481338843133355E-15, 1.224646799147353207E-16, -1.000000000000000000 ) ) ;
#73 = FACE_OUTER_BOUND ( 'NONE', #247, .T. ) ;
#74 = DIRECTION ( 'NONE',  ( 3.550101279976475378E-31, 1.000000000000000000, 9.992646751018484628E-17 ) ) ;
#75 = CC_DESIGN_APPROVAL ( #79, ( #292 ) ) ;
#76 = VERTEX_POINT ( 'NONE', #258 ) ;
#77 = PERSON_AND_ORGANIZATION ( #202, #229 ) ;
#78 = AXIS2_PLACEMENT_3D ( 'NONE', #129, #297, #89 ) ;
#79 = APPROVAL ( #235, 'UNSPECIFIED' ) ;
#80 = CARTESIAN_POINT ( 'NONE',  ( 2.793185071074506684E-14, 1.084999999999998854, 8.000000000000000000 ) ) ;
#81 = VERTEX_POINT ( 'NONE', #146 ) ;
#82 = ORIENTED_EDGE ( 'NONE', *, *, #222, .F. ) ;
#83 = EDGE_CURVE ( 'NONE', #53, #53, #294, .T. ) ;
#84 = EDGE_LOOP ( 'NONE', ( #82 ) ) ;
#85 = CARTESIAN_POINT ( 'NONE',  ( 2.793185071074506684E-14, 8.136196820940563017E-33, 8.000000000000000000 ) ) ;
#86 = EDGE_LOOP ( 'NONE', ( #201 ) ) ;
#87 = AXIS2_PLACEMENT_3D ( 'NONE', #22, #231, #209 ) ;
#88 = CC_DESIGN_PERSON_AND_ORGANIZATION_ASSIGNMENT ( #77, #29, ( #292 ) ) ;
#89 = DIRECTION ( 'NONE',  ( 0.0000000000000000000, 1.000000000000000000, 0.0000000000000000000 ) ) ;
#90 = FACE_OUTER_BOUND ( 'NONE', #59, .T. ) ;
#91 = CARTESIAN_POINT ( 'NONE',  ( 2.793185071074506684E-14, -9.797174393178825657E-16, 8.000000000000000000 ) ) ;
#92 = FACE_BOUND ( 'NONE', #224, .T. ) ;
#93 = PLANE ( 'NONE',  #87 ) ;
#94 = PLANE ( 'NONE',  #237 ) ;
#95 = CALENDAR_DATE ( 2021, 1, 12 ) ;
#96 = ADVANCED_FACE ( 'NONE', ( #291 ), #158, .F. ) ;
#97 = CARTESIAN_POINT ( 'NONE',  ( 1.745740669421566678E-13, 1.199999999999995515, 50.00000000000000000 ) ) ;
#98 =( NAMED_UNIT ( * ) PLANE_ANGLE_UNIT ( ) SI_UNIT ( $, .RADIAN. ) );
#99 = DIRECTION ( 'NONE',  ( 0.0000000000000000000, 1.000000000000000000, 0.0000000000000000000 ) ) ;
#100 = DIRECTION ( 'NONE',  ( 0.0000000000000000000, 0.0000000000000000000, 1.000000000000000000 ) ) ;
#101 = PERSON_AND_ORGANIZATION_ROLE ( 'creator' ) ;
#102 = EDGE_LOOP ( 'NONE', ( #127 ) ) ;
#103 = COORDINATED_UNIVERSAL_TIME_OFFSET ( 1, 0, .AHEAD. ) ;
#104 = DIRECTION ( 'NONE',  ( 0.0000000000000000000, 1.000000000000000000, 0.0000000000000000000 ) ) ;
#105 = COORDINATED_UNIVERSAL_TIME_OFFSET ( 1, 0, .AHEAD. ) ;
#106 = EDGE_LOOP ( 'NONE', ( #11 ) ) ;
#107 = APPROVAL_ROLE ( '' ) ;
#108 = CARTESIAN_POINT ( 'NONE',  ( 1.745740669421566678E-13, -6.123233995736766085E-15, 50.00000000000000000 ) ) ;
#109 = ADVANCED_FACE ( 'NONE', ( #161, #159 ), #50, .T. ) ;
#110 = EDGE_LOOP ( 'NONE', ( #67 ) ) ;
#111 = CC_DESIGN_APPROVAL ( #51, ( #296 ) ) ;
#112 = DIRECTION ( 'NONE',  ( -3.491481338843133355E-15, 1.224646799147353207E-16, -1.000000000000000000 ) ) ;
#113 = CARTESIAN_POINT ( 'NONE',  ( 0.0000000000000000000, 0.0000000000000000000, 0.0000000000000000000 ) ) ;
#114 = CC_DESIGN_DATE_AND_TIME_ASSIGNMENT ( #295, #66, ( #58 ) ) ;
#115 = CARTESIAN_POINT ( 'NONE',  ( 6.284666409917640040E-14, -2.168404344971008868E-15, 18.00000000000000000 ) ) ;
#116 = AXIS2_PLACEMENT_3D ( 'NONE', #85, #268, #64 ) ;
#117 = AXIS2_PLACEMENT_3D ( 'NONE', #273, #36, #175 ) ;
#118 = DIRECTION ( 'NONE',  ( 3.491481338843133355E-15, -1.224646799147353207E-16, 1.000000000000000000 ) ) ;
#119 = CARTESIAN_POINT ( 'NONE',  ( 7.464525784319021462E-14, -2.618203198516331749E-15, 21.37925155513595143 ) ) ;
#120 = EDGE_CURVE ( 'NONE', #76, #76, #31, .T. ) ;
#121 = APPLICATION_PROTOCOL_DEFINITION ( 'international standard', 'config_control_design', 1994, #167 ) ;
#122 = APPROVAL_ROLE ( '' ) ;
#123 = ORIENTED_EDGE ( 'NONE', *, *, #83, .F. ) ;
#124 =( LENGTH_UNIT ( ) NAMED_UNIT ( * ) SI_UNIT ( .MILLI., .METRE. ) );
#125 = CONICAL_SURFACE ( 'NONE', #263, 1.499999999999996669, 0.1745329251994262310 ) ;
#126 = CIRCLE ( 'NONE', #135, 1.200000000000001732 ) ;
#127 = ORIENTED_EDGE ( 'NONE', *, *, #120, .T. ) ;
#128 = ORIENTED_EDGE ( 'NONE', *, *, #282, .F. ) ;
#129 = CARTESIAN_POINT ( 'NONE',  ( 2.793185071074506684E-14, -9.797174393178825657E-16, 8.000000000000000000 ) ) ;
#130 = AXIS2_PLACEMENT_3D ( 'NONE', #108, #265, #14 ) ;
#131 = ORIENTED_EDGE ( 'NONE', *, *, #120, .F. ) ;
#132 = ADVANCED_FACE ( 'NONE', ( #257, #213 ), #125, .T. ) ;
#133 = DIRECTION ( 'NONE',  ( 4.275831445896959482E-31, 1.000000000000000000, 1.224646799147353207E-16 ) ) ;
#134 = EDGE_LOOP ( 'NONE', ( #123 ) ) ;
#135 = AXIS2_PLACEMENT_3D ( 'NONE', #46, #44, #48 ) ;
#136 = CYLINDRICAL_SURFACE ( 'NONE', #286, 0.9349999999999993872 ) ;
#137 = CARTESIAN_POINT ( 'NONE',  ( 7.464525784319021462E-14, -2.618203198516331749E-15, 21.37925155513595143 ) ) ;
#138 = FACE_OUTER_BOUND ( 'NONE', #151, .T. ) ;
#139 = AXIS2_PLACEMENT_3D ( 'NONE', #302, #184, #228 ) ;
#140 = AXIS2_PLACEMENT_3D ( 'NONE', #190, #169, #99 ) ;
#141 = DIRECTION ( 'NONE',  ( 0.0000000000000000000, -1.000000000000000000, 0.0000000000000000000 ) ) ;
#142 = EDGE_CURVE ( 'NONE', #188, #188, #218, .T. ) ;
#143 = CARTESIAN_POINT ( 'NONE',  ( 0.0000000000000000000, 0.0000000000000000000, 0.0000000000000000000 ) ) ;
#144 = CLOSED_SHELL ( 'NONE', ( #154, #191, #170, #176 ) ) ;
#145 = CC_DESIGN_DATE_AND_TIME_ASSIGNMENT ( #216, #285, ( #292 ) ) ;
#146 = CARTESIAN_POINT ( 'NONE',  ( 2.793185071074506684E-14, 1.084999999999998854, 8.000000000000000000 ) ) ;
#147 = MECHANICAL_CONTEXT ( 'NONE', #148, 'mechanical' ) ;
#148 = APPLICATION_CONTEXT ( 'configuration controlled 3d designs of mechanical parts and assemblies' ) ;
#149 = PERSON_AND_ORGANIZATION ( #202, #229 ) ;
#150 = AXIS2_PLACEMENT_3D ( 'NONE', #181, #288, #266 ) ;
#151 = EDGE_LOOP ( 'NONE', ( #68 ) ) ;
#152 = ORIENTED_EDGE ( 'NONE', *, *, #142, .F. ) ;
#153 = DATE_AND_TIME ( #269, #49 ) ;
#154 = ADVANCED_FACE ( 'NONE', ( #212 ), #93, .F. ) ;
#155 = FACE_OUTER_BOUND ( 'NONE', #199, .T. ) ;
#156 = LOCAL_TIME ( 15, 4, 6.000000000000000000, #105 ) ;
#157 = FACE_BOUND ( 'NONE', #203, .T. ) ;
#158 = PLANE ( 'NONE',  #116 ) ;
#159 = FACE_OUTER_BOUND ( 'NONE', #17, .T. ) ;
#160 = CONICAL_SURFACE ( 'NONE', #130, 1.200000000000001732, 0.7853981633974453924 ) ;
#161 = FACE_OUTER_BOUND ( 'NONE', #173, .T. ) ;
#162 = DIRECTION ( 'NONE',  ( -3.491481338843133355E-15, 1.224646799147353207E-16, -1.000000000000000000 ) ) ;
#163 = DIRECTION ( 'NONE',  ( 0.0000000000000000000, 1.000000000000000000, 0.0000000000000000000 ) ) ;
#164 = CC_DESIGN_PERSON_AND_ORGANIZATION_ASSIGNMENT ( #225, #248, ( #58 ) ) ;
#165 = AXIS2_PLACEMENT_3D ( 'NONE', #300, #112, #280 ) ;
#166 = LOCAL_TIME ( 15, 4, 6.000000000000000000, #103 ) ;
#167 = APPLICATION_CONTEXT ( 'configuration controlled 3d designs of mechanical parts and assemblies' ) ;
#168 = FACE_OUTER_BOUND ( 'NONE', #84, .T. ) ;
#169 = DIRECTION ( 'NONE',  ( -3.491481338843133355E-15, 1.224646799147353207E-16, -1.000000000000000000 ) ) ;
#170 = ADVANCED_FACE ( 'NONE', ( #281, #24 ), #233, .T. ) ;
#171 = CARTESIAN_POINT ( 'NONE',  ( 2.883896417162832445E-14, 0.9349999999999979439, 8.259807621135337286 ) ) ;
#172 = CARTESIAN_POINT ( 'NONE',  ( 1.735266225405037467E-13, 1.499999999999995559, 49.70000000000000284 ) ) ;
#173 = EDGE_LOOP ( 'NONE', ( #131 ) ) ;
#174 = ORIENTED_EDGE ( 'NONE', *, *, #37, .F. ) ;
#175 = DIRECTION ( 'NONE',  ( 0.0000000000000000000, 1.000000000000000000, 0.0000000000000000000 ) ) ;
#176 = ADVANCED_FACE ( 'NONE', ( #168 ), #20, .T. ) ;
#177 = CARTESIAN_POINT ( 'NONE',  ( 2.883896417162832445E-14, -1.011534696479630343E-15, 8.259807621135337286 ) ) ;
#178 = APPROVAL_STATUS ( 'not_yet_approved' ) ;
#179 = ORIENTED_EDGE ( 'NONE', *, *, #47, .F. ) ;
#180 = APPROVAL_PERSON_ORGANIZATION ( #217, #51, #107 ) ;
#181 = CARTESIAN_POINT ( 'NONE',  ( 2.883896417162832445E-14, -1.011534696479630343E-15, 8.259807621135337286 ) ) ;
#182 = DIRECTION ( 'NONE',  ( 4.275831445896958607E-31, 1.000000000000000000, 1.224646799147353207E-16 ) ) ;
#183 = DIRECTION ( 'NONE',  ( 4.275831445896958607E-31, 1.000000000000000000, 1.224646799147353207E-16 ) ) ;
#184 = DIRECTION ( 'NONE',  ( -3.491481338843133355E-15, 1.224646799147353207E-16, -1.000000000000000000 ) ) ;
#185 = DIRECTION ( 'NONE',  ( 3.491481338843133355E-15, -1.224646799147353207E-16, 1.000000000000000000 ) ) ;
#186 = DIRECTION ( 'NONE',  ( -3.491481338843133355E-15, 1.224646799147353207E-16, -1.000000000000000000 ) ) ;
#187 = TOROIDAL_SURFACE ( 'NONE', #2, 2.935000000000000053, 2.000000000000000000 ) ;
#188 = VERTEX_POINT ( 'NONE', #172 ) ;
#189 =( NAMED_UNIT ( * ) SI_UNIT ( $, .STERADIAN. ) SOLID_ANGLE_UNIT ( ) );
#190 = CARTESIAN_POINT ( 'NONE',  ( 6.405924284287275164E-14, -2.246895775456749140E-15, 18.34729635533384595 ) ) ;
#191 = ADVANCED_FACE ( 'NONE', ( #92, #73 ), #240, .T. ) ;
#192 = DIRECTION ( 'NONE',  ( 1.000000000000000000, 0.0000000000000000000, 0.0000000000000000000 ) ) ;
#193 = APPROVAL_DATE_TIME ( #195, #51 ) ;
#194 = EDGE_LOOP ( 'NONE', ( #10 ) ) ;
#195 = DATE_AND_TIME ( #57, #166 ) ;
#196 = CIRCLE ( 'NONE', #65, 1.084999999999999964 ) ;
#197 = CARTESIAN_POINT ( 'NONE',  ( -4.022114009723685980E-31, 1.410767685628217778E-32, -1.151979237287395157E-16 ) ) ;
#198 = APPROVAL_STATUS ( 'not_yet_approved' ) ;
#199 = EDGE_LOOP ( 'NONE', ( #226 ) ) ;
#200 = APPROVAL_DATE_TIME ( #153, #211 ) ;
#201 = ORIENTED_EDGE ( 'NONE', *, *, #222, .T. ) ;
#202 = PERSON ( 'UNSPECIFIED', 'UNSPECIFIED', 'UNSPECIFIED', ('UNSPECIFIED'), ('UNSPECIFIED'), ('UNSPECIFIED') ) ;
#203 = EDGE_LOOP ( 'NONE', ( #62 ) ) ;
#204 = AXIS2_PLACEMENT_3D ( 'NONE', #70, #185, #303 ) ;
#205 = APPROVAL_PERSON_ORGANIZATION ( #41, #211, #34 ) ;
#206 = EDGE_CURVE ( 'NONE', #56, #56, #283, .T. ) ;
#207 = CARTESIAN_POINT ( 'NONE',  ( 8.728703347107829444E-16, -3.061616997868381785E-17, 0.2499999999999998890 ) ) ;
#208 = DIRECTION ( 'NONE',  ( -3.491481338843133355E-15, 1.224646799147353207E-16, -1.000000000000000000 ) ) ;
#209 = DIRECTION ( 'NONE',  ( -4.275831445896958607E-31, -1.000000000000000000, -1.224646799147353207E-16 ) ) ;
#210 = AXIS2_PLACEMENT_3D ( 'NONE', #197, #223, #133 ) ;
#211 = APPROVAL ( #198, 'UNSPECIFIED' ) ;
#212 = FACE_OUTER_BOUND ( 'NONE', #220, .T. ) ;
#213 = FACE_OUTER_BOUND ( 'NONE', #102, .T. ) ;
#214 = ADVANCED_FACE ( 'NONE', ( #298, #279 ), #187, .F. ) ;
#215 = CIRCLE ( 'NONE', #78, 1.084999999999999964 ) ;
#216 = DATE_AND_TIME ( #26, #32 ) ;
#217 = PERSON_AND_ORGANIZATION ( #202, #229 ) ;
#218 = CIRCLE ( 'NONE', #139, 1.500000000000001554 ) ;
#219 = VERTEX_POINT ( 'NONE', #284 ) ;
#220 = EDGE_LOOP ( 'NONE', ( #272 ) ) ;
#221 = CALENDAR_DATE ( 2021, 1, 12 ) ;
#222 = EDGE_CURVE ( 'NONE', #81, #81, #196, .T. ) ;
#223 = DIRECTION ( 'NONE',  ( -3.491481338843133355E-15, 1.224646799147353207E-16, -1.000000000000000000 ) ) ;
#224 = EDGE_LOOP ( 'NONE', ( #179 ) ) ;
#225 = PERSON_AND_ORGANIZATION ( #202, #229 ) ;
#226 = ORIENTED_EDGE ( 'NONE', *, *, #5, .F. ) ;
#227 = ORIENTED_EDGE ( 'NONE', *, *, #142, .T. ) ;
#228 = DIRECTION ( 'NONE',  ( 0.0000000000000000000, 1.000000000000000000, 0.0000000000000000000 ) ) ;
#229 = ORGANIZATION ( 'UNSPECIFIED', 'UNSPECIFIED', '' ) ;
#230 = CARTESIAN_POINT ( 'NONE',  ( 0.0000000000000000000, 0.0000000000000000000, 0.0000000000000000000 ) ) ;
#231 = DIRECTION ( 'NONE',  ( 3.491481338843133355E-15, -1.224646799147353207E-16, 1.000000000000000000 ) ) ;
#232 = EDGE_CURVE ( 'NONE', #25, #25, #126, .T. ) ;
#233 = CYLINDRICAL_SURFACE ( 'NONE', #165, 1.084999999999999520 ) ;
#234 = CARTESIAN_POINT ( 'NONE',  ( 1.745740669421566678E-13, 8.998558695971067645E-33, 50.00000000000000000 ) ) ;
#235 = APPROVAL_STATUS ( 'not_yet_approved' ) ;
#236 = AXIS2_PLACEMENT_3D ( 'NONE', #256, #118, #276 ) ;
#237 = AXIS2_PLACEMENT_3D ( 'NONE', #234, #186, #182 ) ;
#238 = CARTESIAN_POINT ( 'NONE',  ( 6.405924284287275164E-14, 0.9653844939755789056, 18.34729635533384595 ) ) ;
#239 = VERTEX_POINT ( 'NONE', #171 ) ;
#240 = CONICAL_SURFACE ( 'NONE', #236, 1.084999999999998854, 0.5235987755982920433 ) ;
#241 = CC_DESIGN_SECURITY_CLASSIFICATION ( #58, ( #296 ) ) ;
#242 = FACE_OUTER_BOUND ( 'NONE', #290, .T. ) ;
#243 = PERSON_AND_ORGANIZATION_ROLE ( 'design_supplier' ) ;
#244 = EDGE_LOOP ( 'NONE', ( #128 ) ) ;
#245 = CLOSED_SHELL ( 'NONE', ( #96, #9, #271, #214, #132, #109, #33, #262 ) ) ;
#246 = CIRCLE ( 'NONE', #210, 0.9406624327025947530 ) ;
#247 = EDGE_LOOP ( 'NONE', ( #250 ) ) ;
#248 = PERSON_AND_ORGANIZATION_ROLE ( 'classification_officer' ) ;
#249 = DIRECTION ( 'NONE',  ( -3.491481338843133355E-15, 1.224646799147353207E-16, -1.000000000000000000 ) ) ;
#250 = ORIENTED_EDGE ( 'NONE', *, *, #206, .T. ) ;
#251 = DIRECTION ( 'NONE',  ( -3.491481338843133355E-15, 1.224646799147353207E-16, -1.000000000000000000 ) ) ;
#252 = CC_DESIGN_APPROVAL ( #211, ( #58 ) ) ;
#253 = DIRECTION ( 'NONE',  ( 4.275831445896958607E-31, 1.000000000000000000, 1.224646799147353454E-16 ) ) ;
#254 = DIRECTION ( 'NONE',  ( 0.0000000000000000000, 1.000000000000000000, 0.0000000000000000000 ) ) ;
#255 = DESIGN_CONTEXT ( 'detailed design', #167, 'design' ) ;
#256 = CARTESIAN_POINT ( 'NONE',  ( 8.728703347107829444E-16, -3.061616997868381785E-17, 0.2499999999999998890 ) ) ;
#257 = FACE_BOUND ( 'NONE', #244, .T. ) ;
#258 = CARTESIAN_POINT ( 'NONE',  ( 7.464525784319021462E-14, 1.499999999999994005, 21.37925155513595143 ) ) ;
#259 = VERTEX_POINT ( 'NONE', #238 ) ;
#260 = COORDINATED_UNIVERSAL_TIME_OFFSET ( 1, 0, .AHEAD. ) ;
#261 = APPLICATION_PROTOCOL_DEFINITION ( 'international standard', 'config_control_design', 1994, #148 ) ;
#262 = ADVANCED_FACE ( 'NONE', ( #90 ), #94, .F. ) ;
#263 = AXIS2_PLACEMENT_3D ( 'NONE', #119, #45, #141 ) ;
#264 = MANIFOLD_SOLID_BREP ( 'Corps-Déplacer/Copier1[2]', #144 ) ;
#265 = DIRECTION ( 'NONE',  ( -3.491481338843133355E-15, 1.224646799147353207E-16, -1.000000000000000000 ) ) ;
#266 = DIRECTION ( 'NONE',  ( 0.0000000000000000000, 1.000000000000000000, 0.0000000000000000000 ) ) ;
#267 = PRODUCT_DEFINITION_SHAPE ( 'NONE', 'NONE',  #292 ) ;
#268 = DIRECTION ( 'NONE',  ( 3.491481338843133355E-15, -1.224646799147353207E-16, 1.000000000000000000 ) ) ;
#269 = CALENDAR_DATE ( 2021, 1, 12 ) ;
#270 = AXIS2_PLACEMENT_3D ( 'NONE', #143, #100, #192 ) ;
#271 = ADVANCED_FACE ( 'NONE', ( #274, #138 ), #136, .T. ) ;
#272 = ORIENTED_EDGE ( 'NONE', *, *, #47, .T. ) ;
#273 = CARTESIAN_POINT ( 'NONE',  ( 6.284666409917640040E-14, -2.204364238465235428E-15, 18.00000000000000000 ) ) ;
#274 = FACE_OUTER_BOUND ( 'NONE', #42, .T. ) ;
#275 = CC_DESIGN_PERSON_AND_ORGANIZATION_ASSIGNMENT ( #149, #101, ( #296 ) ) ;
#276 = DIRECTION ( 'NONE',  ( -3.550101279976475378E-31, -1.000000000000000000, -9.992646751018484628E-17 ) ) ;
#277 = LOCAL_TIME ( 15, 4, 6.000000000000000000, #1 ) ;
#278 = UNCERTAINTY_MEASURE_WITH_UNIT (LENGTH_MEASURE( 1.000000000000000082E-05 ), #124, 'distance_accuracy_value', 'NONE');
#279 = FACE_OUTER_BOUND ( 'NONE', #293, .T. ) ;
#280 = DIRECTION ( 'NONE',  ( 4.275831445896959482E-31, 1.000000000000000000, 1.224646799147353454E-16 ) ) ;
#281 = FACE_OUTER_BOUND ( 'NONE', #106, .T. ) ;
#282 = EDGE_CURVE ( 'NONE', #259, #259, #19, .T. ) ;
#283 = CIRCLE ( 'NONE', #18, 1.084999999999998854 ) ;
#284 = CARTESIAN_POINT ( 'NONE',  ( 8.552847072295026068E-47, 0.9406624327025947530, 0.0000000000000000000 ) ) ;
#285 = DATE_TIME_ROLE ( 'creation_date' ) ;
#286 = AXIS2_PLACEMENT_3D ( 'NONE', #230, #21, #183 ) ;
#287 = PERSON_AND_ORGANIZATION_ROLE ( 'design_owner' ) ;
#288 = DIRECTION ( 'NONE',  ( -3.491481338843133355E-15, 1.224646799147353207E-16, -1.000000000000000000 ) ) ;
#289 = CC_DESIGN_PERSON_AND_ORGANIZATION_ASSIGNMENT ( #13, #243, ( #296 ) ) ;
#290 = EDGE_LOOP ( 'NONE', ( #152 ) ) ;
#291 = FACE_OUTER_BOUND ( 'NONE', #110, .T. ) ;
#292 = PRODUCT_DEFINITION ( 'UNKNOWN', '', #296, #255 ) ;
#293 = EDGE_LOOP ( 'NONE', ( #38 ) ) ;
#294 = CIRCLE ( 'NONE', #117, 0.9350000000000000533 ) ;
#295 = DATE_AND_TIME ( #221, #156 ) ;
#296 = PRODUCT_DEFINITION_FORMATION_WITH_SPECIFIED_SOURCE ( 'ANY', '', #63, .NOT_KNOWN. ) ;
#297 = DIRECTION ( 'NONE',  ( -3.491481338843133355E-15, 1.224646799147353207E-16, -1.000000000000000000 ) ) ;
#298 = FACE_OUTER_BOUND ( 'NONE', #134, .T. ) ;
#299 = DIRECTION ( 'NONE',  ( 4.275831445896958607E-31, 1.000000000000000000, 1.224646799147353207E-16 ) ) ;
#300 = CARTESIAN_POINT ( 'NONE',  ( 0.0000000000000000000, 0.0000000000000000000, 0.0000000000000000000 ) ) ;
#301 = CIRCLE ( 'NONE', #39, 0.9349999999999988320 ) ;
#302 = CARTESIAN_POINT ( 'NONE',  ( 1.735266225405037467E-13, -6.086494591762345225E-15, 49.70000000000000284 ) ) ;
#303 = DIRECTION ( 'NONE',  ( -4.275831445896958607E-31, -1.000000000000000000, -1.224646799147353207E-16 ) ) ;
ENDSEC;
END-ISO-10303-21;
