ISO-10303-21;
HEADER;
FILE_DESCRIPTION (( 'STEP AP203' ),
    '1' );
FILE_NAME ('327060.step',
    '2021-12-01T14:04:06',
    ( '' ),
    ( '' ),
    'SwSTEP 2.0',
    'SolidWorks 2019',
    '' );
FILE_SCHEMA (( 'CONFIG_CONTROL_DESIGN' ));
ENDSEC;

DATA;
#1 = PLANE ( 'NONE',  #57 ) ;
#2 = AXIS2_PLACEMENT_3D ( 'NONE', #92, #69, #161 ) ;
#3 = EDGE_LOOP ( 'NONE', ( #61 ) ) ;
#4 = VERTEX_POINT ( 'NONE', #235 ) ;
#5 = DIRECTION ( 'NONE',  ( -3.491481338843133355E-15, 1.224646799147353207E-16, -1.000000000000000000 ) ) ;
#6 = ADVANCED_FACE ( 'NONE', ( #68 ), #228, .F. ) ;
#7 = CARTESIAN_POINT ( 'NONE',  ( 7.474426371639281157E-14, 1.499999999999994005, 21.40760796423404955 ) ) ;
#8 = AXIS2_PLACEMENT_3D ( 'NONE', #73, #185, #234 ) ;
#9 = APPROVAL_PERSON_ORGANIZATION ( #290, #237, #54 ) ;
#10 = CARTESIAN_POINT ( 'NONE',  ( 0.0000000000000000000, 0.0000000000000000000, 0.0000000000000000000 ) ) ;
#11 = COORDINATED_UNIVERSAL_TIME_OFFSET ( 1, 0, .AHEAD. ) ;
#12 = VERTEX_POINT ( 'NONE', #202 ) ;
#13 = ADVANCED_FACE ( 'NONE', ( #158 ), #1, .T. ) ;
#14 = AXIS2_PLACEMENT_3D ( 'NONE', #148, #238, #98 ) ;
#15 = EDGE_LOOP ( 'NONE', ( #248 ) ) ;
#16 = PERSON_AND_ORGANIZATION_ROLE ( 'classification_officer' ) ;
#17 =( LENGTH_UNIT ( ) NAMED_UNIT ( * ) SI_UNIT ( .MILLI., .METRE. ) );
#18 = ORIENTED_EDGE ( 'NONE', *, *, #293, .F. ) ;
#19 = DIRECTION ( 'NONE',  ( 3.566536934050440041E-31, 1.000000000000000000, 1.003890900449542065E-16 ) ) ;
#20 = CYLINDRICAL_SURFACE ( 'NONE', #254, 1.499999999999999112 ) ;
#21 = ORIENTED_EDGE ( 'NONE', *, *, #28, .F. ) ;
#22 = DIRECTION ( 'NONE',  ( 4.275831445896958607E-31, 1.000000000000000000, 1.224646799147353454E-16 ) ) ;
#23 = CC_DESIGN_DATE_AND_TIME_ASSIGNMENT ( #295, #288, ( #273 ) ) ;
#24 = DIRECTION ( 'NONE',  ( 0.0000000000000000000, 1.000000000000000000, 0.0000000000000000000 ) ) ;
#25 = LOCAL_TIME ( 15, 4, 6.000000000000000000, #60 ) ;
#26 = FACE_OUTER_BOUND ( 'NONE', #130, .T. ) ;
#27 = DIRECTION ( 'NONE',  ( 4.275831445896958607E-31, 1.000000000000000000, 1.224646799147353207E-16 ) ) ;
#28 = EDGE_CURVE ( 'NONE', #194, #194, #99, .T. ) ;
#29 = DIRECTION ( 'NONE',  ( 0.0000000000000000000, 1.000000000000000000, 0.0000000000000000000 ) ) ;
#30 = DIRECTION ( 'NONE',  ( 4.275831445896958607E-31, 1.000000000000000000, 1.224646799147353207E-16 ) ) ;
#31 = APPROVAL_PERSON_ORGANIZATION ( #86, #70, #182 ) ;
#32 = CARTESIAN_POINT ( 'NONE',  ( 1.745740669421566678E-13, 8.998558695971067645E-33, 50.00000000000000000 ) ) ;
#33 = ADVANCED_FACE ( 'NONE', ( #109, #207 ), #20, .T. ) ;
#34 = APPLICATION_PROTOCOL_DEFINITION ( 'international standard', 'config_control_design', 1994, #292 ) ;
#35 = ORIENTED_EDGE ( 'NONE', *, *, #104, .F. ) ;
#36 = APPROVAL_ROLE ( '' ) ;
#37 = PRODUCT_DEFINITION ( 'UNKNOWN', '', #266, #184 ) ;
#38 = ORIENTED_EDGE ( 'NONE', *, *, #253, .T. ) ;
#39 = PERSON_AND_ORGANIZATION ( #209, #193 ) ;
#40 = CIRCLE ( 'NONE', #284, 0.9356624327025946375 ) ;
#41 = EDGE_LOOP ( 'NONE', ( #35 ) ) ;
#42 = DIRECTION ( 'NONE',  ( 3.491481338843133355E-15, -1.224646799147353207E-16, 1.000000000000000000 ) ) ;
#43 = ORIENTED_EDGE ( 'NONE', *, *, #264, .F. ) ;
#44 = CARTESIAN_POINT ( 'NONE',  ( 6.405924284287275164E-14, -2.246895775456749140E-15, 18.34729635533384595 ) ) ;
#45 = CALENDAR_DATE ( 2021, 1, 12 ) ;
#46 = DIRECTION ( 'NONE',  ( -3.491481338843133355E-15, 1.224646799147353207E-16, -1.000000000000000000 ) ) ;
#47 = FACE_OUTER_BOUND ( 'NONE', #246, .T. ) ;
#48 = LOCAL_TIME ( 15, 4, 6.000000000000000000, #11 ) ;
#49 = CARTESIAN_POINT ( 'NONE',  ( 2.883896417162832445E-14, 0.9299999999999979394, 8.259807621135337286 ) ) ;
#50 = DIRECTION ( 'NONE',  ( -3.491481338843133355E-15, 1.224646799147353207E-16, -1.000000000000000000 ) ) ;
#51 = DIRECTION ( 'NONE',  ( -3.491481338843133355E-15, 1.224646799147353207E-16, -1.000000000000000000 ) ) ;
#52 = DIRECTION ( 'NONE',  ( -3.491481338843133355E-15, 1.224646799147353207E-16, -1.000000000000000000 ) ) ;
#53 = AXIS2_PLACEMENT_3D ( 'NONE', #62, #114, #208 ) ;
#54 = APPROVAL_ROLE ( '' ) ;
#55 = CARTESIAN_POINT ( 'NONE',  ( 0.0000000000000000000, 0.0000000000000000000, 0.0000000000000000000 ) ) ;
#56 = ADVANCED_FACE ( 'NONE', ( #300, #91 ), #211, .T. ) ;
#57 = AXIS2_PLACEMENT_3D ( 'NONE', #183, #42, #229 ) ;
#58 = APPROVAL_PERSON_ORGANIZATION ( #179, #286, #36 ) ;
#59 = MANIFOLD_SOLID_BREP ( 'Corps-Déplacer/Copier1[2]', #192 ) ;
#60 = COORDINATED_UNIVERSAL_TIME_OFFSET ( 1, 0, .AHEAD. ) ;
#61 = ORIENTED_EDGE ( 'NONE', *, *, #261, .T. ) ;
#62 = CARTESIAN_POINT ( 'NONE',  ( 2.793185071074506684E-14, 8.098702826374017671E-33, 8.000000000000000000 ) ) ;
#63 = AXIS2_PLACEMENT_3D ( 'NONE', #180, #271, #138 ) ;
#64 = CC_DESIGN_SECURITY_CLASSIFICATION ( #273, ( #266 ) ) ;
#65 = ADVANCED_FACE ( 'NONE', ( #160, #276 ), #159, .T. ) ;
#66 = ORIENTED_EDGE ( 'NONE', *, *, #104, .T. ) ;
#67 = SHAPE_DEFINITION_REPRESENTATION ( #299, #296 ) ;
#68 = FACE_OUTER_BOUND ( 'NONE', #233, .T. ) ;
#69 = DIRECTION ( 'NONE',  ( -3.491481338843133355E-15, 1.224646799147353207E-16, -1.000000000000000000 ) ) ;
#70 = APPROVAL ( #171, 'UNSPECIFIED' ) ;
#71 = CLOSED_SHELL ( 'NONE', ( #93, #90, #118, #199, #56, #33, #227, #188 ) ) ;
#72 = CONICAL_SURFACE ( 'NONE', #14, 1.079999999999998961, 0.5235987755982923764 ) ;
#73 = CARTESIAN_POINT ( 'NONE',  ( 7.474426371639281157E-14, -2.621675857080061326E-15, 21.40760796423404955 ) ) ;
#74 = CARTESIAN_POINT ( 'NONE',  ( 8.728703347107833388E-16, 1.079999999999998961, 0.2500000000000000000 ) ) ;
#75 = CARTESIAN_POINT ( 'NONE',  ( 2.793185071074506684E-14, 1.079999999999998961, 8.000000000000000000 ) ) ;
#76 = FACE_OUTER_BOUND ( 'NONE', #197, .T. ) ;
#77 = VERTEX_POINT ( 'NONE', #75 ) ;
#78 = CARTESIAN_POINT ( 'NONE',  ( 2.793185071074506684E-14, -9.797174393178825657E-16, 8.000000000000000000 ) ) ;
#79 = EDGE_CURVE ( 'NONE', #257, #257, #149, .T. ) ;
#80 = CONICAL_SURFACE ( 'NONE', #2, 0.9299999999999988276, 0.5235987755982937086 ) ;
#81 = AXIS2_PLACEMENT_3D ( 'NONE', #195, #52, #287 ) ;
#82 = CALENDAR_DATE ( 2021, 1, 12 ) ;
#83 = EDGE_LOOP ( 'NONE', ( #21 ) ) ;
#84 = EDGE_CURVE ( 'NONE', #4, #4, #122, .T. ) ;
#85 = COORDINATED_UNIVERSAL_TIME_OFFSET ( 1, 0, .AHEAD. ) ;
#86 = PERSON_AND_ORGANIZATION ( #209, #193 ) ;
#87 = AXIS2_PLACEMENT_3D ( 'NONE', #44, #110, #24 ) ;
#88 = ORIENTED_EDGE ( 'NONE', *, *, #121, .F. ) ;
#89 = CALENDAR_DATE ( 2021, 1, 12 ) ;
#90 = ADVANCED_FACE ( 'NONE', ( #277, #231 ), #80, .T. ) ;
#91 = FACE_OUTER_BOUND ( 'NONE', #222, .T. ) ;
#92 = CARTESIAN_POINT ( 'NONE',  ( 2.883896417162832445E-14, -1.011534696479630343E-15, 8.259807621135337286 ) ) ;
#93 = ADVANCED_FACE ( 'NONE', ( #115 ), #140, .F. ) ;
#94 = ORIENTED_EDGE ( 'NONE', *, *, #253, .F. ) ;
#95 = ORIENTED_EDGE ( 'NONE', *, *, #79, .T. ) ;
#96 = FACE_OUTER_BOUND ( 'NONE', #291, .T. ) ;
#97 = CC_DESIGN_DATE_AND_TIME_ASSIGNMENT ( #265, #268, ( #37 ) ) ;
#98 = DIRECTION ( 'NONE',  ( -3.566536934050440041E-31, -1.000000000000000000, -1.003890900449542065E-16 ) ) ;
#99 = CIRCLE ( 'NONE', #226, 1.079999999999998961 ) ;
#100 = LOCAL_TIME ( 15, 4, 6.000000000000000000, #85 ) ;
#101 = VERTEX_POINT ( 'NONE', #285 ) ;
#102 = DIRECTION ( 'NONE',  ( -3.491481338843133355E-15, 1.224646799147353207E-16, -1.000000000000000000 ) ) ;
#103 = LOCAL_TIME ( 15, 4, 6.000000000000000000, #247 ) ;
#104 = EDGE_CURVE ( 'NONE', #282, #282, #244, .T. ) ;
#105 = ORIENTED_EDGE ( 'NONE', *, *, #121, .T. ) ;
#106 = PERSON_AND_ORGANIZATION ( #209, #193 ) ;
#107 = DIRECTION ( 'NONE',  ( 1.000000000000000000, 0.0000000000000000000, 0.0000000000000000000 ) ) ;
#108 = CIRCLE ( 'NONE', #81, 0.9299999999999988276 ) ;
#109 = FACE_OUTER_BOUND ( 'NONE', #41, .T. ) ;
#110 = DIRECTION ( 'NONE',  ( -3.491481338843133355E-15, 1.224646799147353207E-16, -1.000000000000000000 ) ) ;
#111 = CONICAL_SURFACE ( 'NONE', #139, 1.200000000000001732, 0.7853981633974453924 ) ;
#112 = UNCERTAINTY_MEASURE_WITH_UNIT (LENGTH_MEASURE( 1.000000000000000082E-05 ), #17, 'distance_accuracy_value', 'NONE');
#113 = EDGE_LOOP ( 'NONE', ( #274 ) ) ;
#114 = DIRECTION ( 'NONE',  ( 3.491481338843133355E-15, -1.224646799147353207E-16, 1.000000000000000000 ) ) ;
#115 = FACE_OUTER_BOUND ( 'NONE', #225, .T. ) ;
#116 = AXIS2_PLACEMENT_3D ( 'NONE', #213, #50, #120 ) ;
#117 = DIRECTION ( 'NONE',  ( -3.491481338843133355E-15, 1.224646799147353207E-16, -1.000000000000000000 ) ) ;
#118 = ADVANCED_FACE ( 'NONE', ( #26, #164 ), #236, .T. ) ;
#119 = DIRECTION ( 'NONE',  ( 0.0000000000000000000, 1.000000000000000000, 0.0000000000000000000 ) ) ;
#120 = DIRECTION ( 'NONE',  ( 0.0000000000000000000, 1.000000000000000000, 0.0000000000000000000 ) ) ;
#121 = EDGE_CURVE ( 'NONE', #101, #101, #40, .T. ) ;
#122 = CIRCLE ( 'NONE', #204, 1.200000000000001732 ) ;
#123 = DIRECTION ( 'NONE',  ( -3.491481338843133355E-15, 1.224646799147353207E-16, -1.000000000000000000 ) ) ;
#124 = FACE_OUTER_BOUND ( 'NONE', #250, .T. ) ;
#125 = APPLICATION_PROTOCOL_DEFINITION ( 'international standard', 'config_control_design', 1994, #145 ) ;
#126 = APPROVAL_DATE_TIME ( #242, #286 ) ;
#127 = CIRCLE ( 'NONE', #249, 1.080000000000000071 ) ;
#128 = ORIENTED_EDGE ( 'NONE', *, *, #177, .F. ) ;
#129 = PERSON_AND_ORGANIZATION_ROLE ( 'creator' ) ;
#130 = EDGE_LOOP ( 'NONE', ( #94 ) ) ;
#131 = PERSON_AND_ORGANIZATION ( #209, #193 ) ;
#132 = ADVANCED_FACE ( 'NONE', ( #144, #218 ), #72, .T. ) ;
#133 = CALENDAR_DATE ( 2021, 1, 12 ) ;
#134 = EDGE_LOOP ( 'NONE', ( #38 ) ) ;
#135 = TOROIDAL_SURFACE ( 'NONE', #230, 2.929999999999999716, 2.000000000000000000 ) ;
#136 = CARTESIAN_POINT ( 'NONE',  ( -2.000367426247100195E-31, 7.016344433574540808E-33, -5.729280016458291406E-17 ) ) ;
#137 = ORIENTED_EDGE ( 'NONE', *, *, #293, .T. ) ;
#138 = DIRECTION ( 'NONE',  ( 4.275831445896958607E-31, 1.000000000000000000, 1.224646799147353207E-16 ) ) ;
#139 = AXIS2_PLACEMENT_3D ( 'NONE', #283, #5, #142 ) ;
#140 = PLANE ( 'NONE',  #53 ) ;
#141 = CARTESIAN_POINT ( 'NONE',  ( 8.728703347107829444E-16, -3.061616997868381785E-17, 0.2499999999999998890 ) ) ;
#142 = DIRECTION ( 'NONE',  ( 0.0000000000000000000, 1.000000000000000000, 0.0000000000000000000 ) ) ;
#143 = CIRCLE ( 'NONE', #196, 1.500000000000001554 ) ;
#144 = FACE_BOUND ( 'NONE', #252, .T. ) ;
#145 = APPLICATION_CONTEXT ( 'configuration controlled 3d designs of mechanical parts and assemblies' ) ;
#146 = DIRECTION ( 'NONE',  ( -3.491481338843133355E-15, 1.224646799147353207E-16, -1.000000000000000000 ) ) ;
#147 = CC_DESIGN_PERSON_AND_ORGANIZATION_ASSIGNMENT ( #153, #263, ( #151 ) ) ;
#148 = CARTESIAN_POINT ( 'NONE',  ( 8.728703347107829444E-16, -3.061616997868381785E-17, 0.2499999999999998890 ) ) ;
#149 = CIRCLE ( 'NONE', #87, 0.9603844939755808996 ) ;
#150 = VERTEX_POINT ( 'NONE', #49 ) ;
#151 = PRODUCT ( '327060', '327060', '', ( #175 ) ) ;
#152 =( NAMED_UNIT ( * ) SI_UNIT ( $, .STERADIAN. ) SOLID_ANGLE_UNIT ( ) );
#153 = PERSON_AND_ORGANIZATION ( #209, #193 ) ;
#154 = APPROVAL_STATUS ( 'not_yet_approved' ) ;
#155 = DATE_AND_TIME ( #82, #25 ) ;
#156 = EDGE_LOOP ( 'NONE', ( #279 ) ) ;
#157 = ORIENTED_EDGE ( 'NONE', *, *, #84, .T. ) ;
#158 = FACE_OUTER_BOUND ( 'NONE', #113, .T. ) ;
#159 = CYLINDRICAL_SURFACE ( 'NONE', #63, 1.079999999999999405 ) ;
#160 = FACE_OUTER_BOUND ( 'NONE', #83, .T. ) ;
#161 = DIRECTION ( 'NONE',  ( 0.0000000000000000000, 1.000000000000000000, 0.0000000000000000000 ) ) ;
#162 = AXIS2_PLACEMENT_3D ( 'NONE', #55, #297, #107 ) ;
#163 = EDGE_LOOP ( 'NONE', ( #157 ) ) ;
#164 = FACE_OUTER_BOUND ( 'NONE', #156, .T. ) ;
#165 = VERTEX_POINT ( 'NONE', #168 ) ;
#166 = CIRCLE ( 'NONE', #116, 0.9300000000000002709 ) ;
#167 = DIRECTION ( 'NONE',  ( -3.491481338843133355E-15, 1.224646799147353207E-16, -1.000000000000000000 ) ) ;
#168 = CARTESIAN_POINT ( 'NONE',  ( 2.793185071074506684E-14, 1.079999999999998961, 8.000000000000000000 ) ) ;
#169 = CARTESIAN_POINT ( 'NONE',  ( 6.405924284287275164E-14, 0.9603844939755786791, 18.34729635533384595 ) ) ;
#170 = AXIS2_PLACEMENT_3D ( 'NONE', #10, #262, #30 ) ;
#171 = APPROVAL_STATUS ( 'not_yet_approved' ) ;
#172 =( NAMED_UNIT ( * ) PLANE_ANGLE_UNIT ( ) SI_UNIT ( $, .RADIAN. ) );
#173 = ORIENTED_EDGE ( 'NONE', *, *, #84, .F. ) ;
#174 = APPROVAL_DATE_TIME ( #155, #237 ) ;
#175 = MECHANICAL_CONTEXT ( 'NONE', #292, 'mechanical' ) ;
#176 = LOCAL_TIME ( 15, 4, 6.000000000000000000, #272 ) ;
#177 = EDGE_CURVE ( 'NONE', #77, #77, #212, .T. ) ;
#178 = EDGE_LOOP ( 'NONE', ( #210 ) ) ;
#179 = PERSON_AND_ORGANIZATION ( #209, #193 ) ;
#180 = CARTESIAN_POINT ( 'NONE',  ( 0.0000000000000000000, 0.0000000000000000000, 0.0000000000000000000 ) ) ;
#181 = DIRECTION ( 'NONE',  ( 3.491481338843133355E-15, -1.224646799147353207E-16, 1.000000000000000000 ) ) ;
#182 = APPROVAL_ROLE ( '' ) ;
#183 = CARTESIAN_POINT ( 'NONE',  ( 2.793185071074506684E-14, 8.098702826374017671E-33, 8.000000000000000000 ) ) ;
#184 = DESIGN_CONTEXT ( 'detailed design', #145, 'design' ) ;
#185 = DIRECTION ( 'NONE',  ( 3.491481338843133355E-15, -1.224646799147353207E-16, 1.000000000000000000 ) ) ;
#186 = APPROVAL_DATE_TIME ( #275, #70 ) ;
#187 = EDGE_LOOP ( 'NONE', ( #137 ) ) ;
#188 = ADVANCED_FACE ( 'NONE', ( #96 ), #214, .F. ) ;
#189 = DIRECTION ( 'NONE',  ( -3.491481338843133355E-15, 1.224646799147353207E-16, -1.000000000000000000 ) ) ;
#190 = FACE_BOUND ( 'NONE', #163, .T. ) ;
#191 = CARTESIAN_POINT ( 'NONE',  ( 6.284666409917640040E-14, -2.168404344971008868E-15, 18.00000000000000000 ) ) ;
#192 = CLOSED_SHELL ( 'NONE', ( #6, #132, #65, #13 ) ) ;
#193 = ORGANIZATION ( 'UNSPECIFIED', 'UNSPECIFIED', '' ) ;
#194 = VERTEX_POINT ( 'NONE', #74 ) ;
#195 = CARTESIAN_POINT ( 'NONE',  ( 2.883896417162832445E-14, -1.011534696479630343E-15, 8.259807621135337286 ) ) ;
#196 = AXIS2_PLACEMENT_3D ( 'NONE', #280, #146, #256 ) ;
#197 = EDGE_LOOP ( 'NONE', ( #95 ) ) ;
#198 = VERTEX_POINT ( 'NONE', #221 ) ;
#199 = ADVANCED_FACE ( 'NONE', ( #124, #76 ), #135, .F. ) ;
#200 = CALENDAR_DATE ( 2021, 1, 12 ) ;
#201 = AXIS2_PLACEMENT_3D ( 'NONE', #136, #181, #255 ) ;
#202 = CARTESIAN_POINT ( 'NONE',  ( 1.735266225405037467E-13, 1.499999999999995559, 49.70000000000000284 ) ) ;
#203 = CARTESIAN_POINT ( 'NONE',  ( 0.0000000000000000000, 0.0000000000000000000, 0.0000000000000000000 ) ) ;
#204 = AXIS2_PLACEMENT_3D ( 'NONE', #251, #205, #302 ) ;
#205 = DIRECTION ( 'NONE',  ( -3.491481338843133355E-15, 1.224646799147353207E-16, -1.000000000000000000 ) ) ;
#206 = CC_DESIGN_APPROVAL ( #70, ( #273 ) ) ;
#207 = FACE_OUTER_BOUND ( 'NONE', #187, .T. ) ;
#208 = DIRECTION ( 'NONE',  ( -4.275831445896958607E-31, -1.000000000000000000, -1.224646799147353207E-16 ) ) ;
#209 = PERSON ( 'UNSPECIFIED', 'UNSPECIFIED', 'UNSPECIFIED', ('UNSPECIFIED'), ('UNSPECIFIED'), ('UNSPECIFIED') ) ;
#210 = ORIENTED_EDGE ( 'NONE', *, *, #28, .T. ) ;
#211 = CONICAL_SURFACE ( 'NONE', #8, 1.499999999999996669, 0.1745329251994259534 ) ;
#212 = CIRCLE ( 'NONE', #220, 1.080000000000000071 ) ;
#213 = CARTESIAN_POINT ( 'NONE',  ( 6.284666409917640040E-14, -2.204364238465235428E-15, 18.00000000000000000 ) ) ;
#214 = PLANE ( 'NONE',  #216 ) ;
#215 = DIRECTION ( 'NONE',  ( 4.275831445896958607E-31, 1.000000000000000000, 1.224646799147353207E-16 ) ) ;
#216 = AXIS2_PLACEMENT_3D ( 'NONE', #32, #51, #215 ) ;
#217 = CARTESIAN_POINT ( 'NONE',  ( 2.793185071074506684E-14, -9.797174393178825657E-16, 8.000000000000000000 ) ) ;
#218 = FACE_OUTER_BOUND ( 'NONE', #178, .T. ) ;
#219 = APPROVAL_STATUS ( 'not_yet_approved' ) ;
#220 = AXIS2_PLACEMENT_3D ( 'NONE', #217, #117, #119 ) ;
#221 = CARTESIAN_POINT ( 'NONE',  ( 6.284666409917640040E-14, 0.9299999999999980504, 18.00000000000000000 ) ) ;
#222 = EDGE_LOOP ( 'NONE', ( #66 ) ) ;
#223 = SECURITY_CLASSIFICATION_LEVEL ( 'unclassified' ) ;
#224 = PERSON_AND_ORGANIZATION_ROLE ( 'creator' ) ;
#225 = EDGE_LOOP ( 'NONE', ( #269 ) ) ;
#226 = AXIS2_PLACEMENT_3D ( 'NONE', #141, #46, #19 ) ;
#227 = ADVANCED_FACE ( 'NONE', ( #47, #190 ), #111, .T. ) ;
#228 = PLANE ( 'NONE',  #201 ) ;
#229 = DIRECTION ( 'NONE',  ( -4.275831445896958607E-31, -1.000000000000000000, -1.224646799147353207E-16 ) ) ;
#230 = AXIS2_PLACEMENT_3D ( 'NONE', #191, #189, #258 ) ;
#231 = FACE_BOUND ( 'NONE', #134, .T. ) ;
#232 = CC_DESIGN_PERSON_AND_ORGANIZATION_ASSIGNMENT ( #39, #16, ( #273 ) ) ;
#233 = EDGE_LOOP ( 'NONE', ( #105 ) ) ;
#234 = DIRECTION ( 'NONE',  ( 0.0000000000000000000, -1.000000000000000000, 0.0000000000000000000 ) ) ;
#235 = CARTESIAN_POINT ( 'NONE',  ( 1.745740669421566678E-13, 1.199999999999995515, 50.00000000000000000 ) ) ;
#236 = CYLINDRICAL_SURFACE ( 'NONE', #170, 0.9299999999999996048 ) ;
#237 = APPROVAL ( #154, 'UNSPECIFIED' ) ;
#238 = DIRECTION ( 'NONE',  ( 3.491481338843133355E-15, -1.224646799147353207E-16, 1.000000000000000000 ) ) ;
#239 = CARTESIAN_POINT ( 'NONE',  ( 7.474426371639281157E-14, -2.621675857080061326E-15, 21.40760796423404955 ) ) ;
#240 = CC_DESIGN_PERSON_AND_ORGANIZATION_ASSIGNMENT ( #106, #245, ( #266 ) ) ;
#241 = CARTESIAN_POINT ( 'NONE',  ( -4.000734852494200390E-31, 1.403268886714908162E-32, -1.145856003291658281E-16 ) ) ;
#242 = DATE_AND_TIME ( #89, #103 ) ;
#243 = AXIS2_PLACEMENT_3D ( 'NONE', #239, #123, #260 ) ;
#244 = CIRCLE ( 'NONE', #243, 1.499999999999996669 ) ;
#245 = PERSON_AND_ORGANIZATION_ROLE ( 'design_supplier' ) ;
#246 = EDGE_LOOP ( 'NONE', ( #18 ) ) ;
#247 = COORDINATED_UNIVERSAL_TIME_OFFSET ( 1, 0, .AHEAD. ) ;
#248 = ORIENTED_EDGE ( 'NONE', *, *, #79, .F. ) ;
#249 = AXIS2_PLACEMENT_3D ( 'NONE', #78, #167, #29 ) ;
#250 = EDGE_LOOP ( 'NONE', ( #43 ) ) ;
#251 = CARTESIAN_POINT ( 'NONE',  ( 1.745740669421566678E-13, -6.123233995736766085E-15, 50.00000000000000000 ) ) ;
#252 = EDGE_LOOP ( 'NONE', ( #88 ) ) ;
#253 = EDGE_CURVE ( 'NONE', #150, #150, #108, .T. ) ;
#254 = AXIS2_PLACEMENT_3D ( 'NONE', #203, #303, #22 ) ;
#255 = DIRECTION ( 'NONE',  ( -4.275831445896958607E-31, -1.000000000000000000, -1.224646799147353207E-16 ) ) ;
#256 = DIRECTION ( 'NONE',  ( 0.0000000000000000000, 1.000000000000000000, 0.0000000000000000000 ) ) ;
#257 = VERTEX_POINT ( 'NONE', #169 ) ;
#258 = DIRECTION ( 'NONE',  ( 4.275831445896958607E-31, 1.000000000000000000, 1.224646799147353207E-16 ) ) ;
#259 = MANIFOLD_SOLID_BREP ( 'Corps-Déplacer/Copier1[1]', #71 ) ;
#260 = DIRECTION ( 'NONE',  ( 0.0000000000000000000, 1.000000000000000000, 0.0000000000000000000 ) ) ;
#261 = EDGE_CURVE ( 'NONE', #165, #165, #127, .T. ) ;
#262 = DIRECTION ( 'NONE',  ( -3.491481338843133355E-15, 1.224646799147353207E-16, -1.000000000000000000 ) ) ;
#263 = PERSON_AND_ORGANIZATION_ROLE ( 'design_owner' ) ;
#264 = EDGE_CURVE ( 'NONE', #198, #198, #166, .T. ) ;
#265 = DATE_AND_TIME ( #133, #100 ) ;
#266 = PRODUCT_DEFINITION_FORMATION_WITH_SPECIFIED_SOURCE ( 'ANY', '', #151, .NOT_KNOWN. ) ;
#267 = EDGE_LOOP ( 'NONE', ( #128 ) ) ;
#268 = DATE_TIME_ROLE ( 'creation_date' ) ;
#269 = ORIENTED_EDGE ( 'NONE', *, *, #177, .T. ) ;
#270 = PRODUCT_RELATED_PRODUCT_CATEGORY ( 'detail', '', ( #151 ) ) ;
#271 = DIRECTION ( 'NONE',  ( -3.491481338843133355E-15, 1.224646799147353207E-16, -1.000000000000000000 ) ) ;
#272 = COORDINATED_UNIVERSAL_TIME_OFFSET ( 1, 0, .AHEAD. ) ;
#273 = SECURITY_CLASSIFICATION ( '', '', #223 ) ;
#274 = ORIENTED_EDGE ( 'NONE', *, *, #261, .F. ) ;
#275 = DATE_AND_TIME ( #45, #176 ) ;
#276 = FACE_OUTER_BOUND ( 'NONE', #3, .T. ) ;
#277 = FACE_OUTER_BOUND ( 'NONE', #267, .T. ) ;
#278 = CC_DESIGN_APPROVAL ( #237, ( #266 ) ) ;
#279 = ORIENTED_EDGE ( 'NONE', *, *, #264, .T. ) ;
#280 = CARTESIAN_POINT ( 'NONE',  ( 1.735266225405037467E-13, -6.086494591762345225E-15, 49.70000000000000284 ) ) ;
#281 = CC_DESIGN_PERSON_AND_ORGANIZATION_ASSIGNMENT ( #131, #224, ( #266 ) ) ;
#282 = VERTEX_POINT ( 'NONE', #7 ) ;
#283 = CARTESIAN_POINT ( 'NONE',  ( 1.745740669421566678E-13, -6.123233995736766085E-15, 50.00000000000000000 ) ) ;
#284 = AXIS2_PLACEMENT_3D ( 'NONE', #241, #102, #27 ) ;
#285 = CARTESIAN_POINT ( 'NONE',  ( 8.552847072295026068E-47, 0.9356624327025946375, 0.0000000000000000000 ) ) ;
#286 = APPROVAL ( #219, 'UNSPECIFIED' ) ;
#287 = DIRECTION ( 'NONE',  ( 0.0000000000000000000, 1.000000000000000000, 0.0000000000000000000 ) ) ;
#288 = DATE_TIME_ROLE ( 'classification_date' ) ;
#289 =( GEOMETRIC_REPRESENTATION_CONTEXT ( 3 ) GLOBAL_UNCERTAINTY_ASSIGNED_CONTEXT ( ( #112 ) ) GLOBAL_UNIT_ASSIGNED_CONTEXT ( ( #17, #172, #152 ) ) REPRESENTATION_CONTEXT ( 'NONE', 'WORKASPACE' ) );
#290 = PERSON_AND_ORGANIZATION ( #209, #193 ) ;
#291 = EDGE_LOOP ( 'NONE', ( #173 ) ) ;
#292 = APPLICATION_CONTEXT ( 'configuration controlled 3d designs of mechanical parts and assemblies' ) ;
#293 = EDGE_CURVE ( 'NONE', #12, #12, #143, .T. ) ;
#294 = PERSON_AND_ORGANIZATION ( #209, #193 ) ;
#295 = DATE_AND_TIME ( #200, #48 ) ;
#296 = ADVANCED_BREP_SHAPE_REPRESENTATION ( '327060', ( #259, #59, #162 ), #289 ) ;
#297 = DIRECTION ( 'NONE',  ( 0.0000000000000000000, 0.0000000000000000000, 1.000000000000000000 ) ) ;
#298 = CC_DESIGN_PERSON_AND_ORGANIZATION_ASSIGNMENT ( #294, #129, ( #37 ) ) ;
#299 = PRODUCT_DEFINITION_SHAPE ( 'NONE', 'NONE',  #37 ) ;
#300 = FACE_BOUND ( 'NONE', #15, .T. ) ;
#301 = CC_DESIGN_APPROVAL ( #286, ( #37 ) ) ;
#302 = DIRECTION ( 'NONE',  ( 0.0000000000000000000, 1.000000000000000000, 0.0000000000000000000 ) ) ;
#303 = DIRECTION ( 'NONE',  ( -3.491481338843133355E-15, 1.224646799147353207E-16, -1.000000000000000000 ) ) ;
ENDSEC;
END-ISO-10303-21;
