ISO-10303-21;
HEADER;
FILE_DESCRIPTION (( 'STEP AP203' ),
    '1' );
FILE_NAME ('327059.step',
    '2021-12-01T14:04:05',
    ( '' ),
    ( '' ),
    'SwSTEP 2.0',
    'SolidWorks 2019',
    '' );
FILE_SCHEMA (( 'CONFIG_CONTROL_DESIGN' ));
ENDSEC;

DATA;
#1 = VERTEX_POINT ( 'NONE', #125 ) ;
#2 = AXIS2_PLACEMENT_3D ( 'NONE', #73, #259, #49 ) ;
#3 = FACE_OUTER_BOUND ( 'NONE', #274, .T. ) ;
#4 = DIRECTION ( 'NONE',  ( 0.0000000000000000000, 1.000000000000000000, 0.0000000000000000000 ) ) ;
#5 =( NAMED_UNIT ( * ) PLANE_ANGLE_UNIT ( ) SI_UNIT ( $, .RADIAN. ) );
#6 = ADVANCED_FACE ( 'NONE', ( #62, #252 ), #20, .T. ) ;
#7 = PRODUCT_DEFINITION_SHAPE ( 'NONE', 'NONE',  #280 ) ;
#8 =( NAMED_UNIT ( * ) SI_UNIT ( $, .STERADIAN. ) SOLID_ANGLE_UNIT ( ) );
#9 = PERSON_AND_ORGANIZATION_ROLE ( 'creator' ) ;
#10 = AXIS2_PLACEMENT_3D ( 'NONE', #261, #115, #301 ) ;
#11 = CC_DESIGN_PERSON_AND_ORGANIZATION_ASSIGNMENT ( #145, #243, ( #182 ) ) ;
#12 = COORDINATED_UNIVERSAL_TIME_OFFSET ( 1, 0, .AHEAD. ) ;
#13 = CC_DESIGN_APPROVAL ( #225, ( #280 ) ) ;
#14 = EDGE_LOOP ( 'NONE', ( #85 ) ) ;
#15 = DIRECTION ( 'NONE',  ( -3.491481338843133355E-15, 1.224646799147353207E-16, -1.000000000000000000 ) ) ;
#16 = ORIENTED_EDGE ( 'NONE', *, *, #63, .T. ) ;
#17 = ORIENTED_EDGE ( 'NONE', *, *, #136, .F. ) ;
#18 = AXIS2_PLACEMENT_3D ( 'NONE', #134, #87, #232 ) ;
#19 = DIRECTION ( 'NONE',  ( 4.275831445896958607E-31, 1.000000000000000000, 1.224646799147353207E-16 ) ) ;
#20 = CYLINDRICAL_SURFACE ( 'NONE', #229, 1.064999999999999503 ) ;
#21 = EDGE_CURVE ( 'NONE', #47, #47, #42, .T. ) ;
#22 = DIRECTION ( 'NONE',  ( 0.0000000000000000000, 1.000000000000000000, 0.0000000000000000000 ) ) ;
#23 = APPROVAL ( #33, 'UNSPECIFIED' ) ;
#24 = DIRECTION ( 'NONE',  ( 3.491481338843133355E-15, -1.224646799147353207E-16, 1.000000000000000000 ) ) ;
#25 = DIRECTION ( 'NONE',  ( -4.275831445896958607E-31, -1.000000000000000000, -1.224646799147353207E-16 ) ) ;
#26 = DIRECTION ( 'NONE',  ( -3.491481338843133355E-15, 1.224646799147353207E-16, -1.000000000000000000 ) ) ;
#27 = DIRECTION ( 'NONE',  ( -3.491481338843133355E-15, 1.224646799147353207E-16, -1.000000000000000000 ) ) ;
#28 = CALENDAR_DATE ( 2021, 1, 12 ) ;
#29 = CC_DESIGN_PERSON_AND_ORGANIZATION_ASSIGNMENT ( #164, #34, ( #279 ) ) ;
#30 = COORDINATED_UNIVERSAL_TIME_OFFSET ( 1, 0, .AHEAD. ) ;
#31 = APPLICATION_CONTEXT ( 'configuration controlled 3d designs of mechanical parts and assemblies' ) ;
#32 = AXIS2_PLACEMENT_3D ( 'NONE', #250, #204, #298 ) ;
#33 = APPROVAL_STATUS ( 'not_yet_approved' ) ;
#34 = PERSON_AND_ORGANIZATION_ROLE ( 'design_owner' ) ;
#35 = APPROVAL_DATE_TIME ( #147, #225 ) ;
#36 = PERSON_AND_ORGANIZATION ( #116, #106 ) ;
#37 = EDGE_LOOP ( 'NONE', ( #81 ) ) ;
#38 = APPROVAL_STATUS ( 'not_yet_approved' ) ;
#39 = CC_DESIGN_SECURITY_CLASSIFICATION ( #167, ( #182 ) ) ;
#40 = CARTESIAN_POINT ( 'NONE',  ( 6.284666409917640040E-14, -2.168404344971008868E-15, 18.00000000000000000 ) ) ;
#41 = DIRECTION ( 'NONE',  ( -3.491481338843133355E-15, 1.224646799147353207E-16, -1.000000000000000000 ) ) ;
#42 = CIRCLE ( 'NONE', #214, 1.499999999999996669 ) ;
#43 = AXIS2_PLACEMENT_3D ( 'NONE', #281, #137, #237 ) ;
#44 = ORIENTED_EDGE ( 'NONE', *, *, #63, .F. ) ;
#45 = CARTESIAN_POINT ( 'NONE',  ( 1.735266225405037467E-13, -6.086494591762345225E-15, 49.70000000000000284 ) ) ;
#46 = CC_DESIGN_PERSON_AND_ORGANIZATION_ASSIGNMENT ( #165, #263, ( #182 ) ) ;
#47 = VERTEX_POINT ( 'NONE', #234 ) ;
#48 = CLOSED_SHELL ( 'NONE', ( #270, #127, #6, #198 ) ) ;
#49 = DIRECTION ( 'NONE',  ( 0.0000000000000000000, -1.000000000000000000, 0.0000000000000000000 ) ) ;
#50 = CARTESIAN_POINT ( 'NONE',  ( 2.793185071074506684E-14, -9.797174393178825657E-16, 8.000000000000000000 ) ) ;
#51 = FACE_OUTER_BOUND ( 'NONE', #173, .T. ) ;
#52 = AXIS2_PLACEMENT_3D ( 'NONE', #50, #140, #22 ) ;
#53 = PERSON_AND_ORGANIZATION ( #116, #106 ) ;
#54 = EDGE_CURVE ( 'NONE', #211, #211, #109, .T. ) ;
#55 = CC_DESIGN_APPROVAL ( #242, ( #167 ) ) ;
#56 = APPLICATION_PROTOCOL_DEFINITION ( 'international standard', 'config_control_design', 1994, #178 ) ;
#57 = ORIENTED_EDGE ( 'NONE', *, *, #190, .F. ) ;
#58 = CALENDAR_DATE ( 2021, 1, 12 ) ;
#59 = DIRECTION ( 'NONE',  ( 0.0000000000000000000, 0.0000000000000000000, 1.000000000000000000 ) ) ;
#60 = PERSON_AND_ORGANIZATION ( #116, #106 ) ;
#61 = DATE_TIME_ROLE ( 'classification_date' ) ;
#62 = FACE_OUTER_BOUND ( 'NONE', #37, .T. ) ;
#63 = EDGE_CURVE ( 'NONE', #282, #282, #267, .T. ) ;
#64 = AXIS2_PLACEMENT_3D ( 'NONE', #246, #59, #240 ) ;
#65 = ORIENTED_EDGE ( 'NONE', *, *, #54, .F. ) ;
#66 = EDGE_LOOP ( 'NONE', ( #169 ) ) ;
#67 = DIRECTION ( 'NONE',  ( -3.491481338843133355E-15, 1.224646799147353207E-16, -1.000000000000000000 ) ) ;
#68 = AXIS2_PLACEMENT_3D ( 'NONE', #98, #26, #260 ) ;
#69 = CC_DESIGN_DATE_AND_TIME_ASSIGNMENT ( #77, #124, ( #280 ) ) ;
#70 = DIRECTION ( 'NONE',  ( 0.0000000000000000000, 1.000000000000000000, 0.0000000000000000000 ) ) ;
#71 = CC_DESIGN_APPROVAL ( #23, ( #182 ) ) ;
#72 = FACE_BOUND ( 'NONE', #101, .T. ) ;
#73 = CARTESIAN_POINT ( 'NONE',  ( 7.504128133600055194E-14, -2.632093832771247692E-15, 21.49267719152831546 ) ) ;
#74 = DIRECTION ( 'NONE',  ( -3.491481338843133355E-15, 1.224646799147353207E-16, -1.000000000000000000 ) ) ;
#75 = DIRECTION ( 'NONE',  ( 0.0000000000000000000, 1.000000000000000000, 0.0000000000000000000 ) ) ;
#76 = EDGE_CURVE ( 'NONE', #1, #1, #122, .T. ) ;
#77 = DATE_AND_TIME ( #197, #264 ) ;
#78 = AXIS2_PLACEMENT_3D ( 'NONE', #257, #117, #75 ) ;
#79 = PERSON_AND_ORGANIZATION ( #116, #106 ) ;
#80 = CARTESIAN_POINT ( 'NONE',  ( 2.793185071074506684E-14, 1.064999999999998836, 8.000000000000000000 ) ) ;
#81 = ORIENTED_EDGE ( 'NONE', *, *, #166, .F. ) ;
#82 = COORDINATED_UNIVERSAL_TIME_OFFSET ( 1, 0, .AHEAD. ) ;
#83 = MANIFOLD_SOLID_BREP ( 'Corps-Déplacer/Copier1[2]', #48 ) ;
#84 = ADVANCED_FACE ( 'NONE', ( #293, #201 ), #205, .F. ) ;
#85 = ORIENTED_EDGE ( 'NONE', *, *, #157, .T. ) ;
#86 = AXIS2_PLACEMENT_3D ( 'NONE', #253, #176, #111 ) ;
#87 = DIRECTION ( 'NONE',  ( -3.491481338843133355E-15, 1.224646799147353207E-16, -1.000000000000000000 ) ) ;
#88 = EDGE_LOOP ( 'NONE', ( #16 ) ) ;
#89 = EDGE_LOOP ( 'NONE', ( #296 ) ) ;
#90 = DIRECTION ( 'NONE',  ( 3.491481338843133355E-15, -1.224646799147353207E-16, 1.000000000000000000 ) ) ;
#91 = CIRCLE ( 'NONE', #196, 0.9150000000000000355 ) ;
#92 = EDGE_CURVE ( 'NONE', #222, #222, #148, .T. ) ;
#93 = DESIGN_CONTEXT ( 'detailed design', #178, 'design' ) ;
#94 = FACE_OUTER_BOUND ( 'NONE', #202, .T. ) ;
#95 = DIRECTION ( 'NONE',  ( -3.491481338843133355E-15, 1.224646799147353207E-16, -1.000000000000000000 ) ) ;
#96 = PLANE ( 'NONE',  #170 ) ;
#97 = CONICAL_SURFACE ( 'NONE', #268, 1.200000000000001732, 0.7853981633974453924 ) ;
#98 = CARTESIAN_POINT ( 'NONE',  ( 2.793185071074506684E-14, -9.797174393178825657E-16, 8.000000000000000000 ) ) ;
#99 = FACE_OUTER_BOUND ( 'NONE', #227, .T. ) ;
#100 = APPROVAL_STATUS ( 'not_yet_approved' ) ;
#101 = EDGE_LOOP ( 'NONE', ( #44 ) ) ;
#102 = APPLICATION_PROTOCOL_DEFINITION ( 'international standard', 'config_control_design', 1994, #31 ) ;
#103 = VERTEX_POINT ( 'NONE', #195 ) ;
#104 = COORDINATED_UNIVERSAL_TIME_OFFSET ( 1, 0, .AHEAD. ) ;
#105 = ADVANCED_FACE ( 'NONE', ( #276 ), #247, .F. ) ;
#106 = ORGANIZATION ( 'UNSPECIFIED', 'UNSPECIFIED', '' ) ;
#107 = DIRECTION ( 'NONE',  ( 3.491481338843133355E-15, -1.224646799147353207E-16, 1.000000000000000000 ) ) ;
#108 = DIRECTION ( 'NONE',  ( 0.0000000000000000000, 1.000000000000000000, 0.0000000000000000000 ) ) ;
#109 = CIRCLE ( 'NONE', #86, 0.9149999999999988143 ) ;
#110 = EDGE_LOOP ( 'NONE', ( #272 ) ) ;
#111 = DIRECTION ( 'NONE',  ( 0.0000000000000000000, 1.000000000000000000, 0.0000000000000000000 ) ) ;
#112 = CARTESIAN_POINT ( 'NONE',  ( 2.793185071074506684E-14, 7.986220842674376161E-33, 8.000000000000000000 ) ) ;
#113 = CYLINDRICAL_SURFACE ( 'NONE', #141, 1.499999999999999112 ) ;
#114 = CC_DESIGN_PERSON_AND_ORGANIZATION_ASSIGNMENT ( #290, #9, ( #280 ) ) ;
#115 = DIRECTION ( 'NONE',  ( 3.491481338843133355E-15, -1.224646799147353207E-16, 1.000000000000000000 ) ) ;
#116 = PERSON ( 'UNSPECIFIED', 'UNSPECIFIED', 'UNSPECIFIED', ('UNSPECIFIED'), ('UNSPECIFIED'), ('UNSPECIFIED') ) ;
#117 = DIRECTION ( 'NONE',  ( -3.491481338843133355E-15, 1.224646799147353207E-16, -1.000000000000000000 ) ) ;
#118 = FACE_OUTER_BOUND ( 'NONE', #66, .T. ) ;
#119 = CIRCLE ( 'NONE', #52, 1.064999999999999947 ) ;
#120 = CYLINDRICAL_SURFACE ( 'NONE', #179, 0.9149999999999993694 ) ;
#121 = CARTESIAN_POINT ( 'NONE',  ( 1.745740669421566678E-13, 1.199999999999995515, 50.00000000000000000 ) ) ;
#122 = CIRCLE ( 'NONE', #32, 0.9206624327025945131 ) ;
#123 = ORIENTED_EDGE ( 'NONE', *, *, #157, .F. ) ;
#124 = DATE_TIME_ROLE ( 'creation_date' ) ;
#125 = CARTESIAN_POINT ( 'NONE',  ( -1.892735826383161356E-31, 0.9206624327025945131, -5.421010862427522170E-17 ) ) ;
#126 =( LENGTH_UNIT ( ) NAMED_UNIT ( * ) SI_UNIT ( .MILLI., .METRE. ) );
#127 = ADVANCED_FACE ( 'NONE', ( #209, #180 ), #254, .T. ) ;
#128 = DATE_AND_TIME ( #203, #278 ) ;
#129 = CARTESIAN_POINT ( 'NONE',  ( 8.728703347107829444E-16, -3.061616997868381785E-17, 0.2499999999999998890 ) ) ;
#130 = COORDINATED_UNIVERSAL_TIME_OFFSET ( 1, 0, .AHEAD. ) ;
#131 = EDGE_LOOP ( 'NONE', ( #255 ) ) ;
#132 = CIRCLE ( 'NONE', #193, 1.500000000000001554 ) ;
#133 = ORIENTED_EDGE ( 'NONE', *, *, #92, .F. ) ;
#134 = CARTESIAN_POINT ( 'NONE',  ( 1.745740669421566678E-13, -6.123233995736766085E-15, 50.00000000000000000 ) ) ;
#135 = DIRECTION ( 'NONE',  ( 0.0000000000000000000, 1.000000000000000000, 0.0000000000000000000 ) ) ;
#136 = EDGE_CURVE ( 'NONE', #218, #218, #119, .T. ) ;
#137 = DIRECTION ( 'NONE',  ( -3.491481338843133355E-15, 1.224646799147353207E-16, -1.000000000000000000 ) ) ;
#138 = FACE_OUTER_BOUND ( 'NONE', #175, .T. ) ;
#139 = FACE_OUTER_BOUND ( 'NONE', #146, .T. ) ;
#140 = DIRECTION ( 'NONE',  ( -3.491481338843133355E-15, 1.224646799147353207E-16, -1.000000000000000000 ) ) ;
#141 = AXIS2_PLACEMENT_3D ( 'NONE', #189, #95, #213 ) ;
#142 = ADVANCED_FACE ( 'NONE', ( #139 ), #186, .F. ) ;
#143 = APPROVAL_ROLE ( '' ) ;
#144 = APPROVAL_PERSON_ORGANIZATION ( #60, #242, #273 ) ;
#145 = PERSON_AND_ORGANIZATION ( #116, #106 ) ;
#146 = EDGE_LOOP ( 'NONE', ( #133 ) ) ;
#147 = DATE_AND_TIME ( #58, #302 ) ;
#148 = CIRCLE ( 'NONE', #18, 1.200000000000001732 ) ;
#149 = EDGE_LOOP ( 'NONE', ( #295 ) ) ;
#150 = CALENDAR_DATE ( 2021, 1, 12 ) ;
#151 = DIRECTION ( 'NONE',  ( -3.491481338843133355E-15, 1.224646799147353207E-16, -1.000000000000000000 ) ) ;
#152 = LOCAL_TIME ( 15, 4, 5.000000000000000000, #130 ) ;
#153 = EDGE_LOOP ( 'NONE', ( #172 ) ) ;
#154 = ORIENTED_EDGE ( 'NONE', *, *, #21, .T. ) ;
#155 = AXIS2_PLACEMENT_3D ( 'NONE', #161, #27, #185 ) ;
#156 = DIRECTION ( 'NONE',  ( 4.275831445896958607E-31, 1.000000000000000000, 1.224646799147353207E-16 ) ) ;
#157 = EDGE_CURVE ( 'NONE', #168, #168, #91, .T. ) ;
#158 = DIRECTION ( 'NONE',  ( 0.0000000000000000000, 1.000000000000000000, 0.0000000000000000000 ) ) ;
#159 = UNCERTAINTY_MEASURE_WITH_UNIT (LENGTH_MEASURE( 1.000000000000000082E-05 ), #126, 'distance_accuracy_value', 'NONE');
#160 = DIRECTION ( 'NONE',  ( -3.491481338843133355E-15, 1.224646799147353207E-16, -1.000000000000000000 ) ) ;
#161 = CARTESIAN_POINT ( 'NONE',  ( 8.728703347107829444E-16, -3.061616997868381785E-17, 0.2499999999999998890 ) ) ;
#162 = FACE_OUTER_BOUND ( 'NONE', #194, .T. ) ;
#163 = DIRECTION ( 'NONE',  ( 4.275831445896958607E-31, 1.000000000000000000, 1.224646799147353454E-16 ) ) ;
#164 = PERSON_AND_ORGANIZATION ( #116, #106 ) ;
#165 = PERSON_AND_ORGANIZATION ( #116, #106 ) ;
#166 = EDGE_CURVE ( 'NONE', #266, #266, #291, .T. ) ;
#167 = SECURITY_CLASSIFICATION ( '', '', #271 ) ;
#168 = VERTEX_POINT ( 'NONE', #220 ) ;
#169 = ORIENTED_EDGE ( 'NONE', *, *, #21, .F. ) ;
#170 = AXIS2_PLACEMENT_3D ( 'NONE', #285, #24, #25 ) ;
#171 = EDGE_LOOP ( 'NONE', ( #245 ) ) ;
#172 = ORIENTED_EDGE ( 'NONE', *, *, #76, .F. ) ;
#173 = EDGE_LOOP ( 'NONE', ( #275 ) ) ;
#174 = ORIENTED_EDGE ( 'NONE', *, *, #136, .T. ) ;
#175 = EDGE_LOOP ( 'NONE', ( #206 ) ) ;
#176 = DIRECTION ( 'NONE',  ( -3.491481338843133355E-15, 1.224646799147353207E-16, -1.000000000000000000 ) ) ;
#177 = ADVANCED_FACE ( 'NONE', ( #72, #162 ), #238, .T. ) ;
#178 = APPLICATION_CONTEXT ( 'configuration controlled 3d designs of mechanical parts and assemblies' ) ;
#179 = AXIS2_PLACEMENT_3D ( 'NONE', #184, #256, #163 ) ;
#180 = FACE_OUTER_BOUND ( 'NONE', #110, .T. ) ;
#181 = MANIFOLD_SOLID_BREP ( 'Corps-Déplacer/Copier1[1]', #187 ) ;
#182 = PRODUCT_DEFINITION_FORMATION_WITH_SPECIFIED_SOURCE ( 'ANY', '', #279, .NOT_KNOWN. ) ;
#183 = CC_DESIGN_DATE_AND_TIME_ASSIGNMENT ( #128, #61, ( #167 ) ) ;
#184 = CARTESIAN_POINT ( 'NONE',  ( 0.0000000000000000000, 0.0000000000000000000, 0.0000000000000000000 ) ) ;
#185 = DIRECTION ( 'NONE',  ( 3.616769848614531400E-31, 1.000000000000000000, 1.018030208906578053E-16 ) ) ;
#186 = PLANE ( 'NONE',  #43 ) ;
#187 = CLOSED_SHELL ( 'NONE', ( #105, #300, #239, #84, #177, #217, #248, #142 ) ) ;
#188 = FACE_BOUND ( 'NONE', #149, .T. ) ;
#189 = CARTESIAN_POINT ( 'NONE',  ( 0.0000000000000000000, 0.0000000000000000000, 0.0000000000000000000 ) ) ;
#190 = EDGE_CURVE ( 'NONE', #269, #269, #230, .T. ) ;
#191 = DATE_AND_TIME ( #28, #289 ) ;
#192 = MECHANICAL_CONTEXT ( 'NONE', #31, 'mechanical' ) ;
#193 = AXIS2_PLACEMENT_3D ( 'NONE', #45, #160, #135 ) ;
#194 = EDGE_LOOP ( 'NONE', ( #154 ) ) ;
#195 = CARTESIAN_POINT ( 'NONE',  ( 1.735266225405037467E-13, 1.499999999999995559, 49.70000000000000284 ) ) ;
#196 = AXIS2_PLACEMENT_3D ( 'NONE', #284, #236, #4 ) ;
#197 = CALENDAR_DATE ( 2021, 1, 12 ) ;
#198 = ADVANCED_FACE ( 'NONE', ( #99 ), #96, .T. ) ;
#199 = CONICAL_SURFACE ( 'NONE', #78, 0.9149999999999988143, 0.5235987755982937086 ) ;
#200 = SHAPE_DEFINITION_REPRESENTATION ( #7, #244 ) ;
#201 = FACE_OUTER_BOUND ( 'NONE', #88, .T. ) ;
#202 = EDGE_LOOP ( 'NONE', ( #17 ) ) ;
#203 = CALENDAR_DATE ( 2021, 1, 12 ) ;
#204 = DIRECTION ( 'NONE',  ( -3.491481338843133355E-15, 1.224646799147353207E-16, -1.000000000000000000 ) ) ;
#205 = TOROIDAL_SURFACE ( 'NONE', #283, 2.915000000000000036, 2.000000000000000000 ) ;
#206 = ORIENTED_EDGE ( 'NONE', *, *, #76, .T. ) ;
#207 = CARTESIAN_POINT ( 'NONE',  ( 7.504128133600055194E-14, -2.632093832771247692E-15, 21.49267719152831546 ) ) ;
#208 = CARTESIAN_POINT ( 'NONE',  ( 6.405924284287275164E-14, -2.246895775456749140E-15, 18.34729635533384595 ) ) ;
#209 = FACE_BOUND ( 'NONE', #153, .T. ) ;
#210 = CARTESIAN_POINT ( 'NONE',  ( 1.745740669421566678E-13, -6.123233995736766085E-15, 50.00000000000000000 ) ) ;
#211 = VERTEX_POINT ( 'NONE', #303 ) ;
#212 = CARTESIAN_POINT ( 'NONE',  ( 6.405924284287275164E-14, 0.9453844939755792209, 18.34729635533384595 ) ) ;
#213 = DIRECTION ( 'NONE',  ( 4.275831445896958607E-31, 1.000000000000000000, 1.224646799147353454E-16 ) ) ;
#214 = AXIS2_PLACEMENT_3D ( 'NONE', #207, #15, #70 ) ;
#215 = AXIS2_PLACEMENT_3D ( 'NONE', #129, #107, #223 ) ;
#216 = FACE_OUTER_BOUND ( 'NONE', #171, .T. ) ;
#217 = ADVANCED_FACE ( 'NONE', ( #118, #51 ), #113, .T. ) ;
#218 = VERTEX_POINT ( 'NONE', #80 ) ;
#219 = CC_DESIGN_PERSON_AND_ORGANIZATION_ASSIGNMENT ( #36, #294, ( #167 ) ) ;
#220 = CARTESIAN_POINT ( 'NONE',  ( 6.284666409917640040E-14, 0.9149999999999978151, 18.00000000000000000 ) ) ;
#221 = CARTESIAN_POINT ( 'NONE',  ( 8.728703347107833388E-16, 1.064999999999998836, 0.2500000000000000000 ) ) ;
#222 = VERTEX_POINT ( 'NONE', #121 ) ;
#223 = DIRECTION ( 'NONE',  ( -3.616769848614531400E-31, -1.000000000000000000, -1.018030208906578053E-16 ) ) ;
#224 = APPROVAL_PERSON_ORGANIZATION ( #53, #23, #143 ) ;
#225 = APPROVAL ( #100, 'UNSPECIFIED' ) ;
#226 = APPROVAL_DATE_TIME ( #249, #242 ) ;
#227 = EDGE_LOOP ( 'NONE', ( #57 ) ) ;
#228 = EDGE_LOOP ( 'NONE', ( #174 ) ) ;
#229 = AXIS2_PLACEMENT_3D ( 'NONE', #231, #41, #19 ) ;
#230 = CIRCLE ( 'NONE', #68, 1.064999999999999947 ) ;
#231 = CARTESIAN_POINT ( 'NONE',  ( 0.0000000000000000000, 0.0000000000000000000, 0.0000000000000000000 ) ) ;
#232 = DIRECTION ( 'NONE',  ( 0.0000000000000000000, 1.000000000000000000, 0.0000000000000000000 ) ) ;
#233 = FACE_BOUND ( 'NONE', #89, .T. ) ;
#234 = CARTESIAN_POINT ( 'NONE',  ( 7.504128133600055194E-14, 1.499999999999994005, 21.49267719152831546 ) ) ;
#235 = PLANE ( 'NONE',  #10 ) ;
#236 = DIRECTION ( 'NONE',  ( -3.491481338843133355E-15, 1.224646799147353207E-16, -1.000000000000000000 ) ) ;
#237 = DIRECTION ( 'NONE',  ( 4.275831445896958607E-31, 1.000000000000000000, 1.224646799147353207E-16 ) ) ;
#238 = CONICAL_SURFACE ( 'NONE', #2, 1.499999999999996669, 0.1745329251994258979 ) ;
#239 = ADVANCED_FACE ( 'NONE', ( #3, #286 ), #120, .T. ) ;
#240 = DIRECTION ( 'NONE',  ( 1.000000000000000000, 0.0000000000000000000, 0.0000000000000000000 ) ) ;
#241 =( GEOMETRIC_REPRESENTATION_CONTEXT ( 3 ) GLOBAL_UNCERTAINTY_ASSIGNED_CONTEXT ( ( #159 ) ) GLOBAL_UNIT_ASSIGNED_CONTEXT ( ( #126, #5, #8 ) ) REPRESENTATION_CONTEXT ( 'NONE', 'WORKASPACE' ) );
#242 = APPROVAL ( #38, 'UNSPECIFIED' ) ;
#243 = PERSON_AND_ORGANIZATION_ROLE ( 'design_supplier' ) ;
#244 = ADVANCED_BREP_SHAPE_REPRESENTATION ( '327059', ( #181, #83, #64 ), #241 ) ;
#245 = ORIENTED_EDGE ( 'NONE', *, *, #287, .F. ) ;
#246 = CARTESIAN_POINT ( 'NONE',  ( 0.0000000000000000000, 0.0000000000000000000, 0.0000000000000000000 ) ) ;
#247 = PLANE ( 'NONE',  #297 ) ;
#248 = ADVANCED_FACE ( 'NONE', ( #216, #188 ), #97, .T. ) ;
#249 = DATE_AND_TIME ( #150, #152 ) ;
#250 = CARTESIAN_POINT ( 'NONE',  ( -5.829333207188907384E-31, 2.044654850056470066E-32, -1.669587387547199871E-16 ) ) ;
#251 = APPROVAL_PERSON_ORGANIZATION ( #79, #225, #262 ) ;
#252 = FACE_OUTER_BOUND ( 'NONE', #131, .T. ) ;
#253 = CARTESIAN_POINT ( 'NONE',  ( 2.883896417162832445E-14, -1.011534696479630343E-15, 8.259807621135337286 ) ) ;
#254 = CONICAL_SURFACE ( 'NONE', #215, 1.064999999999998836, 0.5235987755982925984 ) ;
#255 = ORIENTED_EDGE ( 'NONE', *, *, #190, .T. ) ;
#256 = DIRECTION ( 'NONE',  ( -3.491481338843133355E-15, 1.224646799147353207E-16, -1.000000000000000000 ) ) ;
#257 = CARTESIAN_POINT ( 'NONE',  ( 2.883896417162832445E-14, -1.011534696479630343E-15, 8.259807621135337286 ) ) ;
#258 = AXIS2_PLACEMENT_3D ( 'NONE', #208, #151, #108 ) ;
#259 = DIRECTION ( 'NONE',  ( 3.491481338843133355E-15, -1.224646799147353207E-16, 1.000000000000000000 ) ) ;
#260 = DIRECTION ( 'NONE',  ( 0.0000000000000000000, 1.000000000000000000, 0.0000000000000000000 ) ) ;
#261 = CARTESIAN_POINT ( 'NONE',  ( -2.914666603594453692E-31, 1.022327425028235033E-32, -8.347936937735999355E-17 ) ) ;
#262 = APPROVAL_ROLE ( '' ) ;
#263 = PERSON_AND_ORGANIZATION_ROLE ( 'creator' ) ;
#264 = LOCAL_TIME ( 15, 4, 5.000000000000000000, #104 ) ;
#265 = CARTESIAN_POINT ( 'NONE',  ( 2.793185071074506684E-14, 1.064999999999998836, 8.000000000000000000 ) ) ;
#266 = VERTEX_POINT ( 'NONE', #221 ) ;
#267 = CIRCLE ( 'NONE', #258, 0.9453844939755815524 ) ;
#268 = AXIS2_PLACEMENT_3D ( 'NONE', #210, #74, #158 ) ;
#269 = VERTEX_POINT ( 'NONE', #265 ) ;
#270 = ADVANCED_FACE ( 'NONE', ( #138 ), #235, .F. ) ;
#271 = SECURITY_CLASSIFICATION_LEVEL ( 'unclassified' ) ;
#272 = ORIENTED_EDGE ( 'NONE', *, *, #166, .T. ) ;
#273 = APPROVAL_ROLE ( '' ) ;
#274 = EDGE_LOOP ( 'NONE', ( #65 ) ) ;
#275 = ORIENTED_EDGE ( 'NONE', *, *, #287, .T. ) ;
#276 = FACE_OUTER_BOUND ( 'NONE', #228, .T. ) ;
#277 = EDGE_LOOP ( 'NONE', ( #123 ) ) ;
#278 = LOCAL_TIME ( 15, 4, 5.000000000000000000, #12 ) ;
#279 = PRODUCT ( '327059', '327059', '', ( #192 ) ) ;
#280 = PRODUCT_DEFINITION ( 'UNKNOWN', '', #182, #93 ) ;
#281 = CARTESIAN_POINT ( 'NONE',  ( 1.745740669421566678E-13, 8.998558695971067645E-33, 50.00000000000000000 ) ) ;
#282 = VERTEX_POINT ( 'NONE', #212 ) ;
#283 = AXIS2_PLACEMENT_3D ( 'NONE', #40, #67, #156 ) ;
#284 = CARTESIAN_POINT ( 'NONE',  ( 6.284666409917640040E-14, -2.204364238465235428E-15, 18.00000000000000000 ) ) ;
#285 = CARTESIAN_POINT ( 'NONE',  ( 2.793185071074506684E-14, 7.986220842674376161E-33, 8.000000000000000000 ) ) ;
#286 = FACE_OUTER_BOUND ( 'NONE', #14, .T. ) ;
#287 = EDGE_CURVE ( 'NONE', #103, #103, #132, .T. ) ;
#288 = APPROVAL_DATE_TIME ( #191, #23 ) ;
#289 = LOCAL_TIME ( 15, 4, 5.000000000000000000, #30 ) ;
#290 = PERSON_AND_ORGANIZATION ( #116, #106 ) ;
#291 = CIRCLE ( 'NONE', #155, 1.064999999999998836 ) ;
#292 = PRODUCT_RELATED_PRODUCT_CATEGORY ( 'detail', '', ( #279 ) ) ;
#293 = FACE_OUTER_BOUND ( 'NONE', #277, .T. ) ;
#294 = PERSON_AND_ORGANIZATION_ROLE ( 'classification_officer' ) ;
#295 = ORIENTED_EDGE ( 'NONE', *, *, #92, .T. ) ;
#296 = ORIENTED_EDGE ( 'NONE', *, *, #54, .T. ) ;
#297 = AXIS2_PLACEMENT_3D ( 'NONE', #112, #90, #299 ) ;
#298 = DIRECTION ( 'NONE',  ( 4.275831445896958607E-31, 1.000000000000000000, 1.224646799147352961E-16 ) ) ;
#299 = DIRECTION ( 'NONE',  ( -4.275831445896958607E-31, -1.000000000000000000, -1.224646799147353207E-16 ) ) ;
#300 = ADVANCED_FACE ( 'NONE', ( #94, #233 ), #199, .T. ) ;
#301 = DIRECTION ( 'NONE',  ( -4.275831445896958607E-31, -1.000000000000000000, -1.224646799147353207E-16 ) ) ;
#302 = LOCAL_TIME ( 15, 4, 5.000000000000000000, #82 ) ;
#303 = CARTESIAN_POINT ( 'NONE',  ( 2.883896417162832445E-14, 0.9149999999999978151, 8.259807621135337286 ) ) ;
ENDSEC;
END-ISO-10303-21;
