ISO-10303-21;
HEADER;
FILE_DESCRIPTION (( 'STEP AP203' ),
    '1' );
FILE_NAME ('327058.step',
    '2021-12-01T14:04:05',
    ( '' ),
    ( '' ),
    'SwSTEP 2.0',
    'SolidWorks 2019',
    '' );
FILE_SCHEMA (( 'CONFIG_CONTROL_DESIGN' ));
ENDSEC;

DATA;
#1 = DIRECTION ( 'NONE',  ( 3.651052027274384880E-31, 1.000000000000000000, 1.027679784346450859E-16 ) ) ;
#2 = ADVANCED_FACE ( 'NONE', ( #117, #46 ), #62, .F. ) ;
#3 = DIRECTION ( 'NONE',  ( -3.491481338843133355E-15, 1.224646799147353207E-16, -1.000000000000000000 ) ) ;
#4 = PLANE ( 'NONE',  #83 ) ;
#5 = DIRECTION ( 'NONE',  ( -3.491481338843133355E-15, 1.224646799147353207E-16, -1.000000000000000000 ) ) ;
#6 = AXIS2_PLACEMENT_3D ( 'NONE', #22, #185, #255 ) ;
#7 = VERTEX_POINT ( 'NONE', #47 ) ;
#8 = DATE_AND_TIME ( #66, #277 ) ;
#9 = APPROVAL_DATE_TIME ( #223, #147 ) ;
#10 = AXIS2_PLACEMENT_3D ( 'NONE', #78, #53, #172 ) ;
#11 = APPLICATION_PROTOCOL_DEFINITION ( 'international standard', 'config_control_design', 1994, #119 ) ;
#12 = DIRECTION ( 'NONE',  ( 0.0000000000000000000, 0.0000000000000000000, 1.000000000000000000 ) ) ;
#13 = EDGE_LOOP ( 'NONE', ( #243 ) ) ;
#14 = COORDINATED_UNIVERSAL_TIME_OFFSET ( 1, 0, .AHEAD. ) ;
#15 = CONICAL_SURFACE ( 'NONE', #247, 0.9049999999999988054, 0.5235987755982937086 ) ;
#16 = ADVANCED_FACE ( 'NONE', ( #164, #234 ), #280, .T. ) ;
#17 = EDGE_LOOP ( 'NONE', ( #156 ) ) ;
#18 = DIRECTION ( 'NONE',  ( 4.275831445896958607E-31, 1.000000000000000000, 1.224646799147353207E-16 ) ) ;
#19 = AXIS2_PLACEMENT_3D ( 'NONE', #169, #218, #287 ) ;
#20 = FACE_OUTER_BOUND ( 'NONE', #214, .T. ) ;
#21 = PERSON ( 'UNSPECIFIED', 'UNSPECIFIED', 'UNSPECIFIED', ('UNSPECIFIED'), ('UNSPECIFIED'), ('UNSPECIFIED') ) ;
#22 = CARTESIAN_POINT ( 'NONE',  ( 6.405924284287273902E-14, -2.246895775456748746E-15, 18.34729635533384240 ) ) ;
#23 = CARTESIAN_POINT ( 'NONE',  ( 6.284666409917640040E-14, -2.168404344971008868E-15, 18.00000000000000000 ) ) ;
#24 = LOCAL_TIME ( 15, 4, 5.000000000000000000, #228 ) ;
#25 = CARTESIAN_POINT ( 'NONE',  ( 7.523929308240570799E-14, 1.499999999999994005, 21.54939000972449037 ) ) ;
#26 = CC_DESIGN_PERSON_AND_ORGANIZATION_ASSIGNMENT ( #103, #292, ( #211 ) ) ;
#27 = CYLINDRICAL_SURFACE ( 'NONE', #106, 1.054999999999999494 ) ;
#28 = VERTEX_POINT ( 'NONE', #123 ) ;
#29 = VERTEX_POINT ( 'NONE', #240 ) ;
#30 =( LENGTH_UNIT ( ) NAMED_UNIT ( * ) SI_UNIT ( .MILLI., .METRE. ) );
#31 = COORDINATED_UNIVERSAL_TIME_OFFSET ( 1, 0, .AHEAD. ) ;
#32 = EDGE_LOOP ( 'NONE', ( #226 ) ) ;
#33 = APPROVAL_ROLE ( '' ) ;
#34 = CC_DESIGN_APPROVAL ( #134, ( #211 ) ) ;
#35 = EDGE_CURVE ( 'NONE', #262, #262, #82, .T. ) ;
#36 = EDGE_LOOP ( 'NONE', ( #189 ) ) ;
#37 = PERSON_AND_ORGANIZATION ( #21, #39 ) ;
#38 = EDGE_LOOP ( 'NONE', ( #296 ) ) ;
#39 = ORGANIZATION ( 'UNSPECIFIED', 'UNSPECIFIED', '' ) ;
#40 = DIRECTION ( 'NONE',  ( -4.275831445896958607E-31, -1.000000000000000000, -1.224646799147353207E-16 ) ) ;
#41 = DIRECTION ( 'NONE',  ( -3.491481338843133355E-15, 1.224646799147353207E-16, -1.000000000000000000 ) ) ;
#42 = ORIENTED_EDGE ( 'NONE', *, *, #128, .T. ) ;
#43 = AXIS2_PLACEMENT_3D ( 'NONE', #98, #194, #50 ) ;
#44 = PLANE ( 'NONE',  #229 ) ;
#45 = EDGE_CURVE ( 'NONE', #29, #29, #100, .T. ) ;
#46 = FACE_OUTER_BOUND ( 'NONE', #17, .T. ) ;
#47 = CARTESIAN_POINT ( 'NONE',  ( 1.745740669421566678E-13, 1.199999999999995515, 50.00000000000000000 ) ) ;
#48 = ADVANCED_FACE ( 'NONE', ( #91 ), #71, .F. ) ;
#49 = AXIS2_PLACEMENT_3D ( 'NONE', #193, #171, #74 ) ;
#50 = DIRECTION ( 'NONE',  ( 0.0000000000000000000, 1.000000000000000000, 0.0000000000000000000 ) ) ;
#51 = DIRECTION ( 'NONE',  ( -3.491481338843133355E-15, 1.224646799147353207E-16, -1.000000000000000000 ) ) ;
#52 = FACE_OUTER_BOUND ( 'NONE', #36, .T. ) ;
#53 = DIRECTION ( 'NONE',  ( -3.491481338843133355E-15, 1.224646799147353207E-16, -1.000000000000000000 ) ) ;
#54 = CIRCLE ( 'NONE', #259, 1.054999999999998828 ) ;
#55 = AXIS2_PLACEMENT_3D ( 'NONE', #276, #278, #40 ) ;
#56 = CC_DESIGN_PERSON_AND_ORGANIZATION_ASSIGNMENT ( #245, #131, ( #211 ) ) ;
#57 = DATE_AND_TIME ( #270, #69 ) ;
#58 = MANIFOLD_SOLID_BREP ( 'Corps-Déplacer/Copier1[1]', #282 ) ;
#59 = PERSON_AND_ORGANIZATION_ROLE ( 'creator' ) ;
#60 = EDGE_LOOP ( 'NONE', ( #208 ) ) ;
#61 = DATE_AND_TIME ( #135, #254 ) ;
#62 = TOROIDAL_SURFACE ( 'NONE', #215, 2.905000000000000249, 2.000000000000000000 ) ;
#63 = EDGE_LOOP ( 'NONE', ( #224 ) ) ;
#64 = MECHANICAL_CONTEXT ( 'NONE', #264, 'mechanical' ) ;
#65 = ORIENTED_EDGE ( 'NONE', *, *, #233, .T. ) ;
#66 = CALENDAR_DATE ( 2021, 1, 12 ) ;
#67 = CYLINDRICAL_SURFACE ( 'NONE', #125, 0.9049999999999993605 ) ;
#68 = AXIS2_PLACEMENT_3D ( 'NONE', #187, #281, #232 ) ;
#69 = LOCAL_TIME ( 15, 4, 5.000000000000000000, #175 ) ;
#70 = DIRECTION ( 'NONE',  ( 4.275831445896958607E-31, 1.000000000000000000, 1.224646799147353207E-16 ) ) ;
#71 = PLANE ( 'NONE',  #150 ) ;
#72 = ORIENTED_EDGE ( 'NONE', *, *, #128, .F. ) ;
#73 = DIRECTION ( 'NONE',  ( -4.275831445896958607E-31, -1.000000000000000000, -1.224646799147353207E-16 ) ) ;
#74 = DIRECTION ( 'NONE',  ( 0.0000000000000000000, -1.000000000000000000, 0.0000000000000000000 ) ) ;
#75 = PRODUCT_RELATED_PRODUCT_CATEGORY ( 'detail', '', ( #178 ) ) ;
#76 = DIRECTION ( 'NONE',  ( 0.0000000000000000000, 1.000000000000000000, 0.0000000000000000000 ) ) ;
#77 = DIRECTION ( 'NONE',  ( 4.275831445896958607E-31, 1.000000000000000000, 1.224646799147352961E-16 ) ) ;
#78 = CARTESIAN_POINT ( 'NONE',  ( 2.793185071074506684E-14, -9.797174393178825657E-16, 8.000000000000000000 ) ) ;
#79 = ADVANCED_FACE ( 'NONE', ( #212, #20 ), #67, .T. ) ;
#80 = CARTESIAN_POINT ( 'NONE',  ( 1.735266225405037467E-13, 1.499999999999995559, 49.70000000000000284 ) ) ;
#81 = PERSON_AND_ORGANIZATION ( #21, #39 ) ;
#82 = CIRCLE ( 'NONE', #273, 0.9049999999999988054 ) ;
#83 = AXIS2_PLACEMENT_3D ( 'NONE', #239, #268, #289 ) ;
#84 = EDGE_LOOP ( 'NONE', ( #251 ) ) ;
#85 = EDGE_CURVE ( 'NONE', #28, #28, #54, .T. ) ;
#86 = PERSON_AND_ORGANIZATION ( #21, #39 ) ;
#87 = CLOSED_SHELL ( 'NONE', ( #92, #124, #253, #111 ) ) ;
#88 = EDGE_LOOP ( 'NONE', ( #298 ) ) ;
#89 = DIRECTION ( 'NONE',  ( -4.275831445896958607E-31, -1.000000000000000000, -1.224646799147353207E-16 ) ) ;
#90 = AXIS2_PLACEMENT_3D ( 'NONE', #266, #51, #148 ) ;
#91 = FACE_OUTER_BOUND ( 'NONE', #84, .T. ) ;
#92 = ADVANCED_FACE ( 'NONE', ( #284 ), #44, .F. ) ;
#93 = DIRECTION ( 'NONE',  ( -3.491481338843133355E-15, 1.224646799147353207E-16, -1.000000000000000000 ) ) ;
#94 = ADVANCED_BREP_SHAPE_REPRESENTATION ( '327058', ( #58, #163, #216 ), #207 ) ;
#95 = DESIGN_CONTEXT ( 'detailed design', #119, 'design' ) ;
#96 = CARTESIAN_POINT ( 'NONE',  ( -1.946919533173387971E-31, 6.828874460741808607E-33, -5.576199166564871978E-17 ) ) ;
#97 = AXIS2_PLACEMENT_3D ( 'NONE', #300, #140, #162 ) ;
#98 = CARTESIAN_POINT ( 'NONE',  ( 2.793185071074506684E-14, -9.797174393178825657E-16, 8.000000000000000000 ) ) ;
#99 = DIRECTION ( 'NONE',  ( 0.0000000000000000000, 1.000000000000000000, 0.0000000000000000000 ) ) ;
#100 = CIRCLE ( 'NONE', #6, 0.9353844939755810994 ) ;
#101 = CARTESIAN_POINT ( 'NONE',  ( 8.552847072295026068E-47, 0.9106624327025946153, 0.0000000000000000000 ) ) ;
#102 = FACE_OUTER_BOUND ( 'NONE', #109, .T. ) ;
#103 = PERSON_AND_ORGANIZATION ( #21, #39 ) ;
#104 = SHAPE_DEFINITION_REPRESENTATION ( #184, #94 ) ;
#105 = EDGE_CURVE ( 'NONE', #219, #219, #269, .T. ) ;
#106 = AXIS2_PLACEMENT_3D ( 'NONE', #196, #5, #77 ) ;
#107 = PERSON_AND_ORGANIZATION_ROLE ( 'design_owner' ) ;
#108 = EDGE_LOOP ( 'NONE', ( #203 ) ) ;
#109 = EDGE_LOOP ( 'NONE', ( #65 ) ) ;
#110 = AXIS2_PLACEMENT_3D ( 'NONE', #263, #3, #220 ) ;
#111 = ADVANCED_FACE ( 'NONE', ( #235 ), #118, .T. ) ;
#112 = CARTESIAN_POINT ( 'NONE',  ( 8.728703347107829444E-16, -3.061616997868381785E-17, 0.2499999999999998890 ) ) ;
#113 = DIRECTION ( 'NONE',  ( -3.651052027274384880E-31, -1.000000000000000000, -1.027679784346450859E-16 ) ) ;
#114 = SECURITY_CLASSIFICATION ( '', '', #176 ) ;
#115 = UNCERTAINTY_MEASURE_WITH_UNIT (LENGTH_MEASURE( 1.000000000000000082E-05 ), #30, 'distance_accuracy_value', 'NONE');
#116 = DIRECTION ( 'NONE',  ( 0.0000000000000000000, 1.000000000000000000, 0.0000000000000000000 ) ) ;
#117 = FACE_OUTER_BOUND ( 'NONE', #201, .T. ) ;
#118 = PLANE ( 'NONE',  #55 ) ;
#119 = APPLICATION_CONTEXT ( 'configuration controlled 3d designs of mechanical parts and assemblies' ) ;
#120 = CC_DESIGN_APPROVAL ( #279, ( #139 ) ) ;
#121 = VERTEX_POINT ( 'NONE', #198 ) ;
#122 = FACE_OUTER_BOUND ( 'NONE', #60, .T. ) ;
#123 = CARTESIAN_POINT ( 'NONE',  ( 8.728703347107833388E-16, 1.054999999999998828, 0.2500000000000000000 ) ) ;
#124 = ADVANCED_FACE ( 'NONE', ( #138, #230 ), #225, .T. ) ;
#125 = AXIS2_PLACEMENT_3D ( 'NONE', #303, #260, #213 ) ;
#126 = CC_DESIGN_APPROVAL ( #147, ( #114 ) ) ;
#127 = FACE_BOUND ( 'NONE', #88, .T. ) ;
#128 = EDGE_CURVE ( 'NONE', #197, #197, #137, .T. ) ;
#129 = CALENDAR_DATE ( 2021, 1, 12 ) ;
#130 = LOCAL_TIME ( 15, 4, 5.000000000000000000, #31 ) ;
#131 = PERSON_AND_ORGANIZATION_ROLE ( 'design_supplier' ) ;
#132 = PERSON_AND_ORGANIZATION ( #21, #39 ) ;
#133 = EDGE_LOOP ( 'NONE', ( #158 ) ) ;
#134 = APPROVAL ( #249, 'UNSPECIFIED' ) ;
#135 = CALENDAR_DATE ( 2021, 1, 12 ) ;
#136 = AXIS2_PLACEMENT_3D ( 'NONE', #166, #261, #18 ) ;
#137 = CIRCLE ( 'NONE', #97, 0.9050000000000000266 ) ;
#138 = FACE_BOUND ( 'NONE', #293, .T. ) ;
#139 = PRODUCT_DEFINITION ( 'UNKNOWN', '', #211, #95 ) ;
#140 = DIRECTION ( 'NONE',  ( -3.491481338843133355E-15, 1.224646799147353207E-16, -1.000000000000000000 ) ) ;
#141 = CIRCLE ( 'NONE', #192, 1.500000000000001554 ) ;
#142 = EDGE_LOOP ( 'NONE', ( #299 ) ) ;
#143 = CARTESIAN_POINT ( 'NONE',  ( 8.728703347107829444E-16, -3.061616997868381785E-17, 0.2499999999999998890 ) ) ;
#144 = VERTEX_POINT ( 'NONE', #237 ) ;
#145 = CC_DESIGN_SECURITY_CLASSIFICATION ( #114, ( #211 ) ) ;
#146 = FACE_OUTER_BOUND ( 'NONE', #13, .T. ) ;
#147 = APPROVAL ( #242, 'UNSPECIFIED' ) ;
#148 = DIRECTION ( 'NONE',  ( 0.0000000000000000000, 1.000000000000000000, 0.0000000000000000000 ) ) ;
#149 = CARTESIAN_POINT ( 'NONE',  ( 2.883896417162832445E-14, 0.9049999999999978062, 8.259807621135337286 ) ) ;
#150 = AXIS2_PLACEMENT_3D ( 'NONE', #258, #188, #89 ) ;
#151 = AXIS2_PLACEMENT_3D ( 'NONE', #112, #209, #113 ) ;
#152 = PERSON_AND_ORGANIZATION ( #21, #39 ) ;
#153 = APPROVAL_ROLE ( '' ) ;
#154 = EDGE_LOOP ( 'NONE', ( #246 ) ) ;
#155 = CIRCLE ( 'NONE', #90, 1.499999999999996669 ) ;
#156 = ORIENTED_EDGE ( 'NONE', *, *, #45, .T. ) ;
#157 = PERSON_AND_ORGANIZATION ( #21, #39 ) ;
#158 = ORIENTED_EDGE ( 'NONE', *, *, #170, .T. ) ;
#159 =( NAMED_UNIT ( * ) SI_UNIT ( $, .STERADIAN. ) SOLID_ANGLE_UNIT ( ) );
#160 = EDGE_LOOP ( 'NONE', ( #177 ) ) ;
#161 = CIRCLE ( 'NONE', #10, 1.054999999999999938 ) ;
#162 = DIRECTION ( 'NONE',  ( 0.0000000000000000000, 1.000000000000000000, 0.0000000000000000000 ) ) ;
#163 = MANIFOLD_SOLID_BREP ( 'Corps-Déplacer/Copier1[2]', #87 ) ;
#164 = FACE_OUTER_BOUND ( 'NONE', #63, .T. ) ;
#165 = CARTESIAN_POINT ( 'NONE',  ( 2.883896417162832445E-14, -1.011534696479630343E-15, 8.259807621135337286 ) ) ;
#166 = CARTESIAN_POINT ( 'NONE',  ( -3.893839066346775943E-31, 1.365774892148361721E-32, -1.115239833312974396E-16 ) ) ;
#167 = ADVANCED_FACE ( 'NONE', ( #231, #210 ), #183, .T. ) ;
#168 = FACE_BOUND ( 'NONE', #32, .T. ) ;
#169 = CARTESIAN_POINT ( 'NONE',  ( 1.745740669421566678E-13, -6.123233995736766085E-15, 50.00000000000000000 ) ) ;
#170 = EDGE_CURVE ( 'NONE', #7, #7, #248, .T. ) ;
#171 = DIRECTION ( 'NONE',  ( 3.491481338843133355E-15, -1.224646799147353207E-16, 1.000000000000000000 ) ) ;
#172 = DIRECTION ( 'NONE',  ( 0.0000000000000000000, 1.000000000000000000, 0.0000000000000000000 ) ) ;
#173 = VERTEX_POINT ( 'NONE', #25 ) ;
#174 = CONICAL_SURFACE ( 'NONE', #49, 1.499999999999996669, 0.1745329251994261199 ) ;
#175 = COORDINATED_UNIVERSAL_TIME_OFFSET ( 1, 0, .AHEAD. ) ;
#176 = SECURITY_CLASSIFICATION_LEVEL ( 'unclassified' ) ;
#177 = ORIENTED_EDGE ( 'NONE', *, *, #105, .T. ) ;
#178 = PRODUCT ( '327058', '327058', '', ( #64 ) ) ;
#179 = APPROVAL_STATUS ( 'not_yet_approved' ) ;
#180 = ORIENTED_EDGE ( 'NONE', *, *, #105, .F. ) ;
#181 = CC_DESIGN_PERSON_AND_ORGANIZATION_ASSIGNMENT ( #81, #295, ( #114 ) ) ;
#182 = DATE_TIME_ROLE ( 'classification_date' ) ;
#183 = CONICAL_SURFACE ( 'NONE', #110, 1.200000000000001732, 0.7853981633974453924 ) ;
#184 = PRODUCT_DEFINITION_SHAPE ( 'NONE', 'NONE',  #139 ) ;
#185 = DIRECTION ( 'NONE',  ( -3.491481338843133355E-15, 1.224646799147353207E-16, -1.000000000000000000 ) ) ;
#186 = CC_DESIGN_PERSON_AND_ORGANIZATION_ASSIGNMENT ( #132, #59, ( #139 ) ) ;
#187 = CARTESIAN_POINT ( 'NONE',  ( 0.0000000000000000000, 0.0000000000000000000, 0.0000000000000000000 ) ) ;
#188 = DIRECTION ( 'NONE',  ( 3.491481338843133355E-15, -1.224646799147353207E-16, 1.000000000000000000 ) ) ;
#189 = ORIENTED_EDGE ( 'NONE', *, *, #301, .T. ) ;
#190 = EDGE_CURVE ( 'NONE', #121, #121, #283, .T. ) ;
#191 = DIRECTION ( 'NONE',  ( 3.491481338843133355E-15, -1.224646799147353207E-16, 1.000000000000000000 ) ) ;
#192 = AXIS2_PLACEMENT_3D ( 'NONE', #267, #222, #99 ) ;
#193 = CARTESIAN_POINT ( 'NONE',  ( 7.523929308240570799E-14, -2.639039149898704481E-15, 21.54939000972449037 ) ) ;
#194 = DIRECTION ( 'NONE',  ( -3.491481338843133355E-15, 1.224646799147353207E-16, -1.000000000000000000 ) ) ;
#195 = CC_DESIGN_PERSON_AND_ORGANIZATION_ASSIGNMENT ( #157, #107, ( #178 ) ) ;
#196 = CARTESIAN_POINT ( 'NONE',  ( 0.0000000000000000000, 0.0000000000000000000, 0.0000000000000000000 ) ) ;
#197 = VERTEX_POINT ( 'NONE', #217 ) ;
#198 = CARTESIAN_POINT ( 'NONE',  ( 2.793185071074506684E-14, 1.054999999999998828, 8.000000000000000000 ) ) ;
#199 = APPROVAL_PERSON_ORGANIZATION ( #86, #134, #153 ) ;
#200 = DIRECTION ( 'NONE',  ( 1.000000000000000000, 0.0000000000000000000, 0.0000000000000000000 ) ) ;
#201 = EDGE_LOOP ( 'NONE', ( #72 ) ) ;
#202 = APPROVAL_DATE_TIME ( #8, #134 ) ;
#203 = ORIENTED_EDGE ( 'NONE', *, *, #233, .F. ) ;
#204 = ADVANCED_FACE ( 'NONE', ( #286, #168 ), #15, .T. ) ;
#205 = APPROVAL_DATE_TIME ( #61, #279 ) ;
#206 = CALENDAR_DATE ( 2021, 1, 12 ) ;
#207 =( GEOMETRIC_REPRESENTATION_CONTEXT ( 3 ) GLOBAL_UNCERTAINTY_ASSIGNED_CONTEXT ( ( #115 ) ) GLOBAL_UNIT_ASSIGNED_CONTEXT ( ( #30, #271, #159 ) ) REPRESENTATION_CONTEXT ( 'NONE', 'WORKASPACE' ) );
#208 = ORIENTED_EDGE ( 'NONE', *, *, #85, .F. ) ;
#209 = DIRECTION ( 'NONE',  ( 3.491481338843133355E-15, -1.224646799147353207E-16, 1.000000000000000000 ) ) ;
#210 = FACE_BOUND ( 'NONE', #133, .T. ) ;
#211 = PRODUCT_DEFINITION_FORMATION_WITH_SPECIFIED_SOURCE ( 'ANY', '', #178, .NOT_KNOWN. ) ;
#212 = FACE_OUTER_BOUND ( 'NONE', #154, .T. ) ;
#213 = DIRECTION ( 'NONE',  ( 4.275831445896957731E-31, 1.000000000000000000, 1.224646799147353207E-16 ) ) ;
#214 = EDGE_LOOP ( 'NONE', ( #42 ) ) ;
#215 = AXIS2_PLACEMENT_3D ( 'NONE', #23, #93, #70 ) ;
#216 = AXIS2_PLACEMENT_3D ( 'NONE', #252, #12, #200 ) ;
#217 = CARTESIAN_POINT ( 'NONE',  ( 6.284666409917640040E-14, 0.9049999999999978062, 18.00000000000000000 ) ) ;
#218 = DIRECTION ( 'NONE',  ( -3.491481338843133355E-15, 1.224646799147353207E-16, -1.000000000000000000 ) ) ;
#219 = VERTEX_POINT ( 'NONE', #101 ) ;
#220 = DIRECTION ( 'NONE',  ( 0.0000000000000000000, 1.000000000000000000, 0.0000000000000000000 ) ) ;
#221 = ADVANCED_FACE ( 'NONE', ( #146 ), #4, .F. ) ;
#222 = DIRECTION ( 'NONE',  ( -3.491481338843133355E-15, 1.224646799147353207E-16, -1.000000000000000000 ) ) ;
#223 = DATE_AND_TIME ( #129, #130 ) ;
#224 = ORIENTED_EDGE ( 'NONE', *, *, #301, .F. ) ;
#225 = CONICAL_SURFACE ( 'NONE', #151, 1.054999999999998828, 0.5235987755982923764 ) ;
#226 = ORIENTED_EDGE ( 'NONE', *, *, #35, .T. ) ;
#227 = EDGE_LOOP ( 'NONE', ( #274 ) ) ;
#228 = COORDINATED_UNIVERSAL_TIME_OFFSET ( 1, 0, .AHEAD. ) ;
#229 = AXIS2_PLACEMENT_3D ( 'NONE', #96, #191, #73 ) ;
#230 = FACE_OUTER_BOUND ( 'NONE', #38, .T. ) ;
#231 = FACE_OUTER_BOUND ( 'NONE', #227, .T. ) ;
#232 = DIRECTION ( 'NONE',  ( 4.275831445896958607E-31, 1.000000000000000000, 1.224646799147353454E-16 ) ) ;
#233 = EDGE_CURVE ( 'NONE', #144, #144, #161, .T. ) ;
#234 = FACE_OUTER_BOUND ( 'NONE', #142, .T. ) ;
#235 = FACE_OUTER_BOUND ( 'NONE', #108, .T. ) ;
#236 = CC_DESIGN_DATE_AND_TIME_ASSIGNMENT ( #294, #297, ( #139 ) ) ;
#237 = CARTESIAN_POINT ( 'NONE',  ( 2.793185071074506684E-14, 1.054999999999998828, 8.000000000000000000 ) ) ;
#238 = APPROVAL_PERSON_ORGANIZATION ( #152, #147, #33 ) ;
#239 = CARTESIAN_POINT ( 'NONE',  ( 1.745740669421566678E-13, 8.998558695971067645E-33, 50.00000000000000000 ) ) ;
#240 = CARTESIAN_POINT ( 'NONE',  ( 6.405924284287273902E-14, 0.9353844939755787680, 18.34729635533384240 ) ) ;
#241 = CARTESIAN_POINT ( 'NONE',  ( 2.883896417162832445E-14, -1.011534696479630343E-15, 8.259807621135337286 ) ) ;
#242 = APPROVAL_STATUS ( 'not_yet_approved' ) ;
#243 = ORIENTED_EDGE ( 'NONE', *, *, #170, .F. ) ;
#244 = EDGE_CURVE ( 'NONE', #290, #290, #141, .T. ) ;
#245 = PERSON_AND_ORGANIZATION ( #21, #39 ) ;
#246 = ORIENTED_EDGE ( 'NONE', *, *, #35, .F. ) ;
#247 = AXIS2_PLACEMENT_3D ( 'NONE', #241, #285, #76 ) ;
#248 = CIRCLE ( 'NONE', #19, 1.200000000000001732 ) ;
#249 = APPROVAL_STATUS ( 'not_yet_approved' ) ;
#250 = APPROVAL_ROLE ( '' ) ;
#251 = ORIENTED_EDGE ( 'NONE', *, *, #190, .T. ) ;
#252 = CARTESIAN_POINT ( 'NONE',  ( 0.0000000000000000000, 0.0000000000000000000, 0.0000000000000000000 ) ) ;
#253 = ADVANCED_FACE ( 'NONE', ( #122, #102 ), #27, .T. ) ;
#254 = LOCAL_TIME ( 15, 4, 5.000000000000000000, #14 ) ;
#255 = DIRECTION ( 'NONE',  ( 0.0000000000000000000, 1.000000000000000000, 0.0000000000000000000 ) ) ;
#256 = EDGE_LOOP ( 'NONE', ( #272 ) ) ;
#257 = CC_DESIGN_DATE_AND_TIME_ASSIGNMENT ( #57, #182, ( #114 ) ) ;
#258 = CARTESIAN_POINT ( 'NONE',  ( 2.793185071074506684E-14, 7.911232853541282734E-33, 8.000000000000000000 ) ) ;
#259 = AXIS2_PLACEMENT_3D ( 'NONE', #143, #41, #1 ) ;
#260 = DIRECTION ( 'NONE',  ( -3.491481338843133355E-15, 1.224646799147353207E-16, -1.000000000000000000 ) ) ;
#261 = DIRECTION ( 'NONE',  ( -3.491481338843133355E-15, 1.224646799147353207E-16, -1.000000000000000000 ) ) ;
#262 = VERTEX_POINT ( 'NONE', #149 ) ;
#263 = CARTESIAN_POINT ( 'NONE',  ( 1.745740669421566678E-13, -6.123233995736766085E-15, 50.00000000000000000 ) ) ;
#264 = APPLICATION_CONTEXT ( 'configuration controlled 3d designs of mechanical parts and assemblies' ) ;
#265 = APPROVAL_PERSON_ORGANIZATION ( #37, #279, #250 ) ;
#266 = CARTESIAN_POINT ( 'NONE',  ( 7.523929308240570799E-14, -2.639039149898704481E-15, 21.54939000972449037 ) ) ;
#267 = CARTESIAN_POINT ( 'NONE',  ( 1.735266225405037467E-13, -6.086494591762345225E-15, 49.70000000000000284 ) ) ;
#268 = DIRECTION ( 'NONE',  ( -3.491481338843133355E-15, 1.224646799147353207E-16, -1.000000000000000000 ) ) ;
#269 = CIRCLE ( 'NONE', #136, 0.9106624327025946153 ) ;
#270 = CALENDAR_DATE ( 2021, 1, 12 ) ;
#271 =( NAMED_UNIT ( * ) PLANE_ANGLE_UNIT ( ) SI_UNIT ( $, .RADIAN. ) );
#272 = ORIENTED_EDGE ( 'NONE', *, *, #190, .F. ) ;
#273 = AXIS2_PLACEMENT_3D ( 'NONE', #165, #302, #116 ) ;
#274 = ORIENTED_EDGE ( 'NONE', *, *, #244, .F. ) ;
#275 = COORDINATED_UNIVERSAL_TIME_OFFSET ( 1, 0, .AHEAD. ) ;
#276 = CARTESIAN_POINT ( 'NONE',  ( 2.793185071074506684E-14, 7.911232853541282734E-33, 8.000000000000000000 ) ) ;
#277 = LOCAL_TIME ( 15, 4, 5.000000000000000000, #275 ) ;
#278 = DIRECTION ( 'NONE',  ( 3.491481338843133355E-15, -1.224646799147353207E-16, 1.000000000000000000 ) ) ;
#279 = APPROVAL ( #179, 'UNSPECIFIED' ) ;
#280 = CYLINDRICAL_SURFACE ( 'NONE', #68, 1.499999999999999112 ) ;
#281 = DIRECTION ( 'NONE',  ( -3.491481338843133355E-15, 1.224646799147353207E-16, -1.000000000000000000 ) ) ;
#282 = CLOSED_SHELL ( 'NONE', ( #48, #204, #79, #2, #288, #16, #167, #221 ) ) ;
#283 = CIRCLE ( 'NONE', #43, 1.054999999999999938 ) ;
#284 = FACE_OUTER_BOUND ( 'NONE', #160, .T. ) ;
#285 = DIRECTION ( 'NONE',  ( -3.491481338843133355E-15, 1.224646799147353207E-16, -1.000000000000000000 ) ) ;
#286 = FACE_OUTER_BOUND ( 'NONE', #256, .T. ) ;
#287 = DIRECTION ( 'NONE',  ( 0.0000000000000000000, 1.000000000000000000, 0.0000000000000000000 ) ) ;
#288 = ADVANCED_FACE ( 'NONE', ( #127, #52 ), #174, .T. ) ;
#289 = DIRECTION ( 'NONE',  ( 4.275831445896958607E-31, 1.000000000000000000, 1.224646799147353207E-16 ) ) ;
#290 = VERTEX_POINT ( 'NONE', #80 ) ;
#291 = APPLICATION_PROTOCOL_DEFINITION ( 'international standard', 'config_control_design', 1994, #264 ) ;
#292 = PERSON_AND_ORGANIZATION_ROLE ( 'creator' ) ;
#293 = EDGE_LOOP ( 'NONE', ( #180 ) ) ;
#294 = DATE_AND_TIME ( #206, #24 ) ;
#295 = PERSON_AND_ORGANIZATION_ROLE ( 'classification_officer' ) ;
#296 = ORIENTED_EDGE ( 'NONE', *, *, #85, .T. ) ;
#297 = DATE_TIME_ROLE ( 'creation_date' ) ;
#298 = ORIENTED_EDGE ( 'NONE', *, *, #45, .F. ) ;
#299 = ORIENTED_EDGE ( 'NONE', *, *, #244, .T. ) ;
#300 = CARTESIAN_POINT ( 'NONE',  ( 6.284666409917640040E-14, -2.204364238465235428E-15, 18.00000000000000000 ) ) ;
#301 = EDGE_CURVE ( 'NONE', #173, #173, #155, .T. ) ;
#302 = DIRECTION ( 'NONE',  ( -3.491481338843133355E-15, 1.224646799147353207E-16, -1.000000000000000000 ) ) ;
#303 = CARTESIAN_POINT ( 'NONE',  ( 0.0000000000000000000, 0.0000000000000000000, 0.0000000000000000000 ) ) ;
ENDSEC;
END-ISO-10303-21;
