ISO-10303-21;
HEADER;
FILE_DESCRIPTION (( 'STEP AP203' ),
    '1' );
FILE_NAME ('327057.step',
    '2021-12-01T14:04:04',
    ( '' ),
    ( '' ),
    'SwSTEP 2.0',
    'SolidWorks 2019',
    '' );
FILE_SCHEMA (( 'CONFIG_CONTROL_DESIGN' ));
ENDSEC;

DATA;
#1 = PERSON_AND_ORGANIZATION ( #25, #118 ) ;
#2 = AXIS2_PLACEMENT_3D ( 'NONE', #271, #61, #38 ) ;
#3 =( NAMED_UNIT ( * ) PLANE_ANGLE_UNIT ( ) SI_UNIT ( $, .RADIAN. ) );
#4 = APPROVAL ( #216, 'UNSPECIFIED' ) ;
#5 = DIRECTION ( 'NONE',  ( 3.491481338843133355E-15, -1.224646799147353207E-16, 1.000000000000000000 ) ) ;
#6 = CARTESIAN_POINT ( 'NONE',  ( 0.0000000000000000000, 0.0000000000000000000, 0.0000000000000000000 ) ) ;
#7 = CLOSED_SHELL ( 'NONE', ( #155, #35, #67, #89 ) ) ;
#8 = EDGE_LOOP ( 'NONE', ( #51 ) ) ;
#9 = DIRECTION ( 'NONE',  ( 0.0000000000000000000, 1.000000000000000000, 0.0000000000000000000 ) ) ;
#10 = PRODUCT_RELATED_PRODUCT_CATEGORY ( 'detail', '', ( #288 ) ) ;
#11 = DIRECTION ( 'NONE',  ( -3.491481338843133355E-15, 1.224646799147353207E-16, -1.000000000000000000 ) ) ;
#12 = VERTEX_POINT ( 'NONE', #82 ) ;
#13 = CARTESIAN_POINT ( 'NONE',  ( 2.793185071074506684E-14, -9.797174393178825657E-16, 8.000000000000000000 ) ) ;
#14 = DIRECTION ( 'NONE',  ( 0.0000000000000000000, 1.000000000000000000, 0.0000000000000000000 ) ) ;
#15 = PLANE ( 'NONE',  #221 ) ;
#16 = LOCAL_TIME ( 15, 4, 4.000000000000000000, #208 ) ;
#17 = ADVANCED_FACE ( 'NONE', ( #149, #54 ), #168, .T. ) ;
#18 = VERTEX_POINT ( 'NONE', #220 ) ;
#19 = PERSON_AND_ORGANIZATION ( #25, #118 ) ;
#20 = DATE_TIME_ROLE ( 'classification_date' ) ;
#21 = EDGE_LOOP ( 'NONE', ( #75 ) ) ;
#22 = TOROIDAL_SURFACE ( 'NONE', #211, 2.890000000000000124, 2.000000000000000000 ) ;
#23 = CC_DESIGN_SECURITY_CLASSIFICATION ( #201, ( #184 ) ) ;
#24 = CALENDAR_DATE ( 2021, 1, 12 ) ;
#25 = PERSON ( 'UNSPECIFIED', 'UNSPECIFIED', 'UNSPECIFIED', ('UNSPECIFIED'), ('UNSPECIFIED'), ('UNSPECIFIED') ) ;
#26 = CALENDAR_DATE ( 2021, 1, 12 ) ;
#27 = APPROVAL_PERSON_ORGANIZATION ( #300, #237, #88 ) ;
#28 = FACE_OUTER_BOUND ( 'NONE', #281, .T. ) ;
#29 = DIRECTION ( 'NONE',  ( -3.703711431513918201E-31, -1.000000000000000000, -1.042502088928370520E-16 ) ) ;
#30 = FACE_OUTER_BOUND ( 'NONE', #163, .T. ) ;
#31 = CONICAL_SURFACE ( 'NONE', #265, 1.200000000000001732, 0.7853981633974453924 ) ;
#32 = FACE_OUTER_BOUND ( 'NONE', #8, .T. ) ;
#33 = EDGE_LOOP ( 'NONE', ( #207 ) ) ;
#34 = FACE_BOUND ( 'NONE', #287, .T. ) ;
#35 = ADVANCED_FACE ( 'NONE', ( #57, #190 ), #284, .T. ) ;
#36 = VERTEX_POINT ( 'NONE', #222 ) ;
#37 = CONICAL_SURFACE ( 'NONE', #62, 0.8899999999999989031, 0.5235987755982940417 ) ;
#38 = DIRECTION ( 'NONE',  ( 0.0000000000000000000, 1.000000000000000000, 0.0000000000000000000 ) ) ;
#39 = CARTESIAN_POINT ( 'NONE',  ( 0.0000000000000000000, 0.0000000000000000000, 0.0000000000000000000 ) ) ;
#40 = DIRECTION ( 'NONE',  ( -3.491481338843133355E-15, 1.224646799147353207E-16, -1.000000000000000000 ) ) ;
#41 = EDGE_CURVE ( 'NONE', #249, #249, #90, .T. ) ;
#42 = PERSON_AND_ORGANIZATION ( #25, #118 ) ;
#43 = DESIGN_CONTEXT ( 'detailed design', #215, 'design' ) ;
#44 = EDGE_CURVE ( 'NONE', #18, #18, #245, .T. ) ;
#45 = APPLICATION_PROTOCOL_DEFINITION ( 'international standard', 'config_control_design', 1994, #64 ) ;
#46 = ORIENTED_EDGE ( 'NONE', *, *, #289, .T. ) ;
#47 = APPROVAL_PERSON_ORGANIZATION ( #280, #4, #169 ) ;
#48 = CALENDAR_DATE ( 2021, 1, 12 ) ;
#49 = ORIENTED_EDGE ( 'NONE', *, *, #252, .F. ) ;
#50 = CC_DESIGN_DATE_AND_TIME_ASSIGNMENT ( #182, #302, ( #127 ) ) ;
#51 = ORIENTED_EDGE ( 'NONE', *, *, #143, .T. ) ;
#52 = CIRCLE ( 'NONE', #214, 1.200000000000001732 ) ;
#53 = CARTESIAN_POINT ( 'NONE',  ( -3.829701594658323114E-31, 1.343278495408434240E-32, -1.096870131325764385E-16 ) ) ;
#54 = FACE_OUTER_BOUND ( 'NONE', #59, .T. ) ;
#55 = SHAPE_DEFINITION_REPRESENTATION ( #242, #114 ) ;
#56 = MANIFOLD_SOLID_BREP ( 'Corps-Déplacer/Copier1[1]', #96 ) ;
#57 = FACE_BOUND ( 'NONE', #115, .T. ) ;
#58 = AXIS2_PLACEMENT_3D ( 'NONE', #119, #146, #79 ) ;
#59 = EDGE_LOOP ( 'NONE', ( #92 ) ) ;
#60 = CARTESIAN_POINT ( 'NONE',  ( 6.284666409917640040E-14, -2.204364238465235428E-15, 18.00000000000000000 ) ) ;
#61 = DIRECTION ( 'NONE',  ( -3.491481338843133355E-15, 1.224646799147353207E-16, -1.000000000000000000 ) ) ;
#62 = AXIS2_PLACEMENT_3D ( 'NONE', #223, #152, #226 ) ;
#63 = DIRECTION ( 'NONE',  ( -3.491481338843133355E-15, 1.224646799147353207E-16, -1.000000000000000000 ) ) ;
#64 = APPLICATION_CONTEXT ( 'configuration controlled 3d designs of mechanical parts and assemblies' ) ;
#65 = FACE_BOUND ( 'NONE', #185, .T. ) ;
#66 = FACE_OUTER_BOUND ( 'NONE', #171, .T. ) ;
#67 = ADVANCED_FACE ( 'NONE', ( #28, #32 ), #218, .T. ) ;
#68 = LOCAL_TIME ( 15, 4, 4.000000000000000000, #100 ) ;
#69 = PERSON_AND_ORGANIZATION ( #25, #118 ) ;
#70 = PERSON_AND_ORGANIZATION_ROLE ( 'design_owner' ) ;
#71 = ORIENTED_EDGE ( 'NONE', *, *, #78, .F. ) ;
#72 = EDGE_LOOP ( 'NONE', ( #71 ) ) ;
#73 = EDGE_CURVE ( 'NONE', #12, #12, #109, .T. ) ;
#74 = EDGE_LOOP ( 'NONE', ( #286 ) ) ;
#75 = ORIENTED_EDGE ( 'NONE', *, *, #197, .F. ) ;
#76 = AXIS2_PLACEMENT_3D ( 'NONE', #98, #188, #29 ) ;
#77 = CARTESIAN_POINT ( 'NONE',  ( 8.728703347107829444E-16, -3.061616997868381785E-17, 0.2499999999999998890 ) ) ;
#78 = EDGE_CURVE ( 'NONE', #175, #175, #189, .T. ) ;
#79 = DIRECTION ( 'NONE',  ( 4.275831445896958607E-31, 1.000000000000000000, 1.224646799147353454E-16 ) ) ;
#80 = CIRCLE ( 'NONE', #297, 0.8899999999999989031 ) ;
#81 = DIRECTION ( 'NONE',  ( 4.275831445896958607E-31, 1.000000000000000000, 1.224646799147353207E-16 ) ) ;
#82 = CARTESIAN_POINT ( 'NONE',  ( 8.728703347107833388E-16, 1.039999999999999147, 0.2500000000000000000 ) ) ;
#83 = VERTEX_POINT ( 'NONE', #206 ) ;
#84 = AXIS2_PLACEMENT_3D ( 'NONE', #39, #111, #128 ) ;
#85 = FACE_OUTER_BOUND ( 'NONE', #301, .T. ) ;
#86 = CARTESIAN_POINT ( 'NONE',  ( 1.735266225405037467E-13, -6.086494591762345225E-15, 49.70000000000000284 ) ) ;
#87 = CARTESIAN_POINT ( 'NONE',  ( 1.745740669421566678E-13, 8.998558695971067645E-33, 50.00000000000000000 ) ) ;
#88 = APPROVAL_ROLE ( '' ) ;
#89 = ADVANCED_FACE ( 'NONE', ( #102 ), #261, .T. ) ;
#90 = CIRCLE ( 'NONE', #205, 0.8956624327025948240 ) ;
#91 = DATE_AND_TIME ( #24, #156 ) ;
#92 = ORIENTED_EDGE ( 'NONE', *, *, #78, .T. ) ;
#93 = PERSON_AND_ORGANIZATION_ROLE ( 'creator' ) ;
#94 = UNCERTAINTY_MEASURE_WITH_UNIT (LENGTH_MEASURE( 1.000000000000000082E-05 ), #273, 'distance_accuracy_value', 'NONE');
#95 = DATE_AND_TIME ( #26, #164 ) ;
#96 = CLOSED_SHELL ( 'NONE', ( #283, #140, #103, #99, #17, #248, #219, #270 ) ) ;
#97 = EDGE_LOOP ( 'NONE', ( #49 ) ) ;
#98 = CARTESIAN_POINT ( 'NONE',  ( 8.728703347107829444E-16, -3.061616997868381785E-17, 0.2499999999999998890 ) ) ;
#99 = ADVANCED_FACE ( 'NONE', ( #30, #145 ), #22, .F. ) ;
#100 = COORDINATED_UNIVERSAL_TIME_OFFSET ( 1, 0, .AHEAD. ) ;
#101 = ORIENTED_EDGE ( 'NONE', *, *, #131, .T. ) ;
#102 = FACE_OUTER_BOUND ( 'NONE', #33, .T. ) ;
#103 = ADVANCED_FACE ( 'NONE', ( #120, #193 ), #172, .T. ) ;
#104 = DIRECTION ( 'NONE',  ( 4.275831445896959482E-31, 1.000000000000000000, 1.224646799147353207E-16 ) ) ;
#105 = DIRECTION ( 'NONE',  ( -3.491481338843133355E-15, 1.224646799147353207E-16, -1.000000000000000000 ) ) ;
#106 = VERTEX_POINT ( 'NONE', #198 ) ;
#107 = DIRECTION ( 'NONE',  ( 0.0000000000000000000, 1.000000000000000000, 0.0000000000000000000 ) ) ;
#108 = CC_DESIGN_PERSON_AND_ORGANIZATION_ASSIGNMENT ( #69, #133, ( #201 ) ) ;
#109 = CIRCLE ( 'NONE', #194, 1.039999999999999147 ) ;
#110 = DIRECTION ( 'NONE',  ( -3.491481338843133355E-15, 1.224646799147353207E-16, -1.000000000000000000 ) ) ;
#111 = DIRECTION ( 'NONE',  ( -3.491481338843133355E-15, 1.224646799147353207E-16, -1.000000000000000000 ) ) ;
#112 = CC_DESIGN_PERSON_AND_ORGANIZATION_ASSIGNMENT ( #209, #70, ( #288 ) ) ;
#113 = PERSON_AND_ORGANIZATION_ROLE ( 'creator' ) ;
#114 = ADVANCED_BREP_SHAPE_REPRESENTATION ( '327057', ( #56, #256, #162 ), #173 ) ;
#115 = EDGE_LOOP ( 'NONE', ( #258 ) ) ;
#116 = DIRECTION ( 'NONE',  ( 0.0000000000000000000, 0.0000000000000000000, 1.000000000000000000 ) ) ;
#117 = EDGE_LOOP ( 'NONE', ( #285 ) ) ;
#118 = ORGANIZATION ( 'UNSPECIFIED', 'UNSPECIFIED', '' ) ;
#119 = CARTESIAN_POINT ( 'NONE',  ( 0.0000000000000000000, 0.0000000000000000000, 0.0000000000000000000 ) ) ;
#120 = FACE_OUTER_BOUND ( 'NONE', #74, .T. ) ;
#121 = DIRECTION ( 'NONE',  ( 0.0000000000000000000, 1.000000000000000000, 0.0000000000000000000 ) ) ;
#122 = DIRECTION ( 'NONE',  ( 3.703711431513918201E-31, 1.000000000000000000, 1.042502088928370520E-16 ) ) ;
#123 = CARTESIAN_POINT ( 'NONE',  ( 6.284666409917640040E-14, -2.168404344971008868E-15, 18.00000000000000000 ) ) ;
#124 = DIRECTION ( 'NONE',  ( -3.491481338843133355E-15, 1.224646799147353207E-16, -1.000000000000000000 ) ) ;
#125 = DIRECTION ( 'NONE',  ( -4.275831445896958607E-31, -1.000000000000000000, -1.224646799147353207E-16 ) ) ;
#126 = DIRECTION ( 'NONE',  ( -4.275831445896958607E-31, -1.000000000000000000, -1.224646799147353207E-16 ) ) ;
#127 = PRODUCT_DEFINITION ( 'UNKNOWN', '', #184, #43 ) ;
#128 = DIRECTION ( 'NONE',  ( 4.275831445896958607E-31, 1.000000000000000000, 1.224646799147353454E-16 ) ) ;
#129 = AXIS2_PLACEMENT_3D ( 'NONE', #13, #40, #130 ) ;
#130 = DIRECTION ( 'NONE',  ( 0.0000000000000000000, 1.000000000000000000, 0.0000000000000000000 ) ) ;
#131 = EDGE_CURVE ( 'NONE', #151, #151, #260, .T. ) ;
#132 = APPROVAL_STATUS ( 'not_yet_approved' ) ;
#133 = PERSON_AND_ORGANIZATION_ROLE ( 'classification_officer' ) ;
#134 = ORIENTED_EDGE ( 'NONE', *, *, #295, .T. ) ;
#135 = MECHANICAL_CONTEXT ( 'NONE', #64, 'mechanical' ) ;
#136 = AXIS2_PLACEMENT_3D ( 'NONE', #6, #290, #81 ) ;
#137 = ORIENTED_EDGE ( 'NONE', *, *, #131, .F. ) ;
#138 = CC_DESIGN_APPROVAL ( #4, ( #201 ) ) ;
#139 = SECURITY_CLASSIFICATION_LEVEL ( 'unclassified' ) ;
#140 = ADVANCED_FACE ( 'NONE', ( #246, #34 ), #37, .T. ) ;
#141 = DIRECTION ( 'NONE',  ( -3.491481338843133355E-15, 1.224646799147353207E-16, -1.000000000000000000 ) ) ;
#142 = CC_DESIGN_APPROVAL ( #160, ( #127 ) ) ;
#143 = EDGE_CURVE ( 'NONE', #36, #36, #234, .T. ) ;
#144 = DATE_AND_TIME ( #240, #68 ) ;
#145 = FACE_OUTER_BOUND ( 'NONE', #117, .T. ) ;
#146 = DIRECTION ( 'NONE',  ( -3.491481338843133355E-15, 1.224646799147353207E-16, -1.000000000000000000 ) ) ;
#147 = DIRECTION ( 'NONE',  ( 4.275831445896958607E-31, 1.000000000000000000, 1.224646799147353207E-16 ) ) ;
#148 = APPROVAL_PERSON_ORGANIZATION ( #1, #160, #251 ) ;
#149 = FACE_BOUND ( 'NONE', #263, .T. ) ;
#150 = CARTESIAN_POINT ( 'NONE',  ( 4.276423536147513034E-47, 0.8956624327025948240, 0.0000000000000000000 ) ) ;
#151 = VERTEX_POINT ( 'NONE', #244 ) ;
#152 = DIRECTION ( 'NONE',  ( -3.491481338843133355E-15, 1.224646799147353207E-16, -1.000000000000000000 ) ) ;
#153 = CYLINDRICAL_SURFACE ( 'NONE', #84, 1.499999999999999112 ) ;
#154 = DIRECTION ( 'NONE',  ( 0.0000000000000000000, 1.000000000000000000, 0.0000000000000000000 ) ) ;
#155 = ADVANCED_FACE ( 'NONE', ( #66 ), #199, .F. ) ;
#156 = LOCAL_TIME ( 15, 4, 4.000000000000000000, #227 ) ;
#157 = APPROVAL_STATUS ( 'not_yet_approved' ) ;
#158 = APPROVAL_DATE_TIME ( #91, #160 ) ;
#159 = ORIENTED_EDGE ( 'NONE', *, *, #73, .T. ) ;
#160 = APPROVAL ( #132, 'UNSPECIFIED' ) ;
#161 = VERTEX_POINT ( 'NONE', #204 ) ;
#162 = AXIS2_PLACEMENT_3D ( 'NONE', #253, #116, #257 ) ;
#163 = EDGE_LOOP ( 'NONE', ( #137 ) ) ;
#164 = LOCAL_TIME ( 15, 4, 4.000000000000000000, #229 ) ;
#165 = VERTEX_POINT ( 'NONE', #259 ) ;
#166 = CC_DESIGN_PERSON_AND_ORGANIZATION_ASSIGNMENT ( #42, #93, ( #184 ) ) ;
#167 = DIRECTION ( 'NONE',  ( -3.491481338843133355E-15, 1.224646799147353207E-16, -1.000000000000000000 ) ) ;
#168 = CONICAL_SURFACE ( 'NONE', #269, 1.499999999999996669, 0.1745329251994261754 ) ;
#169 = APPROVAL_ROLE ( '' ) ;
#170 = DIRECTION ( 'NONE',  ( -4.275831445896958607E-31, -1.000000000000000000, -1.224646799147353207E-16 ) ) ;
#171 = EDGE_LOOP ( 'NONE', ( #254 ) ) ;
#172 = CYLINDRICAL_SURFACE ( 'NONE', #136, 0.8899999999999995692 ) ;
#173 =( GEOMETRIC_REPRESENTATION_CONTEXT ( 3 ) GLOBAL_UNCERTAINTY_ASSIGNED_CONTEXT ( ( #94 ) ) GLOBAL_UNIT_ASSIGNED_CONTEXT ( ( #273, #3, #210 ) ) REPRESENTATION_CONTEXT ( 'NONE', 'WORKASPACE' ) );
#174 = EDGE_LOOP ( 'NONE', ( #232 ) ) ;
#175 = VERTEX_POINT ( 'NONE', #267 ) ;
#176 = FACE_OUTER_BOUND ( 'NONE', #72, .T. ) ;
#177 = FACE_OUTER_BOUND ( 'NONE', #174, .T. ) ;
#178 = DIRECTION ( 'NONE',  ( -3.491481338843133355E-15, 1.224646799147353207E-16, -1.000000000000000000 ) ) ;
#179 = APPLICATION_PROTOCOL_DEFINITION ( 'international standard', 'config_control_design', 1994, #215 ) ;
#180 = AXIS2_PLACEMENT_3D ( 'NONE', #192, #5, #170 ) ;
#181 = DATE_AND_TIME ( #48, #195 ) ;
#182 = DATE_AND_TIME ( #233, #16 ) ;
#183 = PERSON_AND_ORGANIZATION ( #25, #118 ) ;
#184 = PRODUCT_DEFINITION_FORMATION_WITH_SPECIFIED_SOURCE ( 'ANY', '', #288, .NOT_KNOWN. ) ;
#185 = EDGE_LOOP ( 'NONE', ( #235 ) ) ;
#186 = DIRECTION ( 'NONE',  ( 0.0000000000000000000, -1.000000000000000000, 0.0000000000000000000 ) ) ;
#187 = APPROVAL_DATE_TIME ( #144, #4 ) ;
#188 = DIRECTION ( 'NONE',  ( 3.491481338843133355E-15, -1.224646799147353207E-16, 1.000000000000000000 ) ) ;
#189 = CIRCLE ( 'NONE', #278, 1.499999999999996669 ) ;
#190 = FACE_OUTER_BOUND ( 'NONE', #264, .T. ) ;
#191 = CC_DESIGN_DATE_AND_TIME_ASSIGNMENT ( #95, #20, ( #201 ) ) ;
#192 = CARTESIAN_POINT ( 'NONE',  ( 2.793185071074506684E-14, 7.798750869841645329E-33, 8.000000000000000000 ) ) ;
#193 = FACE_OUTER_BOUND ( 'NONE', #282, .T. ) ;
#194 = AXIS2_PLACEMENT_3D ( 'NONE', #77, #212, #122 ) ;
#195 = LOCAL_TIME ( 15, 4, 4.000000000000000000, #275 ) ;
#196 = DIRECTION ( 'NONE',  ( 3.491481338843133355E-15, -1.224646799147353207E-16, 1.000000000000000000 ) ) ;
#197 = EDGE_CURVE ( 'NONE', #106, #106, #52, .T. ) ;
#198 = CARTESIAN_POINT ( 'NONE',  ( 1.745740669421566678E-13, 1.199999999999995515, 50.00000000000000000 ) ) ;
#199 = PLANE ( 'NONE',  #231 ) ;
#200 = AXIS2_PLACEMENT_3D ( 'NONE', #298, #203, #125 ) ;
#201 = SECURITY_CLASSIFICATION ( '', '', #139 ) ;
#202 = FACE_OUTER_BOUND ( 'NONE', #230, .T. ) ;
#203 = DIRECTION ( 'NONE',  ( 3.491481338843133355E-15, -1.224646799147353207E-16, 1.000000000000000000 ) ) ;
#204 = CARTESIAN_POINT ( 'NONE',  ( 1.735266225405037467E-13, 1.499999999999995559, 49.70000000000000284 ) ) ;
#205 = AXIS2_PLACEMENT_3D ( 'NONE', #53, #141, #147 ) ;
#206 = CARTESIAN_POINT ( 'NONE',  ( 2.793185071074506684E-14, 1.039999999999999147, 8.000000000000000000 ) ) ;
#207 = ORIENTED_EDGE ( 'NONE', *, *, #143, .F. ) ;
#208 = COORDINATED_UNIVERSAL_TIME_OFFSET ( 1, 0, .AHEAD. ) ;
#209 = PERSON_AND_ORGANIZATION ( #25, #118 ) ;
#210 =( NAMED_UNIT ( * ) SI_UNIT ( $, .STERADIAN. ) SOLID_ANGLE_UNIT ( ) );
#211 = AXIS2_PLACEMENT_3D ( 'NONE', #123, #11, #104 ) ;
#212 = DIRECTION ( 'NONE',  ( -3.491481338843133355E-15, 1.224646799147353207E-16, -1.000000000000000000 ) ) ;
#213 = CARTESIAN_POINT ( 'NONE',  ( 7.553631070201346098E-14, -2.649457125589891636E-15, 21.63445923701875984 ) ) ;
#214 = AXIS2_PLACEMENT_3D ( 'NONE', #296, #293, #14 ) ;
#215 = APPLICATION_CONTEXT ( 'configuration controlled 3d designs of mechanical parts and assemblies' ) ;
#216 = APPROVAL_STATUS ( 'not_yet_approved' ) ;
#217 = CARTESIAN_POINT ( 'NONE',  ( 7.553631070201346098E-14, -2.649457125589891636E-15, 21.63445923701875984 ) ) ;
#218 = CYLINDRICAL_SURFACE ( 'NONE', #58, 1.039999999999999591 ) ;
#219 = ADVANCED_FACE ( 'NONE', ( #177, #65 ), #31, .T. ) ;
#220 = CARTESIAN_POINT ( 'NONE',  ( 6.405924284287275164E-14, 0.9203844939755789767, 18.34729635533384595 ) ) ;
#221 = AXIS2_PLACEMENT_3D ( 'NONE', #87, #110, #294 ) ;
#222 = CARTESIAN_POINT ( 'NONE',  ( 2.793185071074506684E-14, 1.039999999999999147, 8.000000000000000000 ) ) ;
#223 = CARTESIAN_POINT ( 'NONE',  ( 2.883896417162832445E-14, -1.011534696479630343E-15, 8.259807621135337286 ) ) ;
#224 = FACE_OUTER_BOUND ( 'NONE', #21, .T. ) ;
#225 = AXIS2_PLACEMENT_3D ( 'NONE', #60, #63, #107 ) ;
#226 = DIRECTION ( 'NONE',  ( 0.0000000000000000000, 1.000000000000000000, 0.0000000000000000000 ) ) ;
#227 = COORDINATED_UNIVERSAL_TIME_OFFSET ( 1, 0, .AHEAD. ) ;
#228 = CC_DESIGN_PERSON_AND_ORGANIZATION_ASSIGNMENT ( #183, #277, ( #184 ) ) ;
#229 = COORDINATED_UNIVERSAL_TIME_OFFSET ( 1, 0, .AHEAD. ) ;
#230 = EDGE_LOOP ( 'NONE', ( #303 ) ) ;
#231 = AXIS2_PLACEMENT_3D ( 'NONE', #247, #196, #126 ) ;
#232 = ORIENTED_EDGE ( 'NONE', *, *, #289, .F. ) ;
#233 = CALENDAR_DATE ( 2021, 1, 12 ) ;
#234 = CIRCLE ( 'NONE', #2, 1.040000000000000036 ) ;
#235 = ORIENTED_EDGE ( 'NONE', *, *, #197, .T. ) ;
#236 = DIRECTION ( 'NONE',  ( 3.491481338843133355E-15, -1.224646799147353207E-16, 1.000000000000000000 ) ) ;
#237 = APPROVAL ( #157, 'UNSPECIFIED' ) ;
#238 = ORIENTED_EDGE ( 'NONE', *, *, #44, .F. ) ;
#239 = ORIENTED_EDGE ( 'NONE', *, *, #73, .F. ) ;
#240 = CALENDAR_DATE ( 2021, 1, 12 ) ;
#241 = CARTESIAN_POINT ( 'NONE',  ( 6.405924284287275164E-14, -2.246895775456749140E-15, 18.34729635533384595 ) ) ;
#242 = PRODUCT_DEFINITION_SHAPE ( 'NONE', 'NONE',  #127 ) ;
#243 = PLANE ( 'NONE',  #200 ) ;
#244 = CARTESIAN_POINT ( 'NONE',  ( 6.284666409917640040E-14, 0.8899999999999980149, 18.00000000000000000 ) ) ;
#245 = CIRCLE ( 'NONE', #250, 0.9203844939755813082 ) ;
#246 = FACE_OUTER_BOUND ( 'NONE', #97, .T. ) ;
#247 = CARTESIAN_POINT ( 'NONE',  ( -1.914850797329161557E-31, 6.716392477042171202E-33, -5.484350656628821923E-17 ) ) ;
#248 = ADVANCED_FACE ( 'NONE', ( #176, #85 ), #153, .T. ) ;
#249 = VERTEX_POINT ( 'NONE', #150 ) ;
#250 = AXIS2_PLACEMENT_3D ( 'NONE', #241, #167, #121 ) ;
#251 = APPROVAL_ROLE ( '' ) ;
#252 = EDGE_CURVE ( 'NONE', #83, #83, #291, .T. ) ;
#253 = CARTESIAN_POINT ( 'NONE',  ( 0.0000000000000000000, 0.0000000000000000000, 0.0000000000000000000 ) ) ;
#254 = ORIENTED_EDGE ( 'NONE', *, *, #41, .T. ) ;
#255 = AXIS2_PLACEMENT_3D ( 'NONE', #86, #178, #266 ) ;
#256 = MANIFOLD_SOLID_BREP ( 'Corps-Déplacer/Copier1[2]', #7 ) ;
#257 = DIRECTION ( 'NONE',  ( 1.000000000000000000, 0.0000000000000000000, 0.0000000000000000000 ) ) ;
#258 = ORIENTED_EDGE ( 'NONE', *, *, #41, .F. ) ;
#259 = CARTESIAN_POINT ( 'NONE',  ( 2.883896417162832445E-14, 0.8899999999999979039, 8.259807621135337286 ) ) ;
#260 = CIRCLE ( 'NONE', #225, 0.8900000000000001243 ) ;
#261 = PLANE ( 'NONE',  #180 ) ;
#262 = DIRECTION ( 'NONE',  ( -3.491481338843133355E-15, 1.224646799147353207E-16, -1.000000000000000000 ) ) ;
#263 = EDGE_LOOP ( 'NONE', ( #238 ) ) ;
#264 = EDGE_LOOP ( 'NONE', ( #159 ) ) ;
#265 = AXIS2_PLACEMENT_3D ( 'NONE', #268, #124, #299 ) ;
#266 = DIRECTION ( 'NONE',  ( 0.0000000000000000000, 1.000000000000000000, 0.0000000000000000000 ) ) ;
#267 = CARTESIAN_POINT ( 'NONE',  ( 7.553631070201346098E-14, 1.499999999999994005, 21.63445923701875984 ) ) ;
#268 = CARTESIAN_POINT ( 'NONE',  ( 1.745740669421566678E-13, -6.123233995736766085E-15, 50.00000000000000000 ) ) ;
#269 = AXIS2_PLACEMENT_3D ( 'NONE', #213, #236, #186 ) ;
#270 = ADVANCED_FACE ( 'NONE', ( #224 ), #15, .F. ) ;
#271 = CARTESIAN_POINT ( 'NONE',  ( 2.793185071074506684E-14, -9.797174393178825657E-16, 8.000000000000000000 ) ) ;
#272 = CARTESIAN_POINT ( 'NONE',  ( 2.883896417162832445E-14, -1.011534696479630343E-15, 8.259807621135337286 ) ) ;
#273 =( LENGTH_UNIT ( ) NAMED_UNIT ( * ) SI_UNIT ( .MILLI., .METRE. ) );
#274 = CIRCLE ( 'NONE', #255, 1.500000000000001554 ) ;
#275 = COORDINATED_UNIVERSAL_TIME_OFFSET ( 1, 0, .AHEAD. ) ;
#276 = APPROVAL_DATE_TIME ( #181, #237 ) ;
#277 = PERSON_AND_ORGANIZATION_ROLE ( 'design_supplier' ) ;
#278 = AXIS2_PLACEMENT_3D ( 'NONE', #217, #262, #9 ) ;
#279 = CC_DESIGN_PERSON_AND_ORGANIZATION_ASSIGNMENT ( #19, #113, ( #127 ) ) ;
#280 = PERSON_AND_ORGANIZATION ( #25, #118 ) ;
#281 = EDGE_LOOP ( 'NONE', ( #239 ) ) ;
#282 = EDGE_LOOP ( 'NONE', ( #101 ) ) ;
#283 = ADVANCED_FACE ( 'NONE', ( #202 ), #243, .F. ) ;
#284 = CONICAL_SURFACE ( 'NONE', #76, 1.039999999999999147, 0.5235987755982920433 ) ;
#285 = ORIENTED_EDGE ( 'NONE', *, *, #44, .T. ) ;
#286 = ORIENTED_EDGE ( 'NONE', *, *, #295, .F. ) ;
#287 = EDGE_LOOP ( 'NONE', ( #134 ) ) ;
#288 = PRODUCT ( '327057', '327057', '', ( #135 ) ) ;
#289 = EDGE_CURVE ( 'NONE', #161, #161, #274, .T. ) ;
#290 = DIRECTION ( 'NONE',  ( -3.491481338843133355E-15, 1.224646799147353207E-16, -1.000000000000000000 ) ) ;
#291 = CIRCLE ( 'NONE', #129, 1.040000000000000036 ) ;
#292 = CC_DESIGN_APPROVAL ( #237, ( #184 ) ) ;
#293 = DIRECTION ( 'NONE',  ( -3.491481338843133355E-15, 1.224646799147353207E-16, -1.000000000000000000 ) ) ;
#294 = DIRECTION ( 'NONE',  ( 4.275831445896958607E-31, 1.000000000000000000, 1.224646799147353207E-16 ) ) ;
#295 = EDGE_CURVE ( 'NONE', #165, #165, #80, .T. ) ;
#296 = CARTESIAN_POINT ( 'NONE',  ( 1.745740669421566678E-13, -6.123233995736766085E-15, 50.00000000000000000 ) ) ;
#297 = AXIS2_PLACEMENT_3D ( 'NONE', #272, #105, #154 ) ;
#298 = CARTESIAN_POINT ( 'NONE',  ( 2.793185071074506684E-14, 7.798750869841645329E-33, 8.000000000000000000 ) ) ;
#299 = DIRECTION ( 'NONE',  ( 0.0000000000000000000, 1.000000000000000000, 0.0000000000000000000 ) ) ;
#300 = PERSON_AND_ORGANIZATION ( #25, #118 ) ;
#301 = EDGE_LOOP ( 'NONE', ( #46 ) ) ;
#302 = DATE_TIME_ROLE ( 'creation_date' ) ;
#303 = ORIENTED_EDGE ( 'NONE', *, *, #252, .T. ) ;
ENDSEC;
END-ISO-10303-21;
