ISO-10303-21;
HEADER;
FILE_DESCRIPTION (( 'STEP AP203' ),
    '1' );
FILE_NAME ('327056.step',
    '2021-12-01T14:04:03',
    ( '' ),
    ( '' ),
    'SwSTEP 2.0',
    'SolidWorks 2019',
    '' );
FILE_SCHEMA (( 'CONFIG_CONTROL_DESIGN' ));
ENDSEC;

DATA;
#1 = FACE_OUTER_BOUND ( 'NONE', #177, .T. ) ;
#2 = CIRCLE ( 'NONE', #25, 1.500000000000001554 ) ;
#3 =( GEOMETRIC_REPRESENTATION_CONTEXT ( 3 ) GLOBAL_UNCERTAINTY_ASSIGNED_CONTEXT ( ( #184 ) ) GLOBAL_UNIT_ASSIGNED_CONTEXT ( ( #90, #55, #212 ) ) REPRESENTATION_CONTEXT ( 'NONE', 'WORKASPACE' ) );
#4 = CARTESIAN_POINT ( 'NONE',  ( 6.284666409917640040E-14, 0.8849999999999977884, 18.00000000000000000 ) ) ;
#5 = EDGE_LOOP ( 'NONE', ( #294 ) ) ;
#6 = PERSON_AND_ORGANIZATION ( #256, #201 ) ;
#7 = PRODUCT_DEFINITION_SHAPE ( 'NONE', 'NONE',  #246 ) ;
#8 = CIRCLE ( 'NONE', #138, 1.200000000000001732 ) ;
#9 = AXIS2_PLACEMENT_3D ( 'NONE', #185, #50, #204 ) ;
#10 = DIRECTION ( 'NONE',  ( 0.0000000000000000000, 0.0000000000000000000, 1.000000000000000000 ) ) ;
#11 = DIRECTION ( 'NONE',  ( 0.0000000000000000000, 1.000000000000000000, 0.0000000000000000000 ) ) ;
#12 = SECURITY_CLASSIFICATION_LEVEL ( 'unclassified' ) ;
#13 = EDGE_LOOP ( 'NONE', ( #223 ) ) ;
#14 = DATE_AND_TIME ( #217, #209 ) ;
#15 = CARTESIAN_POINT ( 'NONE',  ( 6.284666409917640040E-14, -2.204364238465235428E-15, 18.00000000000000000 ) ) ;
#16 = AXIS2_PLACEMENT_3D ( 'NONE', #64, #180, #11 ) ;
#17 = CARTESIAN_POINT ( 'NONE',  ( 8.728703347107829444E-16, -3.061616997868381785E-17, 0.2499999999999998890 ) ) ;
#18 = EDGE_LOOP ( 'NONE', ( #189 ) ) ;
#19 = AXIS2_PLACEMENT_3D ( 'NONE', #66, #208, #49 ) ;
#20 = DIRECTION ( 'NONE',  ( -3.491481338843133355E-15, 1.224646799147353207E-16, -1.000000000000000000 ) ) ;
#21 = VERTEX_POINT ( 'NONE', #283 ) ;
#22 = EDGE_CURVE ( 'NONE', #188, #188, #2, .T. ) ;
#23 = FACE_OUTER_BOUND ( 'NONE', #59, .T. ) ;
#24 = PLANE ( 'NONE',  #158 ) ;
#25 = AXIS2_PLACEMENT_3D ( 'NONE', #87, #238, #106 ) ;
#26 = ORIENTED_EDGE ( 'NONE', *, *, #34, .F. ) ;
#27 = ADVANCED_FACE ( 'NONE', ( #298, #35 ), #123, .T. ) ;
#28 = CC_DESIGN_SECURITY_CLASSIFICATION ( #225, ( #248 ) ) ;
#29 = APPROVAL_ROLE ( '' ) ;
#30 = APPROVAL_STATUS ( 'not_yet_approved' ) ;
#31 = PERSON_AND_ORGANIZATION_ROLE ( 'design_owner' ) ;
#32 = AXIS2_PLACEMENT_3D ( 'NONE', #149, #57, #176 ) ;
#33 = PERSON_AND_ORGANIZATION ( #256, #201 ) ;
#34 = EDGE_CURVE ( 'NONE', #257, #257, #8, .T. ) ;
#35 = FACE_OUTER_BOUND ( 'NONE', #178, .T. ) ;
#36 = EDGE_LOOP ( 'NONE', ( #111 ) ) ;
#37 = PERSON_AND_ORGANIZATION_ROLE ( 'classification_officer' ) ;
#38 = PLANE ( 'NONE',  #181 ) ;
#39 = DIRECTION ( 'NONE',  ( -3.491481338843133355E-15, 1.224646799147353207E-16, -1.000000000000000000 ) ) ;
#40 = APPROVAL ( #144, 'UNSPECIFIED' ) ;
#41 = AXIS2_PLACEMENT_3D ( 'NONE', #173, #44, #101 ) ;
#42 = FACE_OUTER_BOUND ( 'NONE', #168, .T. ) ;
#43 = AXIS2_PLACEMENT_3D ( 'NONE', #45, #161, #93 ) ;
#44 = DIRECTION ( 'NONE',  ( 3.491481338843133355E-15, -1.224646799147353207E-16, 1.000000000000000000 ) ) ;
#45 = CARTESIAN_POINT ( 'NONE',  ( 2.793185071074506684E-14, 7.761256875275097246E-33, 8.000000000000000000 ) ) ;
#46 = CC_DESIGN_PERSON_AND_ORGANIZATION_ASSIGNMENT ( #6, #214, ( #248 ) ) ;
#47 = DIRECTION ( 'NONE',  ( 0.0000000000000000000, 1.000000000000000000, 0.0000000000000000000 ) ) ;
#48 = CIRCLE ( 'NONE', #52, 0.8849999999999998979 ) ;
#49 = DIRECTION ( 'NONE',  ( 0.0000000000000000000, 1.000000000000000000, 0.0000000000000000000 ) ) ;
#50 = DIRECTION ( 'NONE',  ( -3.491481338843133355E-15, 1.224646799147353207E-16, -1.000000000000000000 ) ) ;
#51 = APPLICATION_PROTOCOL_DEFINITION ( 'international standard', 'config_control_design', 1994, #245 ) ;
#52 = AXIS2_PLACEMENT_3D ( 'NONE', #15, #39, #299 ) ;
#53 = EDGE_LOOP ( 'NONE', ( #117 ) ) ;
#54 = PRODUCT ( '327056', '327056', '', ( #236 ) ) ;
#55 =( NAMED_UNIT ( * ) PLANE_ANGLE_UNIT ( ) SI_UNIT ( $, .RADIAN. ) );
#56 = ADVANCED_FACE ( 'NONE', ( #80 ), #151, .T. ) ;
#57 = DIRECTION ( 'NONE',  ( -3.491481338843133355E-15, 1.224646799147353207E-16, -1.000000000000000000 ) ) ;
#58 = CLOSED_SHELL ( 'NONE', ( #303, #250, #27, #153, #76, #194, #98, #269 ) ) ;
#59 = EDGE_LOOP ( 'NONE', ( #216 ) ) ;
#60 = APPROVAL_PERSON_ORGANIZATION ( #33, #40, #119 ) ;
#61 = CALENDAR_DATE ( 2021, 1, 12 ) ;
#62 = CARTESIAN_POINT ( 'NONE',  ( 1.745740669421566678E-13, -6.123233995736766085E-15, 50.00000000000000000 ) ) ;
#63 = FACE_OUTER_BOUND ( 'NONE', #18, .T. ) ;
#64 = CARTESIAN_POINT ( 'NONE',  ( 7.563531657521603269E-14, -2.652929784153620030E-15, 21.66281564611685084 ) ) ;
#65 = CARTESIAN_POINT ( 'NONE',  ( 6.284666409917640040E-14, -2.168404344971008868E-15, 18.00000000000000000 ) ) ;
#66 = CARTESIAN_POINT ( 'NONE',  ( 2.883896417162832445E-14, -1.011534696479630343E-15, 8.259807621135337286 ) ) ;
#67 = FACE_BOUND ( 'NONE', #13, .T. ) ;
#68 = DESIGN_CONTEXT ( 'detailed design', #245, 'design' ) ;
#69 = CYLINDRICAL_SURFACE ( 'NONE', #162, 1.034999999999999476 ) ;
#70 = APPROVAL_PERSON_ORGANIZATION ( #285, #281, #77 ) ;
#71 = DIRECTION ( 'NONE',  ( 4.275831445896958607E-31, 1.000000000000000000, 1.224646799147353454E-16 ) ) ;
#72 = VERTEX_POINT ( 'NONE', #166 ) ;
#73 = APPROVAL_DATE_TIME ( #122, #40 ) ;
#74 = CONICAL_SURFACE ( 'NONE', #290, 1.499999999999996669, 0.1745329251994258979 ) ;
#75 = PERSON_AND_ORGANIZATION ( #256, #201 ) ;
#76 = ADVANCED_FACE ( 'NONE', ( #127, #271 ), #74, .T. ) ;
#77 = APPROVAL_ROLE ( '' ) ;
#78 = DIRECTION ( 'NONE',  ( 4.275831445896958607E-31, 1.000000000000000000, 1.224646799147353207E-16 ) ) ;
#79 = PERSON_AND_ORGANIZATION ( #256, #201 ) ;
#80 = FACE_OUTER_BOUND ( 'NONE', #179, .T. ) ;
#81 = AXIS2_PLACEMENT_3D ( 'NONE', #267, #242, #203 ) ;
#82 = CC_DESIGN_APPROVAL ( #281, ( #246 ) ) ;
#83 = SHAPE_DEFINITION_REPRESENTATION ( #7, #139 ) ;
#84 = EDGE_CURVE ( 'NONE', #115, #115, #186, .T. ) ;
#85 = CARTESIAN_POINT ( 'NONE',  ( 0.0000000000000000000, 0.0000000000000000000, 0.0000000000000000000 ) ) ;
#86 = EDGE_LOOP ( 'NONE', ( #261 ) ) ;
#87 = CARTESIAN_POINT ( 'NONE',  ( 1.735266225405037467E-13, -6.086494591762345225E-15, 49.70000000000000284 ) ) ;
#88 = DIRECTION ( 'NONE',  ( -3.721603757270025457E-31, -1.000000000000000000, -1.047538330903870281E-16 ) ) ;
#89 = CC_DESIGN_DATE_AND_TIME_ASSIGNMENT ( #266, #171, ( #246 ) ) ;
#90 =( LENGTH_UNIT ( ) NAMED_UNIT ( * ) SI_UNIT ( .MILLI., .METRE. ) );
#91 = CARTESIAN_POINT ( 'NONE',  ( 0.0000000000000000000, 0.0000000000000000000, 0.0000000000000000000 ) ) ;
#92 = CARTESIAN_POINT ( 'NONE',  ( 2.883896417162832445E-14, -1.011534696479630343E-15, 8.259807621135337286 ) ) ;
#93 = DIRECTION ( 'NONE',  ( -4.275831445896958607E-31, -1.000000000000000000, -1.224646799147353207E-16 ) ) ;
#94 = LOCAL_TIME ( 15, 4, 3.000000000000000000, #287 ) ;
#95 = DIRECTION ( 'NONE',  ( 4.275831445896958607E-31, 1.000000000000000000, 1.224646799147353207E-16 ) ) ;
#96 = DATE_TIME_ROLE ( 'classification_date' ) ;
#97 = COORDINATED_UNIVERSAL_TIME_OFFSET ( 1, 0, .AHEAD. ) ;
#98 = ADVANCED_FACE ( 'NONE', ( #63, #240 ), #191, .T. ) ;
#99 = ORIENTED_EDGE ( 'NONE', *, *, #84, .T. ) ;
#100 = PERSON_AND_ORGANIZATION ( #256, #201 ) ;
#101 = DIRECTION ( 'NONE',  ( -4.275831445896958607E-31, -1.000000000000000000, -1.224646799147353207E-16 ) ) ;
#102 = APPROVAL_DATE_TIME ( #14, #239 ) ;
#103 = FACE_BOUND ( 'NONE', #241, .T. ) ;
#104 = EDGE_CURVE ( 'NONE', #280, #280, #232, .T. ) ;
#105 = AXIS2_PLACEMENT_3D ( 'NONE', #163, #278, #282 ) ;
#106 = DIRECTION ( 'NONE',  ( 0.0000000000000000000, 1.000000000000000000, 0.0000000000000000000 ) ) ;
#107 = DIRECTION ( 'NONE',  ( 3.491481338843133355E-15, -1.224646799147353207E-16, 1.000000000000000000 ) ) ;
#108 = CC_DESIGN_DATE_AND_TIME_ASSIGNMENT ( #124, #96, ( #225 ) ) ;
#109 = FACE_OUTER_BOUND ( 'NONE', #86, .T. ) ;
#110 = VERTEX_POINT ( 'NONE', #131 ) ;
#111 = ORIENTED_EDGE ( 'NONE', *, *, #104, .T. ) ;
#112 = DIRECTION ( 'NONE',  ( -3.491481338843133355E-15, 1.224646799147353207E-16, -1.000000000000000000 ) ) ;
#113 = DIRECTION ( 'NONE',  ( 4.275831445896958607E-31, 1.000000000000000000, 1.224646799147353454E-16 ) ) ;
#114 = ADVANCED_FACE ( 'NONE', ( #218 ), #38, .F. ) ;
#115 = VERTEX_POINT ( 'NONE', #132 ) ;
#116 = APPROVAL_PERSON_ORGANIZATION ( #79, #239, #29 ) ;
#117 = ORIENTED_EDGE ( 'NONE', *, *, #289, .F. ) ;
#118 = APPROVAL_DATE_TIME ( #192, #281 ) ;
#119 = APPROVAL_ROLE ( '' ) ;
#120 = AXIS2_PLACEMENT_3D ( 'NONE', #91, #183, #113 ) ;
#121 = LOCAL_TIME ( 15, 4, 3.000000000000000000, #97 ) ;
#122 = DATE_AND_TIME ( #211, #233 ) ;
#123 = CYLINDRICAL_SURFACE ( 'NONE', #301, 0.8849999999999993427 ) ;
#124 = DATE_AND_TIME ( #174, #94 ) ;
#125 = DIRECTION ( 'NONE',  ( 3.491481338843133355E-15, -1.224646799147353207E-16, 1.000000000000000000 ) ) ;
#126 = ORIENTED_EDGE ( 'NONE', *, *, #155, .T. ) ;
#127 = FACE_BOUND ( 'NONE', #53, .T. ) ;
#128 = AXIS2_PLACEMENT_3D ( 'NONE', #277, #193, #286 ) ;
#129 = CIRCLE ( 'NONE', #19, 0.8849999999999988987 ) ;
#130 = EDGE_CURVE ( 'NONE', #210, #210, #48, .T. ) ;
#131 = CARTESIAN_POINT ( 'NONE',  ( 2.883896417162832445E-14, 0.8849999999999978995, 8.259807621135337286 ) ) ;
#132 = CARTESIAN_POINT ( 'NONE',  ( 2.793185071074506684E-14, 1.034999999999998810, 8.000000000000000000 ) ) ;
#133 = CARTESIAN_POINT ( 'NONE',  ( 1.745740669421566678E-13, 1.199999999999995515, 50.00000000000000000 ) ) ;
#134 = ADVANCED_FACE ( 'NONE', ( #103, #222 ), #220, .T. ) ;
#135 = CARTESIAN_POINT ( 'NONE',  ( 7.563531657521603269E-14, 1.499999999999994005, 21.66281564611685084 ) ) ;
#136 = DIRECTION ( 'NONE',  ( -3.491481338843133355E-15, 1.224646799147353207E-16, -1.000000000000000000 ) ) ;
#137 = EDGE_LOOP ( 'NONE', ( #273 ) ) ;
#138 = AXIS2_PLACEMENT_3D ( 'NONE', #62, #213, #293 ) ;
#139 = ADVANCED_BREP_SHAPE_REPRESENTATION ( '327056', ( #259, #258, #175 ), #3 ) ;
#140 = CC_DESIGN_APPROVAL ( #40, ( #248 ) ) ;
#141 = ORIENTED_EDGE ( 'NONE', *, *, #155, .F. ) ;
#142 = CC_DESIGN_PERSON_AND_ORGANIZATION_ASSIGNMENT ( #75, #284, ( #246 ) ) ;
#143 = DIRECTION ( 'NONE',  ( 1.000000000000000000, 0.0000000000000000000, 0.0000000000000000000 ) ) ;
#144 = APPROVAL_STATUS ( 'not_yet_approved' ) ;
#145 = APPLICATION_PROTOCOL_DEFINITION ( 'international standard', 'config_control_design', 1994, #170 ) ;
#146 = DIRECTION ( 'NONE',  ( 3.491481338843133355E-15, -1.224646799147353207E-16, 1.000000000000000000 ) ) ;
#147 = EDGE_LOOP ( 'NONE', ( #141 ) ) ;
#148 = COORDINATED_UNIVERSAL_TIME_OFFSET ( 1, 0, .AHEAD. ) ;
#149 = CARTESIAN_POINT ( 'NONE',  ( 2.793185071074506684E-14, -9.797174393178825657E-16, 8.000000000000000000 ) ) ;
#150 = ORIENTED_EDGE ( 'NONE', *, *, #130, .F. ) ;
#151 = PLANE ( 'NONE',  #41 ) ;
#152 = ORIENTED_EDGE ( 'NONE', *, *, #104, .F. ) ;
#153 = ADVANCED_FACE ( 'NONE', ( #202, #42 ), #254, .F. ) ;
#154 = ORIENTED_EDGE ( 'NONE', *, *, #219, .F. ) ;
#155 = EDGE_CURVE ( 'NONE', #21, #21, #297, .T. ) ;
#156 = ORIENTED_EDGE ( 'NONE', *, *, #199, .F. ) ;
#157 = CLOSED_SHELL ( 'NONE', ( #114, #134, #167, #56 ) ) ;
#158 = AXIS2_PLACEMENT_3D ( 'NONE', #164, #112, #95 ) ;
#159 = DIRECTION ( 'NONE',  ( -3.491481338843133355E-15, 1.224646799147353207E-16, -1.000000000000000000 ) ) ;
#160 = VERTEX_POINT ( 'NONE', #229 ) ;
#161 = DIRECTION ( 'NONE',  ( 3.491481338843133355E-15, -1.224646799147353207E-16, 1.000000000000000000 ) ) ;
#162 = AXIS2_PLACEMENT_3D ( 'NONE', #182, #187, #228 ) ;
#163 = CARTESIAN_POINT ( 'NONE',  ( 2.793185071074506684E-14, -9.797174393178825657E-16, 8.000000000000000000 ) ) ;
#164 = CARTESIAN_POINT ( 'NONE',  ( 1.745740669421566678E-13, 8.998558695971067645E-33, 50.00000000000000000 ) ) ;
#165 = ORIENTED_EDGE ( 'NONE', *, *, #130, .T. ) ;
#166 = CARTESIAN_POINT ( 'NONE',  ( -4.276423536147513034E-47, 0.8906624327025944865, 0.0000000000000000000 ) ) ;
#167 = ADVANCED_FACE ( 'NONE', ( #260, #230 ), #69, .T. ) ;
#168 = EDGE_LOOP ( 'NONE', ( #252 ) ) ;
#169 = CIRCLE ( 'NONE', #9, 0.9153844939755823029 ) ;
#170 = APPLICATION_CONTEXT ( 'configuration controlled 3d designs of mechanical parts and assemblies' ) ;
#171 = DATE_TIME_ROLE ( 'creation_date' ) ;
#172 = COORDINATED_UNIVERSAL_TIME_OFFSET ( 1, 0, .AHEAD. ) ;
#173 = CARTESIAN_POINT ( 'NONE',  ( 2.793185071074506684E-14, 7.761256875275097246E-33, 8.000000000000000000 ) ) ;
#174 = CALENDAR_DATE ( 2021, 1, 12 ) ;
#175 = AXIS2_PLACEMENT_3D ( 'NONE', #265, #10, #143 ) ;
#176 = DIRECTION ( 'NONE',  ( 0.0000000000000000000, 1.000000000000000000, 0.0000000000000000000 ) ) ;
#177 = EDGE_LOOP ( 'NONE', ( #26 ) ) ;
#178 = EDGE_LOOP ( 'NONE', ( #165 ) ) ;
#179 = EDGE_LOOP ( 'NONE', ( #154 ) ) ;
#180 = DIRECTION ( 'NONE',  ( -3.491481338843133355E-15, 1.224646799147353207E-16, -1.000000000000000000 ) ) ;
#181 = AXIS2_PLACEMENT_3D ( 'NONE', #247, #125, #249 ) ;
#182 = CARTESIAN_POINT ( 'NONE',  ( 0.0000000000000000000, 0.0000000000000000000, 0.0000000000000000000 ) ) ;
#183 = DIRECTION ( 'NONE',  ( -3.491481338843133355E-15, 1.224646799147353207E-16, -1.000000000000000000 ) ) ;
#184 = UNCERTAINTY_MEASURE_WITH_UNIT (LENGTH_MEASURE( 1.000000000000000082E-05 ), #90, 'distance_accuracy_value', 'NONE');
#185 = CARTESIAN_POINT ( 'NONE',  ( 6.405924284287275164E-14, -2.246895775456749140E-15, 18.34729635533384595 ) ) ;
#186 = CIRCLE ( 'NONE', #32, 1.034999999999999920 ) ;
#187 = DIRECTION ( 'NONE',  ( -3.491481338843133355E-15, 1.224646799147353207E-16, -1.000000000000000000 ) ) ;
#188 = VERTEX_POINT ( 'NONE', #231 ) ;
#189 = ORIENTED_EDGE ( 'NONE', *, *, #22, .F. ) ;
#190 = CALENDAR_DATE ( 2021, 1, 12 ) ;
#191 = CONICAL_SURFACE ( 'NONE', #81, 1.200000000000001732, 0.7853981633974453924 ) ;
#192 = DATE_AND_TIME ( #190, #121 ) ;
#193 = DIRECTION ( 'NONE',  ( -3.491481338843133355E-15, 1.224646799147353207E-16, -1.000000000000000000 ) ) ;
#194 = ADVANCED_FACE ( 'NONE', ( #302, #23 ), #253, .T. ) ;
#195 = CARTESIAN_POINT ( 'NONE',  ( 7.563531657521603269E-14, -2.652929784153620030E-15, 21.66281564611685084 ) ) ;
#196 = PERSON_AND_ORGANIZATION_ROLE ( 'creator' ) ;
#197 = ORIENTED_EDGE ( 'NONE', *, *, #219, .T. ) ;
#198 = EDGE_LOOP ( 'NONE', ( #197 ) ) ;
#199 = EDGE_CURVE ( 'NONE', #72, #72, #205, .T. ) ;
#200 = AXIS2_PLACEMENT_3D ( 'NONE', #255, #226, #71 ) ;
#201 = ORGANIZATION ( 'UNSPECIFIED', 'UNSPECIFIED', '' ) ;
#202 = FACE_OUTER_BOUND ( 'NONE', #235, .T. ) ;
#203 = DIRECTION ( 'NONE',  ( 0.0000000000000000000, 1.000000000000000000, 0.0000000000000000000 ) ) ;
#204 = DIRECTION ( 'NONE',  ( 0.0000000000000000000, 1.000000000000000000, 0.0000000000000000000 ) ) ;
#205 = CIRCLE ( 'NONE', #200, 0.8906624327025944865 ) ;
#206 = CARTESIAN_POINT ( 'NONE',  ( 6.405924284287275164E-14, 0.9153844939755800825, 18.34729635533384595 ) ) ;
#207 = VERTEX_POINT ( 'NONE', #206 ) ;
#208 = DIRECTION ( 'NONE',  ( -3.491481338843133355E-15, 1.224646799147353207E-16, -1.000000000000000000 ) ) ;
#209 = LOCAL_TIME ( 15, 4, 3.000000000000000000, #148 ) ;
#210 = VERTEX_POINT ( 'NONE', #4 ) ;
#211 = CALENDAR_DATE ( 2021, 1, 12 ) ;
#212 =( NAMED_UNIT ( * ) SI_UNIT ( $, .STERADIAN. ) SOLID_ANGLE_UNIT ( ) );
#213 = DIRECTION ( 'NONE',  ( -3.491481338843133355E-15, 1.224646799147353207E-16, -1.000000000000000000 ) ) ;
#214 = PERSON_AND_ORGANIZATION_ROLE ( 'design_supplier' ) ;
#215 = ORIENTED_EDGE ( 'NONE', *, *, #34, .T. ) ;
#216 = ORIENTED_EDGE ( 'NONE', *, *, #22, .T. ) ;
#217 = CALENDAR_DATE ( 2021, 1, 12 ) ;
#218 = FACE_OUTER_BOUND ( 'NONE', #5, .T. ) ;
#219 = EDGE_CURVE ( 'NONE', #160, #160, #237, .T. ) ;
#220 = CONICAL_SURFACE ( 'NONE', #262, 1.034999999999998810, 0.5235987755982923764 ) ;
#221 = CC_DESIGN_APPROVAL ( #239, ( #225 ) ) ;
#222 = FACE_OUTER_BOUND ( 'NONE', #288, .T. ) ;
#223 = ORIENTED_EDGE ( 'NONE', *, *, #264, .T. ) ;
#224 = CC_DESIGN_PERSON_AND_ORGANIZATION_ASSIGNMENT ( #291, #37, ( #225 ) ) ;
#225 = SECURITY_CLASSIFICATION ( '', '', #12 ) ;
#226 = DIRECTION ( 'NONE',  ( -3.491481338843133355E-15, 1.224646799147353207E-16, -1.000000000000000000 ) ) ;
#227 = CC_DESIGN_PERSON_AND_ORGANIZATION_ASSIGNMENT ( #100, #196, ( #248 ) ) ;
#228 = DIRECTION ( 'NONE',  ( 4.275831445896958607E-31, 1.000000000000000000, 1.224646799147353207E-16 ) ) ;
#229 = CARTESIAN_POINT ( 'NONE',  ( 2.793185071074506684E-14, 1.034999999999998810, 8.000000000000000000 ) ) ;
#230 = FACE_OUTER_BOUND ( 'NONE', #198, .T. ) ;
#231 = CARTESIAN_POINT ( 'NONE',  ( 1.735266225405037467E-13, 1.499999999999995559, 49.70000000000000284 ) ) ;
#232 = CIRCLE ( 'NONE', #16, 1.499999999999996669 ) ;
#233 = LOCAL_TIME ( 15, 4, 3.000000000000000000, #234 ) ;
#234 = COORDINATED_UNIVERSAL_TIME_OFFSET ( 1, 0, .AHEAD. ) ;
#235 = EDGE_LOOP ( 'NONE', ( #150 ) ) ;
#236 = MECHANICAL_CONTEXT ( 'NONE', #170, 'mechanical' ) ;
#237 = CIRCLE ( 'NONE', #105, 1.034999999999999920 ) ;
#238 = DIRECTION ( 'NONE',  ( -3.491481338843133355E-15, 1.224646799147353207E-16, -1.000000000000000000 ) ) ;
#239 = APPROVAL ( #268, 'UNSPECIFIED' ) ;
#240 = FACE_BOUND ( 'NONE', #243, .T. ) ;
#241 = EDGE_LOOP ( 'NONE', ( #156 ) ) ;
#242 = DIRECTION ( 'NONE',  ( -3.491481338843133355E-15, 1.224646799147353207E-16, -1.000000000000000000 ) ) ;
#243 = EDGE_LOOP ( 'NONE', ( #215 ) ) ;
#244 = AXIS2_PLACEMENT_3D ( 'NONE', #65, #159, #78 ) ;
#245 = APPLICATION_CONTEXT ( 'configuration controlled 3d designs of mechanical parts and assemblies' ) ;
#246 = PRODUCT_DEFINITION ( 'UNKNOWN', '', #248, #68 ) ;
#247 = CARTESIAN_POINT ( 'NONE',  ( -1.904161218714418762E-31, 6.678898482475623120E-33, -5.453734486650136928E-17 ) ) ;
#248 = PRODUCT_DEFINITION_FORMATION_WITH_SPECIFIED_SOURCE ( 'ANY', '', #54, .NOT_KNOWN. ) ;
#249 = DIRECTION ( 'NONE',  ( -4.275831445896958607E-31, -1.000000000000000000, -1.224646799147353207E-16 ) ) ;
#250 = ADVANCED_FACE ( 'NONE', ( #109, #67 ), #270, .T. ) ;
#251 = PLANE ( 'NONE',  #43 ) ;
#252 = ORIENTED_EDGE ( 'NONE', *, *, #289, .T. ) ;
#253 = CYLINDRICAL_SURFACE ( 'NONE', #120, 1.499999999999999112 ) ;
#254 = TOROIDAL_SURFACE ( 'NONE', #244, 2.884999999999999787, 2.000000000000000000 ) ;
#255 = CARTESIAN_POINT ( 'NONE',  ( -3.808322437428837524E-31, 1.335779696495124624E-32, -1.090746897330027386E-16 ) ) ;
#256 = PERSON ( 'UNSPECIFIED', 'UNSPECIFIED', 'UNSPECIFIED', ('UNSPECIFIED'), ('UNSPECIFIED'), ('UNSPECIFIED') ) ;
#257 = VERTEX_POINT ( 'NONE', #133 ) ;
#258 = MANIFOLD_SOLID_BREP ( 'Corps-Déplacer/Copier1[2]', #157 ) ;
#259 = MANIFOLD_SOLID_BREP ( 'Corps-Déplacer/Copier1[1]', #58 ) ;
#260 = FACE_OUTER_BOUND ( 'NONE', #147, .T. ) ;
#261 = ORIENTED_EDGE ( 'NONE', *, *, #84, .F. ) ;
#262 = AXIS2_PLACEMENT_3D ( 'NONE', #17, #107, #88 ) ;
#263 = PERSON_AND_ORGANIZATION ( #256, #201 ) ;
#264 = EDGE_CURVE ( 'NONE', #110, #110, #129, .T. ) ;
#265 = CARTESIAN_POINT ( 'NONE',  ( 0.0000000000000000000, 0.0000000000000000000, 0.0000000000000000000 ) ) ;
#266 = DATE_AND_TIME ( #61, #274 ) ;
#267 = CARTESIAN_POINT ( 'NONE',  ( 1.745740669421566678E-13, -6.123233995736766085E-15, 50.00000000000000000 ) ) ;
#268 = APPROVAL_STATUS ( 'not_yet_approved' ) ;
#269 = ADVANCED_FACE ( 'NONE', ( #1 ), #24, .F. ) ;
#270 = CONICAL_SURFACE ( 'NONE', #292, 0.8849999999999988987, 0.5235987755982934866 ) ;
#271 = FACE_OUTER_BOUND ( 'NONE', #36, .T. ) ;
#272 = DIRECTION ( 'NONE',  ( 0.0000000000000000000, -1.000000000000000000, 0.0000000000000000000 ) ) ;
#273 = ORIENTED_EDGE ( 'NONE', *, *, #264, .F. ) ;
#274 = LOCAL_TIME ( 15, 4, 3.000000000000000000, #172 ) ;
#275 = DIRECTION ( 'NONE',  ( 4.275831445896958607E-31, 1.000000000000000000, 1.224646799147353207E-16 ) ) ;
#276 = CC_DESIGN_PERSON_AND_ORGANIZATION_ASSIGNMENT ( #263, #31, ( #54 ) ) ;
#277 = CARTESIAN_POINT ( 'NONE',  ( 8.728703347107829444E-16, -3.061616997868381785E-17, 0.2499999999999998890 ) ) ;
#278 = DIRECTION ( 'NONE',  ( -3.491481338843133355E-15, 1.224646799147353207E-16, -1.000000000000000000 ) ) ;
#279 = EDGE_LOOP ( 'NONE', ( #152 ) ) ;
#280 = VERTEX_POINT ( 'NONE', #135 ) ;
#281 = APPROVAL ( #30, 'UNSPECIFIED' ) ;
#282 = DIRECTION ( 'NONE',  ( 0.0000000000000000000, 1.000000000000000000, 0.0000000000000000000 ) ) ;
#283 = CARTESIAN_POINT ( 'NONE',  ( 8.728703347107833388E-16, 1.034999999999998810, 0.2500000000000000000 ) ) ;
#284 = PERSON_AND_ORGANIZATION_ROLE ( 'creator' ) ;
#285 = PERSON_AND_ORGANIZATION ( #256, #201 ) ;
#286 = DIRECTION ( 'NONE',  ( 3.721603757270025457E-31, 1.000000000000000000, 1.047538330903870281E-16 ) ) ;
#287 = COORDINATED_UNIVERSAL_TIME_OFFSET ( 1, 0, .AHEAD. ) ;
#288 = EDGE_LOOP ( 'NONE', ( #126 ) ) ;
#289 = EDGE_CURVE ( 'NONE', #207, #207, #169, .T. ) ;
#290 = AXIS2_PLACEMENT_3D ( 'NONE', #195, #146, #272 ) ;
#291 = PERSON_AND_ORGANIZATION ( #256, #201 ) ;
#292 = AXIS2_PLACEMENT_3D ( 'NONE', #92, #136, #47 ) ;
#293 = DIRECTION ( 'NONE',  ( 0.0000000000000000000, 1.000000000000000000, 0.0000000000000000000 ) ) ;
#294 = ORIENTED_EDGE ( 'NONE', *, *, #199, .T. ) ;
#295 = EDGE_LOOP ( 'NONE', ( #99 ) ) ;
#296 = PRODUCT_RELATED_PRODUCT_CATEGORY ( 'detail', '', ( #54 ) ) ;
#297 = CIRCLE ( 'NONE', #128, 1.034999999999998810 ) ;
#298 = FACE_OUTER_BOUND ( 'NONE', #137, .T. ) ;
#299 = DIRECTION ( 'NONE',  ( 0.0000000000000000000, 1.000000000000000000, 0.0000000000000000000 ) ) ;
#300 = FACE_OUTER_BOUND ( 'NONE', #295, .T. ) ;
#301 = AXIS2_PLACEMENT_3D ( 'NONE', #85, #20, #275 ) ;
#302 = FACE_OUTER_BOUND ( 'NONE', #279, .T. ) ;
#303 = ADVANCED_FACE ( 'NONE', ( #300 ), #251, .F. ) ;
ENDSEC;
END-ISO-10303-21;
