ISO-10303-21;
HEADER;
FILE_DESCRIPTION (( 'STEP AP203' ),
    '1' );
FILE_NAME ('327055.step',
    '2021-12-01T14:04:03',
    ( '' ),
    ( '' ),
    'SwSTEP 2.0',
    'SolidWorks 2019',
    '' );
FILE_SCHEMA (( 'CONFIG_CONTROL_DESIGN' ));
ENDSEC;

DATA;
#1 = AXIS2_PLACEMENT_3D ( 'NONE', #264, #17, #251 ) ;
#2 = CARTESIAN_POINT ( 'NONE',  ( 1.735266225405037467E-13, -6.086494591762345225E-15, 49.70000000000000284 ) ) ;
#3 = FACE_OUTER_BOUND ( 'NONE', #31, .T. ) ;
#4 = CLOSED_SHELL ( 'NONE', ( #284, #176, #148, #142 ) ) ;
#5 = DIRECTION ( 'NONE',  ( -4.275831445896958607E-31, -1.000000000000000000, -1.224646799147353207E-16 ) ) ;
#6 = ORIENTED_EDGE ( 'NONE', *, *, #85, .T. ) ;
#7 = MANIFOLD_SOLID_BREP ( 'Corps-Déplacer/Copier1[1]', #239 ) ;
#8 = EDGE_LOOP ( 'NONE', ( #205 ) ) ;
#9 = EDGE_CURVE ( 'NONE', #226, #226, #137, .T. ) ;
#10 = PLANE ( 'NONE',  #77 ) ;
#11 = FACE_OUTER_BOUND ( 'NONE', #141, .T. ) ;
#12 = EDGE_LOOP ( 'NONE', ( #50 ) ) ;
#13 =( NAMED_UNIT ( * ) PLANE_ANGLE_UNIT ( ) SI_UNIT ( $, .RADIAN. ) );
#14 = AXIS2_PLACEMENT_3D ( 'NONE', #30, #26, #174 ) ;
#15 = CARTESIAN_POINT ( 'NONE',  ( 1.745740669421566678E-13, 1.199999999999995515, 50.00000000000000000 ) ) ;
#16 = EDGE_LOOP ( 'NONE', ( #104 ) ) ;
#17 = DIRECTION ( 'NONE',  ( -3.491481338843133355E-15, 1.224646799147353207E-16, -1.000000000000000000 ) ) ;
#18 = VERTEX_POINT ( 'NONE', #71 ) ;
#19 = CIRCLE ( 'NONE', #69, 1.500000000000001554 ) ;
#20 = EDGE_CURVE ( 'NONE', #74, #74, #110, .T. ) ;
#21 = APPROVAL_ROLE ( '' ) ;
#22 = DIRECTION ( 'NONE',  ( -3.491481338843133355E-15, 1.224646799147353207E-16, -1.000000000000000000 ) ) ;
#23 = CARTESIAN_POINT ( 'NONE',  ( 0.0000000000000000000, 0.0000000000000000000, 0.0000000000000000000 ) ) ;
#24 = PERSON_AND_ORGANIZATION ( #192, #201 ) ;
#25 = DIRECTION ( 'NONE',  ( 0.0000000000000000000, 1.000000000000000000, 0.0000000000000000000 ) ) ;
#26 = DIRECTION ( 'NONE',  ( -3.491481338843133355E-15, 1.224646799147353207E-16, -1.000000000000000000 ) ) ;
#27 = CIRCLE ( 'NONE', #170, 1.030000000000000027 ) ;
#28 = SECURITY_CLASSIFICATION_LEVEL ( 'unclassified' ) ;
#29 = CC_DESIGN_DATE_AND_TIME_ASSIGNMENT ( #149, #296, ( #303 ) ) ;
#30 = CARTESIAN_POINT ( 'NONE',  ( 2.883896417162832445E-14, -1.011534696479630343E-15, 8.259807621135337286 ) ) ;
#31 = EDGE_LOOP ( 'NONE', ( #163 ) ) ;
#32 = PERSON_AND_ORGANIZATION_ROLE ( 'creator' ) ;
#33 = ORIENTED_EDGE ( 'NONE', *, *, #124, .T. ) ;
#34 = AXIS2_PLACEMENT_3D ( 'NONE', #244, #179, #101 ) ;
#35 = FACE_OUTER_BOUND ( 'NONE', #271, .T. ) ;
#36 = CONICAL_SURFACE ( 'NONE', #83, 0.8799999999999987832, 0.5235987755982940417 ) ;
#37 = CC_DESIGN_PERSON_AND_ORGANIZATION_ASSIGNMENT ( #210, #173, ( #279 ) ) ;
#38 = FACE_BOUND ( 'NONE', #169, .T. ) ;
#39 = ORIENTED_EDGE ( 'NONE', *, *, #103, .T. ) ;
#40 = DIRECTION ( 'NONE',  ( 0.0000000000000000000, 1.000000000000000000, 0.0000000000000000000 ) ) ;
#41 = ORIENTED_EDGE ( 'NONE', *, *, #118, .F. ) ;
#42 = DIRECTION ( 'NONE',  ( -3.491481338843133355E-15, 1.224646799147353207E-16, -1.000000000000000000 ) ) ;
#43 = EDGE_LOOP ( 'NONE', ( #281 ) ) ;
#44 = FACE_OUTER_BOUND ( 'NONE', #49, .T. ) ;
#45 = LOCAL_TIME ( 15, 4, 3.000000000000000000, #152 ) ;
#46 = AXIS2_PLACEMENT_3D ( 'NONE', #90, #52, #144 ) ;
#47 = DIRECTION ( 'NONE',  ( -3.491481338843133355E-15, 1.224646799147353207E-16, -1.000000000000000000 ) ) ;
#48 = ORIENTED_EDGE ( 'NONE', *, *, #103, .F. ) ;
#49 = EDGE_LOOP ( 'NONE', ( #221 ) ) ;
#50 = ORIENTED_EDGE ( 'NONE', *, *, #225, .T. ) ;
#51 = ORIENTED_EDGE ( 'NONE', *, *, #85, .F. ) ;
#52 = DIRECTION ( 'NONE',  ( -3.491481338843133355E-15, 1.224646799147353207E-16, -1.000000000000000000 ) ) ;
#53 = EDGE_LOOP ( 'NONE', ( #51 ) ) ;
#54 = FACE_OUTER_BOUND ( 'NONE', #12, .T. ) ;
#55 = MECHANICAL_CONTEXT ( 'NONE', #143, 'mechanical' ) ;
#56 = CIRCLE ( 'NONE', #265, 1.030000000000000027 ) ;
#57 = FACE_OUTER_BOUND ( 'NONE', #216, .T. ) ;
#58 = DIRECTION ( 'NONE',  ( 0.0000000000000000000, 0.0000000000000000000, 1.000000000000000000 ) ) ;
#59 = CYLINDRICAL_SURFACE ( 'NONE', #34, 0.8799999999999994493 ) ;
#60 = CONICAL_SURFACE ( 'NONE', #130, 1.499999999999996669, 0.1745329251994260922 ) ;
#61 = FACE_OUTER_BOUND ( 'NONE', #158, .T. ) ;
#62 = CALENDAR_DATE ( 2021, 1, 12 ) ;
#63 = DIRECTION ( 'NONE',  ( 3.491481338843133355E-15, -1.224646799147353207E-16, 1.000000000000000000 ) ) ;
#64 = TOROIDAL_SURFACE ( 'NONE', #208, 2.880000000000000338, 2.000000000000000000 ) ;
#65 = DIRECTION ( 'NONE',  ( -4.275831445896958607E-31, -1.000000000000000000, -1.224646799147353207E-16 ) ) ;
#66 = APPLICATION_CONTEXT ( 'configuration controlled 3d designs of mechanical parts and assemblies' ) ;
#67 = CARTESIAN_POINT ( 'NONE',  ( 8.728703347107829444E-16, -3.061616997868381785E-17, 0.2499999999999998890 ) ) ;
#68 = CC_DESIGN_PERSON_AND_ORGANIZATION_ASSIGNMENT ( #127, #32, ( #303 ) ) ;
#69 = AXIS2_PLACEMENT_3D ( 'NONE', #2, #195, #178 ) ;
#70 = DIRECTION ( 'NONE',  ( 0.0000000000000000000, -1.000000000000000000, 0.0000000000000000000 ) ) ;
#71 = CARTESIAN_POINT ( 'NONE',  ( 6.405924284287275164E-14, 0.9103844939755789678, 18.34729635533384595 ) ) ;
#72 = CARTESIAN_POINT ( 'NONE',  ( 8.728703347107833388E-16, 1.029999999999998916, 0.2500000000000000000 ) ) ;
#73 = SECURITY_CLASSIFICATION ( '', '', #28 ) ;
#74 = VERTEX_POINT ( 'NONE', #15 ) ;
#75 = SHAPE_DEFINITION_REPRESENTATION ( #286, #159 ) ;
#76 = ORIENTED_EDGE ( 'NONE', *, *, #124, .F. ) ;
#77 = AXIS2_PLACEMENT_3D ( 'NONE', #199, #285, #5 ) ;
#78 = DATE_AND_TIME ( #215, #182 ) ;
#79 = APPROVAL_DATE_TIME ( #236, #256 ) ;
#80 = DIRECTION ( 'NONE',  ( -3.491481338843133355E-15, 1.224646799147353207E-16, -1.000000000000000000 ) ) ;
#81 = DESIGN_CONTEXT ( 'detailed design', #66, 'design' ) ;
#82 = CALENDAR_DATE ( 2021, 1, 12 ) ;
#83 = AXIS2_PLACEMENT_3D ( 'NONE', #109, #227, #266 ) ;
#84 = APPROVAL_PERSON_ORGANIZATION ( #259, #262, #154 ) ;
#85 = EDGE_CURVE ( 'NONE', #136, #136, #211, .T. ) ;
#86 = AXIS2_PLACEMENT_3D ( 'NONE', #151, #243, #25 ) ;
#87 = CARTESIAN_POINT ( 'NONE',  ( 0.0000000000000000000, 0.8856624327025947041, 0.0000000000000000000 ) ) ;
#88 = APPROVAL ( #213, 'UNSPECIFIED' ) ;
#89 = VERTEX_POINT ( 'NONE', #119 ) ;
#90 = CARTESIAN_POINT ( 'NONE',  ( 1.745740669421566678E-13, -6.123233995736766085E-15, 50.00000000000000000 ) ) ;
#91 = CARTESIAN_POINT ( 'NONE',  ( 7.573432244841862964E-14, -2.656402442717349608E-15, 21.69117205521494185 ) ) ;
#92 = CC_DESIGN_APPROVAL ( #262, ( #303 ) ) ;
#93 = CC_DESIGN_PERSON_AND_ORGANIZATION_ASSIGNMENT ( #121, #300, ( #279 ) ) ;
#94 = CARTESIAN_POINT ( 'NONE',  ( 7.573432244841862964E-14, -2.656402442717349608E-15, 21.69117205521494185 ) ) ;
#95 = COORDINATED_UNIVERSAL_TIME_OFFSET ( 1, 0, .AHEAD. ) ;
#96 = CARTESIAN_POINT ( 'NONE',  ( 2.793185071074506684E-14, 7.723762880708553269E-33, 8.000000000000000000 ) ) ;
#97 = PERSON_AND_ORGANIZATION_ROLE ( 'classification_officer' ) ;
#98 = DIRECTION ( 'NONE',  ( -3.491481338843133355E-15, 1.224646799147353207E-16, -1.000000000000000000 ) ) ;
#99 = CYLINDRICAL_SURFACE ( 'NONE', #138, 1.029999999999999583 ) ;
#100 = DIRECTION ( 'NONE',  ( -3.739669794926675318E-31, -1.000000000000000000, -1.052623468432529635E-16 ) ) ;
#101 = DIRECTION ( 'NONE',  ( 4.275831445896958607E-31, 1.000000000000000000, 1.224646799147353207E-16 ) ) ;
#102 = CARTESIAN_POINT ( 'NONE',  ( 6.284666409917640040E-14, -2.204364238465235428E-15, 18.00000000000000000 ) ) ;
#103 = EDGE_CURVE ( 'NONE', #204, #204, #19, .T. ) ;
#104 = ORIENTED_EDGE ( 'NONE', *, *, #9, .T. ) ;
#105 = AXIS2_PLACEMENT_3D ( 'NONE', #117, #187, #145 ) ;
#106 = CIRCLE ( 'NONE', #1, 1.029999999999998916 ) ;
#107 = FACE_OUTER_BOUND ( 'NONE', #228, .T. ) ;
#108 = EDGE_LOOP ( 'NONE', ( #41 ) ) ;
#109 = CARTESIAN_POINT ( 'NONE',  ( 2.883896417162832445E-14, -1.011534696479630343E-15, 8.259807621135337286 ) ) ;
#110 = CIRCLE ( 'NONE', #272, 1.200000000000001732 ) ;
#111 =( GEOMETRIC_REPRESENTATION_CONTEXT ( 3 ) GLOBAL_UNCERTAINTY_ASSIGNED_CONTEXT ( ( #275 ) ) GLOBAL_UNIT_ASSIGNED_CONTEXT ( ( #223, #13, #184 ) ) REPRESENTATION_CONTEXT ( 'NONE', 'WORKASPACE' ) );
#112 = FACE_OUTER_BOUND ( 'NONE', #16, .T. ) ;
#113 = ORIENTED_EDGE ( 'NONE', *, *, #118, .T. ) ;
#114 = MANIFOLD_SOLID_BREP ( 'Corps-Déplacer/Copier1[2]', #4 ) ;
#115 = FACE_OUTER_BOUND ( 'NONE', #167, .T. ) ;
#116 = DIRECTION ( 'NONE',  ( -4.275831445896958607E-31, -1.000000000000000000, -1.224646799147353207E-16 ) ) ;
#117 = CARTESIAN_POINT ( 'NONE',  ( -3.786943280199353685E-31, 1.328280897581815829E-32, -1.084623663334290880E-16 ) ) ;
#118 = EDGE_CURVE ( 'NONE', #295, #295, #189, .T. ) ;
#119 = CARTESIAN_POINT ( 'NONE',  ( 7.573432244841862964E-14, 1.499999999999994005, 21.69117205521494185 ) ) ;
#120 = LOCAL_TIME ( 15, 4, 3.000000000000000000, #274 ) ;
#121 = PERSON_AND_ORGANIZATION ( #192, #201 ) ;
#122 = DIRECTION ( 'NONE',  ( 4.275831445896958607E-31, 1.000000000000000000, 1.224646799147353207E-16 ) ) ;
#123 = PERSON_AND_ORGANIZATION ( #192, #201 ) ;
#124 = EDGE_CURVE ( 'NONE', #255, #255, #56, .T. ) ;
#125 = DIRECTION ( 'NONE',  ( 1.000000000000000000, 0.0000000000000000000, 0.0000000000000000000 ) ) ;
#126 = PERSON_AND_ORGANIZATION ( #192, #201 ) ;
#127 = PERSON_AND_ORGANIZATION ( #192, #201 ) ;
#128 = DIRECTION ( 'NONE',  ( 0.0000000000000000000, 1.000000000000000000, 0.0000000000000000000 ) ) ;
#129 = ADVANCED_FACE ( 'NONE', ( #107 ), #10, .F. ) ;
#130 = AXIS2_PLACEMENT_3D ( 'NONE', #94, #134, #70 ) ;
#131 = FACE_OUTER_BOUND ( 'NONE', #171, .T. ) ;
#132 = CIRCLE ( 'NONE', #86, 0.9103844939755811883 ) ;
#133 = PLANE ( 'NONE',  #268 ) ;
#134 = DIRECTION ( 'NONE',  ( 3.491481338843133355E-15, -1.224646799147353207E-16, 1.000000000000000000 ) ) ;
#135 = DIRECTION ( 'NONE',  ( -3.491481338843133355E-15, 1.224646799147353207E-16, -1.000000000000000000 ) ) ;
#136 = VERTEX_POINT ( 'NONE', #291 ) ;
#137 = CIRCLE ( 'NONE', #105, 0.8856624327025947041 ) ;
#138 = AXIS2_PLACEMENT_3D ( 'NONE', #218, #42, #214 ) ;
#139 = DIRECTION ( 'NONE',  ( -3.491481338843133355E-15, 1.224646799147353207E-16, -1.000000000000000000 ) ) ;
#140 = FACE_OUTER_BOUND ( 'NONE', #43, .T. ) ;
#141 = EDGE_LOOP ( 'NONE', ( #39 ) ) ;
#142 = ADVANCED_FACE ( 'NONE', ( #35 ), #133, .T. ) ;
#143 = APPLICATION_CONTEXT ( 'configuration controlled 3d designs of mechanical parts and assemblies' ) ;
#144 = DIRECTION ( 'NONE',  ( 0.0000000000000000000, 1.000000000000000000, 0.0000000000000000000 ) ) ;
#145 = DIRECTION ( 'NONE',  ( 4.275831445896958607E-31, 1.000000000000000000, 1.224646799147353454E-16 ) ) ;
#146 = PRODUCT ( '327055', '327055', '', ( #55 ) ) ;
#147 = CONICAL_SURFACE ( 'NONE', #46, 1.200000000000001732, 0.7853981633974453924 ) ;
#148 = ADVANCED_FACE ( 'NONE', ( #273, #131 ), #99, .T. ) ;
#149 = DATE_AND_TIME ( #258, #120 ) ;
#150 = APPROVAL_STATUS ( 'not_yet_approved' ) ;
#151 = CARTESIAN_POINT ( 'NONE',  ( 6.405924284287275164E-14, -2.246895775456749140E-15, 18.34729635533384595 ) ) ;
#152 = COORDINATED_UNIVERSAL_TIME_OFFSET ( 1, 0, .AHEAD. ) ;
#153 = CONICAL_SURFACE ( 'NONE', #164, 1.029999999999998916, 0.5235987755982923764 ) ;
#154 = APPROVAL_ROLE ( '' ) ;
#155 = ORIENTED_EDGE ( 'NONE', *, *, #156, .T. ) ;
#156 = EDGE_CURVE ( 'NONE', #18, #18, #132, .T. ) ;
#158 = EDGE_LOOP ( 'NONE', ( #155 ) ) ;
#157 = CARTESIAN_POINT ( 'NONE',  ( 2.793185071074506684E-14, -9.797174393178825657E-16, 8.000000000000000000 ) ) ;
#159 = ADVANCED_BREP_SHAPE_REPRESENTATION ( '327055', ( #7, #114, #191 ), #111 ) ;
#160 = CC_DESIGN_SECURITY_CLASSIFICATION ( #73, ( #279 ) ) ;
#161 = VERTEX_POINT ( 'NONE', #248 ) ;
#162 = DIRECTION ( 'NONE',  ( -3.491481338843133355E-15, 1.224646799147353207E-16, -1.000000000000000000 ) ) ;
#163 = ORIENTED_EDGE ( 'NONE', *, *, #233, .T. ) ;
#164 = AXIS2_PLACEMENT_3D ( 'NONE', #67, #63, #100 ) ;
#165 = CC_DESIGN_DATE_AND_TIME_ASSIGNMENT ( #78, #276, ( #73 ) ) ;
#166 = CARTESIAN_POINT ( 'NONE',  ( 1.735266225405037467E-13, 1.499999999999995559, 49.70000000000000284 ) ) ;
#167 = EDGE_LOOP ( 'NONE', ( #48 ) ) ;
#168 = CARTESIAN_POINT ( 'NONE',  ( 6.284666409917640040E-14, 0.8799999999999980060, 18.00000000000000000 ) ) ;
#169 = EDGE_LOOP ( 'NONE', ( #6 ) ) ;
#170 = AXIS2_PLACEMENT_3D ( 'NONE', #292, #47, #209 ) ;
#171 = EDGE_LOOP ( 'NONE', ( #33 ) ) ;
#172 = CALENDAR_DATE ( 2021, 1, 12 ) ;
#173 = PERSON_AND_ORGANIZATION_ROLE ( 'design_supplier' ) ;
#174 = DIRECTION ( 'NONE',  ( 0.0000000000000000000, 1.000000000000000000, 0.0000000000000000000 ) ) ;
#175 = APPROVAL_ROLE ( '' ) ;
#176 = ADVANCED_FACE ( 'NONE', ( #277, #3 ), #153, .T. ) ;
#177 = CC_DESIGN_APPROVAL ( #256, ( #279 ) ) ;
#178 = DIRECTION ( 'NONE',  ( 0.0000000000000000000, 1.000000000000000000, 0.0000000000000000000 ) ) ;
#179 = DIRECTION ( 'NONE',  ( -3.491481338843133355E-15, 1.224646799147353207E-16, -1.000000000000000000 ) ) ;
#180 = AXIS2_PLACEMENT_3D ( 'NONE', #206, #139, #254 ) ;
#181 = VERTEX_POINT ( 'NONE', #72 ) ;
#182 = LOCAL_TIME ( 15, 4, 3.000000000000000000, #95 ) ;
#183 = CYLINDRICAL_SURFACE ( 'NONE', #180, 1.499999999999999112 ) ;
#184 =( NAMED_UNIT ( * ) SI_UNIT ( $, .STERADIAN. ) SOLID_ANGLE_UNIT ( ) );
#185 = PRODUCT_RELATED_PRODUCT_CATEGORY ( 'detail', '', ( #146 ) ) ;
#186 = FACE_BOUND ( 'NONE', #298, .T. ) ;
#187 = DIRECTION ( 'NONE',  ( -3.491481338843133355E-15, 1.224646799147353207E-16, -1.000000000000000000 ) ) ;
#188 = APPROVAL_DATE_TIME ( #270, #88 ) ;
#189 = CIRCLE ( 'NONE', #234, 0.8800000000000001155 ) ;
#190 = PERSON_AND_ORGANIZATION_ROLE ( 'design_owner' ) ;
#191 = AXIS2_PLACEMENT_3D ( 'NONE', #23, #58, #125 ) ;
#192 = PERSON ( 'UNSPECIFIED', 'UNSPECIFIED', 'UNSPECIFIED', ('UNSPECIFIED'), ('UNSPECIFIED'), ('UNSPECIFIED') ) ;
#193 = ADVANCED_FACE ( 'NONE', ( #287, #61 ), #64, .F. ) ;
#194 = APPROVAL_STATUS ( 'not_yet_approved' ) ;
#195 = DIRECTION ( 'NONE',  ( -3.491481338843133355E-15, 1.224646799147353207E-16, -1.000000000000000000 ) ) ;
#196 = AXIS2_PLACEMENT_3D ( 'NONE', #235, #98, #247 ) ;
#197 = DIRECTION ( 'NONE',  ( -3.491481338843133355E-15, 1.224646799147353207E-16, -1.000000000000000000 ) ) ;
#198 = ADVANCED_FACE ( 'NONE', ( #282, #57 ), #59, .T. ) ;
#199 = CARTESIAN_POINT ( 'NONE',  ( 2.793185071074506684E-14, 7.723762880708553269E-33, 8.000000000000000000 ) ) ;
#200 = EDGE_LOOP ( 'NONE', ( #202 ) ) ;
#201 = ORGANIZATION ( 'UNSPECIFIED', 'UNSPECIFIED', '' ) ;
#202 = ORIENTED_EDGE ( 'NONE', *, *, #9, .F. ) ;
#203 = ADVANCED_FACE ( 'NONE', ( #207, #54 ), #60, .T. ) ;
#204 = VERTEX_POINT ( 'NONE', #166 ) ;
#205 = ORIENTED_EDGE ( 'NONE', *, *, #156, .F. ) ;
#206 = CARTESIAN_POINT ( 'NONE',  ( 0.0000000000000000000, 0.0000000000000000000, 0.0000000000000000000 ) ) ;
#207 = FACE_BOUND ( 'NONE', #8, .T. ) ;
#208 = AXIS2_PLACEMENT_3D ( 'NONE', #263, #22, #122 ) ;
#209 = DIRECTION ( 'NONE',  ( 0.0000000000000000000, 1.000000000000000000, 0.0000000000000000000 ) ) ;
#210 = PERSON_AND_ORGANIZATION ( #192, #201 ) ;
#211 = CIRCLE ( 'NONE', #14, 0.8799999999999987832 ) ;
#212 = CC_DESIGN_PERSON_AND_ORGANIZATION_ASSIGNMENT ( #123, #190, ( #146 ) ) ;
#213 = APPROVAL_STATUS ( 'not_yet_approved' ) ;
#214 = DIRECTION ( 'NONE',  ( 4.275831445896958607E-31, 1.000000000000000000, 1.224646799147353207E-16 ) ) ;
#215 = CALENDAR_DATE ( 2021, 1, 12 ) ;
#216 = EDGE_LOOP ( 'NONE', ( #113 ) ) ;
#217 = CARTESIAN_POINT ( 'NONE',  ( 1.745740669421566678E-13, -6.123233995736766085E-15, 50.00000000000000000 ) ) ;
#218 = CARTESIAN_POINT ( 'NONE',  ( 0.0000000000000000000, 0.0000000000000000000, 0.0000000000000000000 ) ) ;
#219 = DIRECTION ( 'NONE',  ( 3.491481338843133355E-15, -1.224646799147353207E-16, 1.000000000000000000 ) ) ;
#220 = ADVANCED_FACE ( 'NONE', ( #222 ), #229, .F. ) ;
#221 = ORIENTED_EDGE ( 'NONE', *, *, #225, .F. ) ;
#222 = FACE_OUTER_BOUND ( 'NONE', #301, .T. ) ;
#223 =( LENGTH_UNIT ( ) NAMED_UNIT ( * ) SI_UNIT ( .MILLI., .METRE. ) );
#224 = DIRECTION ( 'NONE',  ( 0.0000000000000000000, 1.000000000000000000, 0.0000000000000000000 ) ) ;
#225 = EDGE_CURVE ( 'NONE', #89, #89, #299, .T. ) ;
#226 = VERTEX_POINT ( 'NONE', #87 ) ;
#227 = DIRECTION ( 'NONE',  ( -3.491481338843133355E-15, 1.224646799147353207E-16, -1.000000000000000000 ) ) ;
#228 = EDGE_LOOP ( 'NONE', ( #253 ) ) ;
#229 = PLANE ( 'NONE',  #196 ) ;
#230 = PLANE ( 'NONE',  #290 ) ;
#231 = ORIENTED_EDGE ( 'NONE', *, *, #233, .F. ) ;
#232 = DIRECTION ( 'NONE',  ( 3.491481338843133355E-15, -1.224646799147353207E-16, 1.000000000000000000 ) ) ;
#233 = EDGE_CURVE ( 'NONE', #181, #181, #106, .T. ) ;
#234 = AXIS2_PLACEMENT_3D ( 'NONE', #102, #197, #283 ) ;
#235 = CARTESIAN_POINT ( 'NONE',  ( 1.745740669421566678E-13, 8.998558695971067645E-33, 50.00000000000000000 ) ) ;
#236 = DATE_AND_TIME ( #62, #260 ) ;
#237 = APPLICATION_PROTOCOL_DEFINITION ( 'international standard', 'config_control_design', 1994, #66 ) ;
#238 = ADVANCED_FACE ( 'NONE', ( #44, #11 ), #183, .T. ) ;
#239 = CLOSED_SHELL ( 'NONE', ( #129, #249, #198, #193, #203, #238, #280, #220 ) ) ;
#240 = CC_DESIGN_APPROVAL ( #88, ( #73 ) ) ;
#241 = PERSON_AND_ORGANIZATION ( #192, #201 ) ;
#242 = DATE_AND_TIME ( #172, #45 ) ;
#243 = DIRECTION ( 'NONE',  ( -3.491481338843133355E-15, 1.224646799147353207E-16, -1.000000000000000000 ) ) ;
#244 = CARTESIAN_POINT ( 'NONE',  ( 0.0000000000000000000, 0.0000000000000000000, 0.0000000000000000000 ) ) ;
#245 = EDGE_CURVE ( 'NONE', #161, #161, #27, .T. ) ;
#246 = AXIS2_PLACEMENT_3D ( 'NONE', #91, #162, #40 ) ;
#247 = DIRECTION ( 'NONE',  ( 4.275831445896958607E-31, 1.000000000000000000, 1.224646799147353207E-16 ) ) ;
#248 = CARTESIAN_POINT ( 'NONE',  ( 2.793185071074506684E-14, 1.029999999999998916, 8.000000000000000000 ) ) ;
#249 = ADVANCED_FACE ( 'NONE', ( #140, #38 ), #36, .T. ) ;
#250 = ORIENTED_EDGE ( 'NONE', *, *, #20, .T. ) ;
#251 = DIRECTION ( 'NONE',  ( 3.739669794926675318E-31, 1.000000000000000000, 1.052623468432529635E-16 ) ) ;
#252 = LOCAL_TIME ( 15, 4, 3.000000000000000000, #302 ) ;
#253 = ORIENTED_EDGE ( 'NONE', *, *, #245, .T. ) ;
#254 = DIRECTION ( 'NONE',  ( 4.275831445896958607E-31, 1.000000000000000000, 1.224646799147353454E-16 ) ) ;
#255 = VERTEX_POINT ( 'NONE', #288 ) ;
#256 = APPROVAL ( #150, 'UNSPECIFIED' ) ;
#257 = APPROVAL_PERSON_ORGANIZATION ( #126, #88, #175 ) ;
#258 = CALENDAR_DATE ( 2021, 1, 12 ) ;
#259 = PERSON_AND_ORGANIZATION ( #192, #201 ) ;
#260 = LOCAL_TIME ( 15, 4, 3.000000000000000000, #297 ) ;
#261 = APPLICATION_PROTOCOL_DEFINITION ( 'international standard', 'config_control_design', 1994, #143 ) ;
#262 = APPROVAL ( #194, 'UNSPECIFIED' ) ;
#263 = CARTESIAN_POINT ( 'NONE',  ( 6.284666409917640040E-14, -2.168404344971008868E-15, 18.00000000000000000 ) ) ;
#264 = CARTESIAN_POINT ( 'NONE',  ( 8.728703347107829444E-16, -3.061616997868381785E-17, 0.2499999999999998890 ) ) ;
#265 = AXIS2_PLACEMENT_3D ( 'NONE', #157, #135, #224 ) ;
#266 = DIRECTION ( 'NONE',  ( 0.0000000000000000000, 1.000000000000000000, 0.0000000000000000000 ) ) ;
#267 = ORIENTED_EDGE ( 'NONE', *, *, #20, .F. ) ;
#268 = AXIS2_PLACEMENT_3D ( 'NONE', #96, #219, #65 ) ;
#269 = CARTESIAN_POINT ( 'NONE',  ( -1.893471640099676843E-31, 6.641404487909079143E-33, -5.423118316671454398E-17 ) ) ;
#270 = DATE_AND_TIME ( #82, #252 ) ;
#271 = EDGE_LOOP ( 'NONE', ( #76 ) ) ;
#272 = AXIS2_PLACEMENT_3D ( 'NONE', #217, #80, #128 ) ;
#273 = FACE_OUTER_BOUND ( 'NONE', #293, .T. ) ;
#274 = COORDINATED_UNIVERSAL_TIME_OFFSET ( 1, 0, .AHEAD. ) ;
#275 = UNCERTAINTY_MEASURE_WITH_UNIT (LENGTH_MEASURE( 1.000000000000000082E-05 ), #223, 'distance_accuracy_value', 'NONE');
#276 = DATE_TIME_ROLE ( 'classification_date' ) ;
#277 = FACE_BOUND ( 'NONE', #200, .T. ) ;
#278 = APPROVAL_DATE_TIME ( #242, #262 ) ;
#279 = PRODUCT_DEFINITION_FORMATION_WITH_SPECIFIED_SOURCE ( 'ANY', '', #146, .NOT_KNOWN. ) ;
#280 = ADVANCED_FACE ( 'NONE', ( #115, #186 ), #147, .T. ) ;
#281 = ORIENTED_EDGE ( 'NONE', *, *, #245, .F. ) ;
#282 = FACE_OUTER_BOUND ( 'NONE', #53, .T. ) ;
#283 = DIRECTION ( 'NONE',  ( 0.0000000000000000000, 1.000000000000000000, 0.0000000000000000000 ) ) ;
#284 = ADVANCED_FACE ( 'NONE', ( #112 ), #230, .F. ) ;
#285 = DIRECTION ( 'NONE',  ( 3.491481338843133355E-15, -1.224646799147353207E-16, 1.000000000000000000 ) ) ;
#286 = PRODUCT_DEFINITION_SHAPE ( 'NONE', 'NONE',  #303 ) ;
#287 = FACE_OUTER_BOUND ( 'NONE', #108, .T. ) ;
#288 = CARTESIAN_POINT ( 'NONE',  ( 2.793185071074506684E-14, 1.029999999999998916, 8.000000000000000000 ) ) ;
#289 = CC_DESIGN_PERSON_AND_ORGANIZATION_ASSIGNMENT ( #24, #97, ( #73 ) ) ;
#290 = AXIS2_PLACEMENT_3D ( 'NONE', #269, #232, #116 ) ;
#291 = CARTESIAN_POINT ( 'NONE',  ( 2.883896417162832445E-14, 0.8799999999999978950, 8.259807621135337286 ) ) ;
#292 = CARTESIAN_POINT ( 'NONE',  ( 2.793185071074506684E-14, -9.797174393178825657E-16, 8.000000000000000000 ) ) ;
#293 = EDGE_LOOP ( 'NONE', ( #231 ) ) ;
#294 = APPROVAL_PERSON_ORGANIZATION ( #241, #256, #21 ) ;
#295 = VERTEX_POINT ( 'NONE', #168 ) ;
#296 = DATE_TIME_ROLE ( 'creation_date' ) ;
#297 = COORDINATED_UNIVERSAL_TIME_OFFSET ( 1, 0, .AHEAD. ) ;
#298 = EDGE_LOOP ( 'NONE', ( #250 ) ) ;
#299 = CIRCLE ( 'NONE', #246, 1.499999999999996669 ) ;
#300 = PERSON_AND_ORGANIZATION_ROLE ( 'creator' ) ;
#301 = EDGE_LOOP ( 'NONE', ( #267 ) ) ;
#302 = COORDINATED_UNIVERSAL_TIME_OFFSET ( 1, 0, .AHEAD. ) ;
#303 = PRODUCT_DEFINITION ( 'UNKNOWN', '', #279, #81 ) ;
ENDSEC;
END-ISO-10303-21;
