ISO-10303-21;
HEADER;
FILE_DESCRIPTION (( 'STEP AP203' ),
    '1' );
FILE_NAME ('327054.step',
    '2021-12-01T14:04:02',
    ( '' ),
    ( '' ),
    'SwSTEP 2.0',
    'SolidWorks 2019',
    '' );
FILE_SCHEMA (( 'CONFIG_CONTROL_DESIGN' ));
ENDSEC;

DATA;
#1 = AXIS2_PLACEMENT_3D ( 'NONE', #165, #44, #233 ) ;
#2 = APPROVAL_PERSON_ORGANIZATION ( #84, #67, #202 ) ;
#3 = EDGE_LOOP ( 'NONE', ( #56 ) ) ;
#4 = APPROVAL_ROLE ( '' ) ;
#5 = EDGE_LOOP ( 'NONE', ( #100 ) ) ;
#6 = APPLICATION_PROTOCOL_DEFINITION ( 'international standard', 'config_control_design', 1994, #184 ) ;
#7 = CC_DESIGN_SECURITY_CLASSIFICATION ( #225, ( #29 ) ) ;
#8 = ORIENTED_EDGE ( 'NONE', *, *, #250, .F. ) ;
#9 = FACE_OUTER_BOUND ( 'NONE', #242, .T. ) ;
#10 = EDGE_CURVE ( 'NONE', #197, #197, #246, .T. ) ;
#11 = CARTESIAN_POINT ( 'NONE',  ( 2.883896417162832445E-14, 0.8649999999999977707, 8.259807621135337286 ) ) ;
#12 = VERTEX_POINT ( 'NONE', #130 ) ;
#13 = DIRECTION ( 'NONE',  ( 0.0000000000000000000, 1.000000000000000000, 0.0000000000000000000 ) ) ;
#14 = MECHANICAL_CONTEXT ( 'NONE', #146, 'mechanical' ) ;
#15 = CARTESIAN_POINT ( 'NONE',  ( 2.793185071074506684E-14, 1.014999999999998792, 8.000000000000000000 ) ) ;
#16 = ADVANCED_FACE ( 'NONE', ( #105, #199 ), #153, .T. ) ;
#17 = VERTEX_POINT ( 'NONE', #40 ) ;
#18 = PERSON_AND_ORGANIZATION ( #167, #178 ) ;
#19 = DIRECTION ( 'NONE',  ( 0.0000000000000000000, 1.000000000000000000, 0.0000000000000000000 ) ) ;
#20 = DIRECTION ( 'NONE',  ( 0.0000000000000000000, 1.000000000000000000, 0.0000000000000000000 ) ) ;
#21 = CC_DESIGN_PERSON_AND_ORGANIZATION_ASSIGNMENT ( #191, #287, ( #59 ) ) ;
#22 = DATE_TIME_ROLE ( 'creation_date' ) ;
#23 = AXIS2_PLACEMENT_3D ( 'NONE', #277, #134, #229 ) ;
#24 = FACE_OUTER_BOUND ( 'NONE', #3, .T. ) ;
#25 = DIRECTION ( 'NONE',  ( -3.491481338843133355E-15, 1.224646799147353207E-16, -1.000000000000000000 ) ) ;
#26 = FACE_BOUND ( 'NONE', #259, .T. ) ;
#27 = VERTEX_POINT ( 'NONE', #211 ) ;
#28 = ORIENTED_EDGE ( 'NONE', *, *, #42, .T. ) ;
#29 = PRODUCT_DEFINITION_FORMATION_WITH_SPECIFIED_SOURCE ( 'ANY', '', #59, .NOT_KNOWN. ) ;
#30 = DIRECTION ( 'NONE',  ( -3.794935851009336428E-31, -1.000000000000000000, -1.068179480281286479E-16 ) ) ;
#31 = ORIENTED_EDGE ( 'NONE', *, *, #119, .F. ) ;
#32 = EDGE_CURVE ( 'NONE', #266, #266, #118, .T. ) ;
#33 = ORIENTED_EDGE ( 'NONE', *, *, #81, .F. ) ;
#34 = CONICAL_SURFACE ( 'NONE', #192, 0.8649999999999987699, 0.5235987755982934866 ) ;
#35 = PERSON_AND_ORGANIZATION ( #167, #178 ) ;
#36 = FACE_BOUND ( 'NONE', #240, .T. ) ;
#37 = ADVANCED_FACE ( 'NONE', ( #222 ), #265, .T. ) ;
#38 = COORDINATED_UNIVERSAL_TIME_OFFSET ( 1, 0, .AHEAD. ) ;
#39 = CARTESIAN_POINT ( 'NONE',  ( 8.728703347107833388E-16, 1.014999999999998792, 0.2500000000000000000 ) ) ;
#40 = CARTESIAN_POINT ( 'NONE',  ( 2.793185071074506684E-14, 1.014999999999998792, 8.000000000000000000 ) ) ;
#41 = DATE_TIME_ROLE ( 'classification_date' ) ;
#42 = EDGE_CURVE ( 'NONE', #245, #245, #203, .T. ) ;
#43 = APPROVAL_PERSON_ORGANIZATION ( #35, #180, #104 ) ;
#44 = DIRECTION ( 'NONE',  ( 3.491481338843133355E-15, -1.224646799147353207E-16, 1.000000000000000000 ) ) ;
#45 = CALENDAR_DATE ( 2021, 1, 12 ) ;
#46 = DIRECTION ( 'NONE',  ( -4.275831445896958607E-31, -1.000000000000000000, -1.224646799147353207E-16 ) ) ;
#47 = DATE_AND_TIME ( #45, #268 ) ;
#48 = CARTESIAN_POINT ( 'NONE',  ( 1.745740669421566678E-13, -6.123233995736766085E-15, 50.00000000000000000 ) ) ;
#49 = CONICAL_SURFACE ( 'NONE', #1, 1.499999999999996669, 0.1745329251994262310 ) ;
#50 = CC_DESIGN_APPROVAL ( #180, ( #248 ) ) ;
#51 = DATE_AND_TIME ( #291, #213 ) ;
#52 = DIRECTION ( 'NONE',  ( -3.491481338843133355E-15, 1.224646799147353207E-16, -1.000000000000000000 ) ) ;
#53 = FACE_OUTER_BOUND ( 'NONE', #282, .T. ) ;
#54 = EDGE_LOOP ( 'NONE', ( #96 ) ) ;
#55 = APPROVAL_DATE_TIME ( #51, #140 ) ;
#56 = ORIENTED_EDGE ( 'NONE', *, *, #32, .F. ) ;
#57 = EDGE_LOOP ( 'NONE', ( #80 ) ) ;
#58 = COORDINATED_UNIVERSAL_TIME_OFFSET ( 1, 0, .AHEAD. ) ;
#59 = PRODUCT ( '327054', '327054', '', ( #14 ) ) ;
#60 = ORIENTED_EDGE ( 'NONE', *, *, #81, .T. ) ;
#61 = PERSON_AND_ORGANIZATION ( #167, #178 ) ;
#62 = EDGE_LOOP ( 'NONE', ( #174 ) ) ;
#63 = AXIS2_PLACEMENT_3D ( 'NONE', #159, #94, #112 ) ;
#64 = APPROVAL_DATE_TIME ( #221, #67 ) ;
#65 = CARTESIAN_POINT ( 'NONE',  ( 8.728703347107829444E-16, -3.061616997868381785E-17, 0.2499999999999998890 ) ) ;
#66 = CIRCLE ( 'NONE', #155, 0.8649999999999987699 ) ;
#67 = APPROVAL ( #126, 'UNSPECIFIED' ) ;
#68 = DIRECTION ( 'NONE',  ( 0.0000000000000000000, 0.0000000000000000000, 1.000000000000000000 ) ) ;
#69 = DIRECTION ( 'NONE',  ( 0.0000000000000000000, 1.000000000000000000, 0.0000000000000000000 ) ) ;
#70 = CIRCLE ( 'NONE', #224, 1.200000000000001732 ) ;
#71 = FACE_OUTER_BOUND ( 'NONE', #288, .T. ) ;
#72 = PLANE ( 'NONE',  #286 ) ;
#73 = MANIFOLD_SOLID_BREP ( 'Corps-Déplacer/Copier1[1]', #249 ) ;
#74 = FACE_OUTER_BOUND ( 'NONE', #173, .T. ) ;
#75 = PLANE ( 'NONE',  #114 ) ;
#76 = ORIENTED_EDGE ( 'NONE', *, *, #78, .T. ) ;
#77 = DIRECTION ( 'NONE',  ( 0.0000000000000000000, 1.000000000000000000, 0.0000000000000000000 ) ) ;
#78 = EDGE_CURVE ( 'NONE', #181, #181, #66, .T. ) ;
#79 = EDGE_LOOP ( 'NONE', ( #258 ) ) ;
#80 = ORIENTED_EDGE ( 'NONE', *, *, #289, .F. ) ;
#81 = EDGE_CURVE ( 'NONE', #179, #179, #144, .T. ) ;
#82 = DIRECTION ( 'NONE',  ( -3.491481338843133355E-15, 1.224646799147353207E-16, -1.000000000000000000 ) ) ;
#83 = CC_DESIGN_PERSON_AND_ORGANIZATION_ASSIGNMENT ( #61, #93, ( #29 ) ) ;
#84 = PERSON_AND_ORGANIZATION ( #167, #178 ) ;
#85 = CARTESIAN_POINT ( 'NONE',  ( 2.793185071074506684E-14, 7.611280897008910391E-33, 8.000000000000000000 ) ) ;
#86 = ADVANCED_FACE ( 'NONE', ( #162 ), #75, .F. ) ;
#87 = CARTESIAN_POINT ( 'NONE',  ( 7.603134006802638263E-14, -2.666820418408535974E-15, 21.77624128250921132 ) ) ;
#88 = COORDINATED_UNIVERSAL_TIME_OFFSET ( 1, 0, .AHEAD. ) ;
#89 = CC_DESIGN_APPROVAL ( #140, ( #29 ) ) ;
#90 = CYLINDRICAL_SURFACE ( 'NONE', #232, 0.8649999999999993250 ) ;
#91 = CYLINDRICAL_SURFACE ( 'NONE', #129, 1.014999999999999458 ) ;
#92 = PERSON_AND_ORGANIZATION_ROLE ( 'creator' ) ;
#93 = PERSON_AND_ORGANIZATION_ROLE ( 'creator' ) ;
#94 = DIRECTION ( 'NONE',  ( -3.491481338843133355E-15, 1.224646799147353207E-16, -1.000000000000000000 ) ) ;
#95 = COORDINATED_UNIVERSAL_TIME_OFFSET ( 1, 0, .AHEAD. ) ;
#96 = ORIENTED_EDGE ( 'NONE', *, *, #10, .T. ) ;
#97 = CARTESIAN_POINT ( 'NONE',  ( 1.735266225405037467E-13, -6.086494591762345225E-15, 49.70000000000000284 ) ) ;
#98 = EDGE_LOOP ( 'NONE', ( #31 ) ) ;
#99 = DIRECTION ( 'NONE',  ( -3.491481338843133355E-15, 1.224646799147353207E-16, -1.000000000000000000 ) ) ;
#100 = ORIENTED_EDGE ( 'NONE', *, *, #32, .T. ) ;
#101 = AXIS2_PLACEMENT_3D ( 'NONE', #110, #237, #30 ) ;
#102 = LOCAL_TIME ( 15, 4, 2.000000000000000000, #58 ) ;
#103 = ADVANCED_FACE ( 'NONE', ( #251, #205 ), #49, .T. ) ;
#104 = APPROVAL_ROLE ( '' ) ;
#105 = FACE_OUTER_BOUND ( 'NONE', #149, .T. ) ;
#106 = CARTESIAN_POINT ( 'NONE',  ( 1.745740669421566678E-13, -6.123233995736766085E-15, 50.00000000000000000 ) ) ;
#107 = ADVANCED_FACE ( 'NONE', ( #71 ), #188, .F. ) ;
#108 = APPLICATION_PROTOCOL_DEFINITION ( 'international standard', 'config_control_design', 1994, #146 ) ;
#109 = AXIS2_PLACEMENT_3D ( 'NONE', #87, #210, #206 ) ;
#110 = CARTESIAN_POINT ( 'NONE',  ( 8.728703347107829444E-16, -3.061616997868381785E-17, 0.2499999999999998890 ) ) ;
#111 = PERSON_AND_ORGANIZATION_ROLE ( 'classification_officer' ) ;
#112 = DIRECTION ( 'NONE',  ( 0.0000000000000000000, 1.000000000000000000, 0.0000000000000000000 ) ) ;
#113 = FACE_BOUND ( 'NONE', #123, .T. ) ;
#114 = AXIS2_PLACEMENT_3D ( 'NONE', #169, #296, #46 ) ;
#115 = FACE_OUTER_BOUND ( 'NONE', #54, .T. ) ;
#116 = CC_DESIGN_DATE_AND_TIME_ASSIGNMENT ( #47, #41, ( #225 ) ) ;
#117 = DIRECTION ( 'NONE',  ( 4.275831445896958607E-31, 1.000000000000000000, 1.224646799147353207E-16 ) ) ;
#118 = CIRCLE ( 'NONE', #160, 1.014999999999998792 ) ;
#119 = EDGE_CURVE ( 'NONE', #220, #220, #280, .T. ) ;
#120 = ORIENTED_EDGE ( 'NONE', *, *, #10, .F. ) ;
#121 = PERSON_AND_ORGANIZATION ( #167, #178 ) ;
#122 = CARTESIAN_POINT ( 'NONE',  ( 2.793185071074506684E-14, -9.797174393178825657E-16, 8.000000000000000000 ) ) ;
#123 = EDGE_LOOP ( 'NONE', ( #76 ) ) ;
#124 = CONICAL_SURFACE ( 'NONE', #294, 1.200000000000001732, 0.7853981633974453924 ) ;
#125 = APPROVAL_STATUS ( 'not_yet_approved' ) ;
#126 = APPROVAL_STATUS ( 'not_yet_approved' ) ;
#127 = DIRECTION ( 'NONE',  ( 4.275831445896958607E-31, 1.000000000000000000, 1.224646799147353454E-16 ) ) ;
#128 = AXIS2_PLACEMENT_3D ( 'NONE', #97, #99, #77 ) ;
#129 = AXIS2_PLACEMENT_3D ( 'NONE', #254, #142, #141 ) ;
#130 = CARTESIAN_POINT ( 'NONE',  ( 1.745740669421566678E-13, 1.199999999999995515, 50.00000000000000000 ) ) ;
#131 = CARTESIAN_POINT ( 'NONE',  ( 0.0000000000000000000, 0.0000000000000000000, 0.0000000000000000000 ) ) ;
#132 = ADVANCED_FACE ( 'NONE', ( #256, #113 ), #34, .T. ) ;
#133 = AXIS2_PLACEMENT_3D ( 'NONE', #243, #290, #127 ) ;
#134 = DIRECTION ( 'NONE',  ( 3.491481338843133355E-15, -1.224646799147353207E-16, 1.000000000000000000 ) ) ;
#135 = DIRECTION ( 'NONE',  ( -3.491481338843133355E-15, 1.224646799147353207E-16, -1.000000000000000000 ) ) ;
#136 = CALENDAR_DATE ( 2021, 1, 12 ) ;
#137 = DIRECTION ( 'NONE',  ( -4.275831445896958607E-31, -1.000000000000000000, -1.224646799147353207E-16 ) ) ;
#138 = TOROIDAL_SURFACE ( 'NONE', #219, 2.864999999999999769, 2.000000000000000000 ) ;
#139 = LOCAL_TIME ( 15, 4, 2.000000000000000000, #95 ) ;
#140 = APPROVAL ( #209, 'UNSPECIFIED' ) ;
#141 = DIRECTION ( 'NONE',  ( 4.275831445896957731E-31, 1.000000000000000000, 1.224646799147353207E-16 ) ) ;
#142 = DIRECTION ( 'NONE',  ( -3.491481338843133355E-15, 1.224646799147353207E-16, -1.000000000000000000 ) ) ;
#143 = EDGE_CURVE ( 'NONE', #269, #269, #200, .T. ) ;
#144 = CIRCLE ( 'NONE', #63, 0.8649999999999998801 ) ;
#145 =( NAMED_UNIT ( * ) PLANE_ANGLE_UNIT ( ) SI_UNIT ( $, .RADIAN. ) );
#146 = APPLICATION_CONTEXT ( 'configuration controlled 3d designs of mechanical parts and assemblies' ) ;
#147 = ORIENTED_EDGE ( 'NONE', *, *, #143, .T. ) ;
#148 = PERSON_AND_ORGANIZATION ( #167, #178 ) ;
#149 = EDGE_LOOP ( 'NONE', ( #241 ) ) ;
#150 = EDGE_CURVE ( 'NONE', #17, #17, #238, .T. ) ;
#151 = EDGE_LOOP ( 'NONE', ( #285 ) ) ;
#152 =( GEOMETRIC_REPRESENTATION_CONTEXT ( 3 ) GLOBAL_UNCERTAINTY_ASSIGNED_CONTEXT ( ( #163 ) ) GLOBAL_UNIT_ASSIGNED_CONTEXT ( ( #297, #145, #193 ) ) REPRESENTATION_CONTEXT ( 'NONE', 'WORKASPACE' ) );
#153 = CYLINDRICAL_SURFACE ( 'NONE', #133, 1.499999999999999112 ) ;
#154 = CARTESIAN_POINT ( 'NONE',  ( 7.603134006802638263E-14, 1.499999999999994005, 21.77624128250921132 ) ) ;
#155 = AXIS2_PLACEMENT_3D ( 'NONE', #279, #52, #69 ) ;
#156 = LOCAL_TIME ( 15, 4, 2.000000000000000000, #88 ) ;
#157 = CARTESIAN_POINT ( 'NONE',  ( 0.0000000000000000000, 0.8706624327025944687, 0.0000000000000000000 ) ) ;
#158 = CC_DESIGN_PERSON_AND_ORGANIZATION_ASSIGNMENT ( #18, #111, ( #225 ) ) ;
#159 = CARTESIAN_POINT ( 'NONE',  ( 6.284666409917640040E-14, -2.204364238465235428E-15, 18.00000000000000000 ) ) ;
#160 = AXIS2_PLACEMENT_3D ( 'NONE', #65, #82, #177 ) ;
#161 = DIRECTION ( 'NONE',  ( 4.275831445896958607E-31, 1.000000000000000000, 1.224646799147353207E-16 ) ) ;
#162 = FACE_OUTER_BOUND ( 'NONE', #79, .T. ) ;
#163 = UNCERTAINTY_MEASURE_WITH_UNIT (LENGTH_MEASURE( 1.000000000000000082E-05 ), #297, 'distance_accuracy_value', 'NONE');
#164 = CARTESIAN_POINT ( 'NONE',  ( 1.745740669421566678E-13, 8.998558695971067645E-33, 50.00000000000000000 ) ) ;
#165 = CARTESIAN_POINT ( 'NONE',  ( 7.603134006802638263E-14, -2.666820418408535974E-15, 21.77624128250921132 ) ) ;
#166 = CLOSED_SHELL ( 'NONE', ( #107, #283, #260, #37 ) ) ;
#167 = PERSON ( 'UNSPECIFIED', 'UNSPECIFIED', 'UNSPECIFIED', ('UNSPECIFIED'), ('UNSPECIFIED'), ('UNSPECIFIED') ) ;
#168 = CARTESIAN_POINT ( 'NONE',  ( 6.284666409917640040E-14, -2.168404344971008868E-15, 18.00000000000000000 ) ) ;
#169 = CARTESIAN_POINT ( 'NONE',  ( 2.793185071074506684E-14, 7.611280897008910391E-33, 8.000000000000000000 ) ) ;
#170 = EDGE_LOOP ( 'NONE', ( #60 ) ) ;
#171 = CALENDAR_DATE ( 2021, 1, 12 ) ;
#172 = CONICAL_SURFACE ( 'NONE', #101, 1.014999999999998792, 0.5235987755982923764 ) ;
#173 = EDGE_LOOP ( 'NONE', ( #263 ) ) ;
#174 = ORIENTED_EDGE ( 'NONE', *, *, #119, .T. ) ;
#175 = MANIFOLD_SOLID_BREP ( 'Corps-Déplacer/Copier1[2]', #166 ) ;
#176 = ORIENTED_EDGE ( 'NONE', *, *, #289, .T. ) ;
#177 = DIRECTION ( 'NONE',  ( 3.794935851009336428E-31, 1.000000000000000000, 1.068179480281286479E-16 ) ) ;
#178 = ORGANIZATION ( 'UNSPECIFIED', 'UNSPECIFIED', '' ) ;
#179 = VERTEX_POINT ( 'NONE', #293 ) ;
#180 = APPROVAL ( #125, 'UNSPECIFIED' ) ;
#181 = VERTEX_POINT ( 'NONE', #11 ) ;
#182 = AXIS2_PLACEMENT_3D ( 'NONE', #85, #252, #137 ) ;
#183 = CARTESIAN_POINT ( 'NONE',  ( 6.405924284287275164E-14, -2.246895775456749140E-15, 18.34729635533384595 ) ) ;
#184 = APPLICATION_CONTEXT ( 'configuration controlled 3d designs of mechanical parts and assemblies' ) ;
#185 = CARTESIAN_POINT ( 'NONE',  ( 2.793185071074506684E-14, -9.797174393178825657E-16, 8.000000000000000000 ) ) ;
#186 = AXIS2_PLACEMENT_3D ( 'NONE', #185, #298, #302 ) ;
#187 = DIRECTION ( 'NONE',  ( -3.491481338843133355E-15, 1.224646799147353207E-16, -1.000000000000000000 ) ) ;
#188 = PLANE ( 'NONE',  #23 ) ;
#189 = SHAPE_DEFINITION_REPRESENTATION ( #271, #244 ) ;
#190 = DIRECTION ( 'NONE',  ( 4.275831445896958607E-31, 1.000000000000000000, 1.224646799147353207E-16 ) ) ;
#191 = PERSON_AND_ORGANIZATION ( #167, #178 ) ;
#192 = AXIS2_PLACEMENT_3D ( 'NONE', #208, #275, #19 ) ;
#193 =( NAMED_UNIT ( * ) SI_UNIT ( $, .STERADIAN. ) SOLID_ANGLE_UNIT ( ) );
#194 = DIRECTION ( 'NONE',  ( -3.491481338843133355E-15, 1.224646799147353207E-16, -1.000000000000000000 ) ) ;
#195 = CC_DESIGN_PERSON_AND_ORGANIZATION_ASSIGNMENT ( #121, #92, ( #248 ) ) ;
#196 = EDGE_LOOP ( 'NONE', ( #147 ) ) ;
#197 = VERTEX_POINT ( 'NONE', #15 ) ;
#198 = FACE_OUTER_BOUND ( 'NONE', #62, .T. ) ;
#199 = FACE_OUTER_BOUND ( 'NONE', #284, .T. ) ;
#200 = CIRCLE ( 'NONE', #109, 1.499999999999996669 ) ;
#201 = FACE_OUTER_BOUND ( 'NONE', #57, .T. ) ;
#202 = APPROVAL_ROLE ( '' ) ;
#203 = CIRCLE ( 'NONE', #212, 0.8706624327025944687 ) ;
#204 = DIRECTION ( 'NONE',  ( -3.491481338843133355E-15, 1.224646799147353207E-16, -1.000000000000000000 ) ) ;
#205 = FACE_OUTER_BOUND ( 'NONE', #196, .T. ) ;
#206 = DIRECTION ( 'NONE',  ( 0.0000000000000000000, 1.000000000000000000, 0.0000000000000000000 ) ) ;
#207 = AXIS2_PLACEMENT_3D ( 'NONE', #122, #194, #13 ) ;
#208 = CARTESIAN_POINT ( 'NONE',  ( 2.883896417162832445E-14, -1.011534696479630343E-15, 8.259807621135337286 ) ) ;
#209 = APPROVAL_STATUS ( 'not_yet_approved' ) ;
#210 = DIRECTION ( 'NONE',  ( -3.491481338843133355E-15, 1.224646799147353207E-16, -1.000000000000000000 ) ) ;
#211 = CARTESIAN_POINT ( 'NONE',  ( 1.735266225405037467E-13, 1.499999999999995559, 49.70000000000000284 ) ) ;
#212 = AXIS2_PLACEMENT_3D ( 'NONE', #230, #270, #117 ) ;
#213 = LOCAL_TIME ( 15, 4, 2.000000000000000000, #38 ) ;
#214 = DIRECTION ( 'NONE',  ( 1.000000000000000000, 0.0000000000000000000, 0.0000000000000000000 ) ) ;
#215 = ORIENTED_EDGE ( 'NONE', *, *, #250, .T. ) ;
#216 = CALENDAR_DATE ( 2021, 1, 12 ) ;
#217 = ORIENTED_EDGE ( 'NONE', *, *, #42, .F. ) ;
#218 = DATE_AND_TIME ( #216, #156 ) ;
#219 = AXIS2_PLACEMENT_3D ( 'NONE', #168, #25, #161 ) ;
#220 = VERTEX_POINT ( 'NONE', #300 ) ;
#221 = DATE_AND_TIME ( #171, #139 ) ;
#222 = FACE_OUTER_BOUND ( 'NONE', #262, .T. ) ;
#223 = ADVANCED_FACE ( 'NONE', ( #74, #273 ), #90, .T. ) ;
#224 = AXIS2_PLACEMENT_3D ( 'NONE', #48, #204, #231 ) ;
#225 = SECURITY_CLASSIFICATION ( '', '', #281 ) ;
#226 = DIRECTION ( 'NONE',  ( 0.0000000000000000000, 1.000000000000000000, 0.0000000000000000000 ) ) ;
#227 = ADVANCED_FACE ( 'NONE', ( #53 ), #72, .F. ) ;
#228 = AXIS2_PLACEMENT_3D ( 'NONE', #131, #68, #214 ) ;
#229 = DIRECTION ( 'NONE',  ( -4.275831445896958607E-31, -1.000000000000000000, -1.224646799147353207E-16 ) ) ;
#230 = CARTESIAN_POINT ( 'NONE',  ( -3.722805808510897791E-31, 1.305784500841887526E-32, -1.066253961347080129E-16 ) ) ;
#231 = DIRECTION ( 'NONE',  ( 0.0000000000000000000, 1.000000000000000000, 0.0000000000000000000 ) ) ;
#232 = AXIS2_PLACEMENT_3D ( 'NONE', #295, #187, #303 ) ;
#233 = DIRECTION ( 'NONE',  ( 0.0000000000000000000, -1.000000000000000000, 0.0000000000000000000 ) ) ;
#234 = DATE_AND_TIME ( #136, #102 ) ;
#235 = PRODUCT_RELATED_PRODUCT_CATEGORY ( 'detail', '', ( #59 ) ) ;
#236 = FACE_OUTER_BOUND ( 'NONE', #5, .T. ) ;
#237 = DIRECTION ( 'NONE',  ( 3.491481338843133355E-15, -1.224646799147353207E-16, 1.000000000000000000 ) ) ;
#238 = CIRCLE ( 'NONE', #186, 1.014999999999999902 ) ;
#239 = COORDINATED_UNIVERSAL_TIME_OFFSET ( 1, 0, .AHEAD. ) ;
#240 = EDGE_LOOP ( 'NONE', ( #215 ) ) ;
#241 = ORIENTED_EDGE ( 'NONE', *, *, #143, .F. ) ;
#242 = EDGE_LOOP ( 'NONE', ( #33 ) ) ;
#243 = CARTESIAN_POINT ( 'NONE',  ( 0.0000000000000000000, 0.0000000000000000000, 0.0000000000000000000 ) ) ;
#244 = ADVANCED_BREP_SHAPE_REPRESENTATION ( '327054', ( #73, #175, #228 ), #152 ) ;
#245 = VERTEX_POINT ( 'NONE', #157 ) ;
#246 = CIRCLE ( 'NONE', #207, 1.014999999999999902 ) ;
#247 = DIRECTION ( 'NONE',  ( -3.491481338843133355E-15, 1.224646799147353207E-16, -1.000000000000000000 ) ) ;
#248 = PRODUCT_DEFINITION ( 'UNKNOWN', '', #29, #301 ) ;
#249 = CLOSED_SHELL ( 'NONE', ( #86, #132, #223, #292, #103, #16, #299, #227 ) ) ;
#250 = EDGE_CURVE ( 'NONE', #12, #12, #70, .T. ) ;
#251 = FACE_BOUND ( 'NONE', #98, .T. ) ;
#252 = DIRECTION ( 'NONE',  ( 3.491481338843133355E-15, -1.224646799147353207E-16, 1.000000000000000000 ) ) ;
#253 = DIRECTION ( 'NONE',  ( -3.491481338843133355E-15, 1.224646799147353207E-16, -1.000000000000000000 ) ) ;
#254 = CARTESIAN_POINT ( 'NONE',  ( 0.0000000000000000000, 0.0000000000000000000, 0.0000000000000000000 ) ) ;
#255 = CC_DESIGN_PERSON_AND_ORGANIZATION_ASSIGNMENT ( #148, #257, ( #29 ) ) ;
#256 = FACE_OUTER_BOUND ( 'NONE', #151, .T. ) ;
#257 = PERSON_AND_ORGANIZATION_ROLE ( 'design_supplier' ) ;
#258 = ORIENTED_EDGE ( 'NONE', *, *, #150, .T. ) ;
#259 = EDGE_LOOP ( 'NONE', ( #217 ) ) ;
#260 = ADVANCED_FACE ( 'NONE', ( #24, #115 ), #91, .T. ) ;
#261 = CC_DESIGN_APPROVAL ( #67, ( #225 ) ) ;
#262 = EDGE_LOOP ( 'NONE', ( #120 ) ) ;
#263 = ORIENTED_EDGE ( 'NONE', *, *, #78, .F. ) ;
#264 = AXIS2_PLACEMENT_3D ( 'NONE', #183, #135, #20 ) ;
#265 = PLANE ( 'NONE',  #182 ) ;
#266 = VERTEX_POINT ( 'NONE', #39 ) ;
#267 = CIRCLE ( 'NONE', #128, 1.500000000000001554 ) ;
#268 = LOCAL_TIME ( 15, 4, 2.000000000000000000, #239 ) ;
#269 = VERTEX_POINT ( 'NONE', #154 ) ;
#270 = DIRECTION ( 'NONE',  ( -3.491481338843133355E-15, 1.224646799147353207E-16, -1.000000000000000000 ) ) ;
#271 = PRODUCT_DEFINITION_SHAPE ( 'NONE', 'NONE',  #248 ) ;
#272 = APPROVAL_PERSON_ORGANIZATION ( #276, #140, #4 ) ;
#273 = FACE_OUTER_BOUND ( 'NONE', #170, .T. ) ;
#274 = APPROVAL_DATE_TIME ( #218, #180 ) ;
#275 = DIRECTION ( 'NONE',  ( -3.491481338843133355E-15, 1.224646799147353207E-16, -1.000000000000000000 ) ) ;
#276 = PERSON_AND_ORGANIZATION ( #167, #178 ) ;
#277 = CARTESIAN_POINT ( 'NONE',  ( -1.861402904255448896E-31, 6.528922504209437632E-33, -5.331269806735400646E-17 ) ) ;
#278 = CC_DESIGN_DATE_AND_TIME_ASSIGNMENT ( #234, #22, ( #248 ) ) ;
#279 = CARTESIAN_POINT ( 'NONE',  ( 2.883896417162832445E-14, -1.011534696479630343E-15, 8.259807621135337286 ) ) ;
#280 = CIRCLE ( 'NONE', #264, 0.8953844939755805088 ) ;
#281 = SECURITY_CLASSIFICATION_LEVEL ( 'unclassified' ) ;
#282 = EDGE_LOOP ( 'NONE', ( #8 ) ) ;
#283 = ADVANCED_FACE ( 'NONE', ( #26, #236 ), #172, .T. ) ;
#284 = EDGE_LOOP ( 'NONE', ( #176 ) ) ;
#285 = ORIENTED_EDGE ( 'NONE', *, *, #150, .F. ) ;
#286 = AXIS2_PLACEMENT_3D ( 'NONE', #164, #253, #190 ) ;
#287 = PERSON_AND_ORGANIZATION_ROLE ( 'design_owner' ) ;
#288 = EDGE_LOOP ( 'NONE', ( #28 ) ) ;
#289 = EDGE_CURVE ( 'NONE', #27, #27, #267, .T. ) ;
#290 = DIRECTION ( 'NONE',  ( -3.491481338843133355E-15, 1.224646799147353207E-16, -1.000000000000000000 ) ) ;
#291 = CALENDAR_DATE ( 2021, 1, 12 ) ;
#292 = ADVANCED_FACE ( 'NONE', ( #9, #198 ), #138, .F. ) ;
#293 = CARTESIAN_POINT ( 'NONE',  ( 6.284666409917640040E-14, 0.8649999999999977707, 18.00000000000000000 ) ) ;
#294 = AXIS2_PLACEMENT_3D ( 'NONE', #106, #247, #226 ) ;
#295 = CARTESIAN_POINT ( 'NONE',  ( 0.0000000000000000000, 0.0000000000000000000, 0.0000000000000000000 ) ) ;
#296 = DIRECTION ( 'NONE',  ( 3.491481338843133355E-15, -1.224646799147353207E-16, 1.000000000000000000 ) ) ;
#297 =( LENGTH_UNIT ( ) NAMED_UNIT ( * ) SI_UNIT ( .MILLI., .METRE. ) );
#298 = DIRECTION ( 'NONE',  ( -3.491481338843133355E-15, 1.224646799147353207E-16, -1.000000000000000000 ) ) ;
#299 = ADVANCED_FACE ( 'NONE', ( #201, #36 ), #124, .T. ) ;
#300 = CARTESIAN_POINT ( 'NONE',  ( 6.405924284287275164E-14, 0.8953844939755782883, 18.34729635533384595 ) ) ;
#301 = DESIGN_CONTEXT ( 'detailed design', #184, 'design' ) ;
#302 = DIRECTION ( 'NONE',  ( 0.0000000000000000000, 1.000000000000000000, 0.0000000000000000000 ) ) ;
#303 = DIRECTION ( 'NONE',  ( 4.275831445896958607E-31, 1.000000000000000000, 1.224646799147353207E-16 ) ) ;
ENDSEC;
END-ISO-10303-21;
