ISO-10303-21;
HEADER;
FILE_DESCRIPTION (( 'STEP AP203' ),
    '1' );
FILE_NAME ('327053.step',
    '2021-12-01T14:04:01',
    ( '' ),
    ( '' ),
    'SwSTEP 2.0',
    'SolidWorks 2019',
    '' );
FILE_SCHEMA (( 'CONFIG_CONTROL_DESIGN' ));
ENDSEC;

DATA;
#1 = FACE_OUTER_BOUND ( 'NONE', #172, .T. ) ;
#2 = CARTESIAN_POINT ( 'NONE',  ( -5.423129219828697814E-31, 1.902177670703593921E-32, -1.553245941628201697E-16 ) ) ;
#3 = DIRECTION ( 'NONE',  ( 3.491481338843133355E-15, -1.224646799147353207E-16, 1.000000000000000000 ) ) ;
#4 = DIRECTION ( 'NONE',  ( 3.491481338843133355E-15, -1.224646799147353207E-16, 1.000000000000000000 ) ) ;
#5 = AXIS2_PLACEMENT_3D ( 'NONE', #119, #6, #22 ) ;
#6 = DIRECTION ( 'NONE',  ( -3.491481338843133355E-15, 1.224646799147353207E-16, -1.000000000000000000 ) ) ;
#7 = CC_DESIGN_PERSON_AND_ORGANIZATION_ASSIGNMENT ( #203, #88, ( #132 ) ) ;
#8 = CIRCLE ( 'NONE', #256, 0.8199999999999999512 ) ;
#9 = EDGE_LOOP ( 'NONE', ( #148 ) ) ;
#10 = CARTESIAN_POINT ( 'NONE',  ( 2.793185071074506684E-14, 7.273834945909995440E-33, 8.000000000000000000 ) ) ;
#11 = EDGE_LOOP ( 'NONE', ( #250 ) ) ;
#12 = PERSON_AND_ORGANIZATION_ROLE ( 'creator' ) ;
#13 = PLANE ( 'NONE',  #288 ) ;
#14 = EDGE_LOOP ( 'NONE', ( #226 ) ) ;
#15 = EDGE_LOOP ( 'NONE', ( #24 ) ) ;
#16 = CARTESIAN_POINT ( 'NONE',  ( 2.793185071074506684E-14, -9.797174393178825657E-16, 8.000000000000000000 ) ) ;
#17 = AXIS2_PLACEMENT_3D ( 'NONE', #53, #293, #127 ) ;
#18 = CIRCLE ( 'NONE', #187, 0.9699999999999989742 ) ;
#19 = CARTESIAN_POINT ( 'NONE',  ( 7.692239292684961637E-14, -2.698074345482095466E-15, 22.03144896439201972 ) ) ;
#20 = CARTESIAN_POINT ( 'NONE',  ( 8.728703347107829444E-16, -3.061616997868381785E-17, 0.2499999999999998890 ) ) ;
#21 = DIRECTION ( 'NONE',  ( -3.491481338843133355E-15, 1.224646799147353207E-16, -1.000000000000000000 ) ) ;
#22 = DIRECTION ( 'NONE',  ( 4.275831445896958607E-31, 1.000000000000000000, 1.224646799147353207E-16 ) ) ;
#23 = PRODUCT_RELATED_PRODUCT_CATEGORY ( 'detail', '', ( #211 ) ) ;
#24 = ORIENTED_EDGE ( 'NONE', *, *, #82, .T. ) ;
#25 = CIRCLE ( 'NONE', #81, 0.8503844939755798027 ) ;
#26 = AXIS2_PLACEMENT_3D ( 'NONE', #98, #4, #260 ) ;
#27 = EDGE_LOOP ( 'NONE', ( #121 ) ) ;
#28 = PRODUCT_DEFINITION ( 'UNKNOWN', '', #100, #126 ) ;
#29 = CARTESIAN_POINT ( 'NONE',  ( 1.745740669421566678E-13, 8.998558695971067645E-33, 50.00000000000000000 ) ) ;
#30 = PERSON_AND_ORGANIZATION_ROLE ( 'creator' ) ;
#31 = PLANE ( 'NONE',  #122 ) ;
#32 = DATE_AND_TIME ( #196, #271 ) ;
#33 = APPROVAL ( #173, 'UNSPECIFIED' ) ;
#34 = AXIS2_PLACEMENT_3D ( 'NONE', #174, #246, #61 ) ;
#35 = DIRECTION ( 'NONE',  ( 0.0000000000000000000, 1.000000000000000000, 0.0000000000000000000 ) ) ;
#36 = APPROVAL_DATE_TIME ( #153, #49 ) ;
#37 = DIRECTION ( 'NONE',  ( 4.275831445896958607E-31, 1.000000000000000000, 1.224646799147353207E-16 ) ) ;
#38 = SECURITY_CLASSIFICATION_LEVEL ( 'unclassified' ) ;
#39 = VERTEX_POINT ( 'NONE', #160 ) ;
#40 = ADVANCED_FACE ( 'NONE', ( #178 ), #273, .T. ) ;
#41 = CARTESIAN_POINT ( 'NONE',  ( 8.728703347107829444E-16, -3.061616997868381785E-17, 0.2499999999999998890 ) ) ;
#42 = APPROVAL_PERSON_ORGANIZATION ( #177, #144, #57 ) ;
#43 = FACE_OUTER_BOUND ( 'NONE', #290, .T. ) ;
#44 = CYLINDRICAL_SURFACE ( 'NONE', #5, 0.9699999999999995293 ) ;
#45 = FACE_OUTER_BOUND ( 'NONE', #264, .T. ) ;
#46 = AXIS2_PLACEMENT_3D ( 'NONE', #41, #3, #184 ) ;
#47 = CARTESIAN_POINT ( 'NONE',  ( -1.892735826383161794E-31, 0.8256624327025946508, -5.421010862427523403E-17 ) ) ;
#48 = ORIENTED_EDGE ( 'NONE', *, *, #303, .T. ) ;
#49 = APPROVAL ( #103, 'UNSPECIFIED' ) ;
#50 = CONICAL_SURFACE ( 'NONE', #276, 1.200000000000001732, 0.7853981633974453924 ) ;
#51 = CC_DESIGN_APPROVAL ( #49, ( #28 ) ) ;
#52 = ADVANCED_FACE ( 'NONE', ( #151, #58 ), #257, .T. ) ;
#53 = CARTESIAN_POINT ( 'NONE',  ( 6.284666409917640040E-14, -2.168404344971008868E-15, 18.00000000000000000 ) ) ;
#54 = DATE_AND_TIME ( #135, #284 ) ;
#55 = CIRCLE ( 'NONE', #195, 0.9699999999999999734 ) ;
#56 = CC_DESIGN_APPROVAL ( #144, ( #132 ) ) ;
#57 = APPROVAL_ROLE ( '' ) ;
#58 = FACE_OUTER_BOUND ( 'NONE', #112, .T. ) ;
#59 = PERSON_AND_ORGANIZATION ( #139, #217 ) ;
#60 = APPLICATION_CONTEXT ( 'configuration controlled 3d designs of mechanical parts and assemblies' ) ;
#61 = DIRECTION ( 'NONE',  ( -4.275831445896958607E-31, -1.000000000000000000, -1.224646799147353207E-16 ) ) ;
#62 = COORDINATED_UNIVERSAL_TIME_OFFSET ( 1, 0, .AHEAD. ) ;
#63 = DIRECTION ( 'NONE',  ( 0.0000000000000000000, -1.000000000000000000, 0.0000000000000000000 ) ) ;
#64 = COORDINATED_UNIVERSAL_TIME_OFFSET ( 1, 0, .AHEAD. ) ;
#65 = MANIFOLD_SOLID_BREP ( 'Corps-Déplacer/Copier1[2]', #239 ) ;
#66 = EDGE_CURVE ( 'NONE', #280, #280, #25, .T. ) ;
#67 = CARTESIAN_POINT ( 'NONE',  ( 1.735266225405037467E-13, 1.499999999999995559, 49.70000000000000284 ) ) ;
#68 = DIRECTION ( 'NONE',  ( -3.491481338843133355E-15, 1.224646799147353207E-16, -1.000000000000000000 ) ) ;
#69 = DIRECTION ( 'NONE',  ( -3.491481338843133355E-15, 1.224646799147353207E-16, -1.000000000000000000 ) ) ;
#70 = FACE_OUTER_BOUND ( 'NONE', #74, .T. ) ;
#71 = CYLINDRICAL_SURFACE ( 'NONE', #297, 1.499999999999999112 ) ;
#72 = ORIENTED_EDGE ( 'NONE', *, *, #247, .T. ) ;
#73 = ADVANCED_FACE ( 'NONE', ( #275, #158 ), #134, .T. ) ;
#74 = EDGE_LOOP ( 'NONE', ( #169 ) ) ;
#75 = ORIENTED_EDGE ( 'NONE', *, *, #66, .T. ) ;
#76 = CLOSED_SHELL ( 'NONE', ( #77, #166, #73, #92, #52, #157, #161, #96 ) ) ;
#77 = ADVANCED_FACE ( 'NONE', ( #220 ), #13, .F. ) ;
#78 = FACE_OUTER_BOUND ( 'NONE', #124, .T. ) ;
#79 = CARTESIAN_POINT ( 'NONE',  ( 6.405924284287275164E-14, -2.246895775456749140E-15, 18.34729635533384595 ) ) ;
#80 = PERSON_AND_ORGANIZATION ( #139, #217 ) ;
#81 = AXIS2_PLACEMENT_3D ( 'NONE', #79, #180, #35 ) ;
#82 = EDGE_CURVE ( 'NONE', #279, #279, #8, .T. ) ;
#83 = DIRECTION ( 'NONE',  ( -3.491481338843133355E-15, 1.224646799147353207E-16, -1.000000000000000000 ) ) ;
#84 = PERSON_AND_ORGANIZATION_ROLE ( 'design_supplier' ) ;
#85 = CARTESIAN_POINT ( 'NONE',  ( 2.793185071074506684E-14, -9.797174393178825657E-16, 8.000000000000000000 ) ) ;
#86 = MECHANICAL_CONTEXT ( 'NONE', #60, 'mechanical' ) ;
#87 = ORIENTED_EDGE ( 'NONE', *, *, #303, .F. ) ;
#88 = PERSON_AND_ORGANIZATION_ROLE ( 'classification_officer' ) ;
#89 = CONICAL_SURFACE ( 'NONE', #262, 0.8199999999999988409, 0.5235987755982937086 ) ;
#90 = LOCAL_TIME ( 15, 4, 1.000000000000000000, #201 ) ;
#91 = CARTESIAN_POINT ( 'NONE',  ( 6.284666409917640040E-14, 0.8199999999999978417, 18.00000000000000000 ) ) ;
#92 = ADVANCED_FACE ( 'NONE', ( #78, #104 ), #156, .F. ) ;
#93 = FACE_BOUND ( 'NONE', #213, .T. ) ;
#94 = CARTESIAN_POINT ( 'NONE',  ( 7.692239292684961637E-14, 1.499999999999994005, 22.03144896439201972 ) ) ;
#95 = FACE_OUTER_BOUND ( 'NONE', #27, .T. ) ;
#96 = ADVANCED_FACE ( 'NONE', ( #298 ), #31, .F. ) ;
#97 = LOCAL_TIME ( 15, 4, 1.000000000000000000, #294 ) ;
#98 = CARTESIAN_POINT ( 'NONE',  ( -2.711564609914348907E-31, 9.510888353517969607E-33, -7.766229708141008486E-17 ) ) ;
#99 = EDGE_CURVE ( 'NONE', #207, #207, #186, .T. ) ;
#100 = PRODUCT_DEFINITION_FORMATION_WITH_SPECIFIED_SOURCE ( 'ANY', '', #211, .NOT_KNOWN. ) ;
#101 = UNCERTAINTY_MEASURE_WITH_UNIT (LENGTH_MEASURE( 1.000000000000000082E-05 ), #237, 'distance_accuracy_value', 'NONE');
#102 = ORIENTED_EDGE ( 'NONE', *, *, #190, .T. ) ;
#103 = APPROVAL_STATUS ( 'not_yet_approved' ) ;
#104 = FACE_OUTER_BOUND ( 'NONE', #223, .T. ) ;
#105 = SHAPE_DEFINITION_REPRESENTATION ( #241, #110 ) ;
#106 = EDGE_CURVE ( 'NONE', #208, #208, #55, .T. ) ;
#107 = CARTESIAN_POINT ( 'NONE',  ( 7.692239292684961637E-14, -2.698074345482095466E-15, 22.03144896439201972 ) ) ;
#108 = PERSON_AND_ORGANIZATION ( #139, #217 ) ;
#109 = APPROVAL_PERSON_ORGANIZATION ( #253, #49, #221 ) ;
#110 = ADVANCED_BREP_SHAPE_REPRESENTATION ( '327053', ( #269, #65, #193 ), #150 ) ;
#111 = DIRECTION ( 'NONE',  ( -3.491481338843133355E-15, 1.224646799147353207E-16, -1.000000000000000000 ) ) ;
#112 = EDGE_LOOP ( 'NONE', ( #102 ) ) ;
#113 = CALENDAR_DATE ( 2021, 1, 12 ) ;
#114 = DIRECTION ( 'NONE',  ( 4.275831445896958607E-31, 1.000000000000000000, 1.224646799147353207E-16 ) ) ;
#115 = CONICAL_SURFACE ( 'NONE', #46, 0.9699999999999989742, 0.5235987755982922653 ) ;
#116 = DIRECTION ( 'NONE',  ( 4.275831445896958607E-31, 1.000000000000000000, 1.224646799147353207E-16 ) ) ;
#117 = FACE_OUTER_BOUND ( 'NONE', #14, .T. ) ;
#118 = DIRECTION ( 'NONE',  ( 0.0000000000000000000, 1.000000000000000000, 0.0000000000000000000 ) ) ;
#119 = CARTESIAN_POINT ( 'NONE',  ( 0.0000000000000000000, 0.0000000000000000000, 0.0000000000000000000 ) ) ;
#120 = CARTESIAN_POINT ( 'NONE',  ( 2.793185071074506684E-14, 0.9699999999999989742, 8.000000000000000000 ) ) ;
#121 = ORIENTED_EDGE ( 'NONE', *, *, #222, .T. ) ;
#122 = AXIS2_PLACEMENT_3D ( 'NONE', #29, #83, #114 ) ;
#123 = AXIS2_PLACEMENT_3D ( 'NONE', #163, #210, #261 ) ;
#124 = EDGE_LOOP ( 'NONE', ( #270 ) ) ;
#125 = ORIENTED_EDGE ( 'NONE', *, *, #99, .T. ) ;
#126 = DESIGN_CONTEXT ( 'detailed design', #281, 'design' ) ;
#127 = DIRECTION ( 'NONE',  ( 4.275831445896958607E-31, 1.000000000000000000, 1.224646799147353207E-16 ) ) ;
#128 = PERSON_AND_ORGANIZATION_ROLE ( 'design_owner' ) ;
#129 = EDGE_LOOP ( 'NONE', ( #204 ) ) ;
#130 = DIRECTION ( 'NONE',  ( -4.275831445896958607E-31, -1.000000000000000000, -1.224646799147353207E-16 ) ) ;
#131 = DATE_TIME_ROLE ( 'classification_date' ) ;
#132 = SECURITY_CLASSIFICATION ( '', '', #38 ) ;
#133 = ORIENTED_EDGE ( 'NONE', *, *, #99, .F. ) ;
#134 = CYLINDRICAL_SURFACE ( 'NONE', #243, 0.8199999999999992850 ) ;
#135 = CALENDAR_DATE ( 2021, 1, 12 ) ;
#136 = DIRECTION ( 'NONE',  ( 0.0000000000000000000, 1.000000000000000000, 0.0000000000000000000 ) ) ;
#137 = LOCAL_TIME ( 15, 4, 1.000000000000000000, #219 ) ;
#138 = VERTEX_POINT ( 'NONE', #231 ) ;
#139 = PERSON ( 'UNSPECIFIED', 'UNSPECIFIED', 'UNSPECIFIED', ('UNSPECIFIED'), ('UNSPECIFIED'), ('UNSPECIFIED') ) ;
#140 = DIRECTION ( 'NONE',  ( 0.0000000000000000000, 1.000000000000000000, 0.0000000000000000000 ) ) ;
#141 = DIRECTION ( 'NONE',  ( 4.275831445896958607E-31, 1.000000000000000000, 1.224646799147353454E-16 ) ) ;
#142 = DIRECTION ( 'NONE',  ( -3.491481338843133355E-15, 1.224646799147353207E-16, -1.000000000000000000 ) ) ;
#143 = VERTEX_POINT ( 'NONE', #120 ) ;
#144 = APPROVAL ( #277, 'UNSPECIFIED' ) ;
#145 = ORIENTED_EDGE ( 'NONE', *, *, #106, .T. ) ;
#146 = EDGE_LOOP ( 'NONE', ( #194 ) ) ;
#147 = EDGE_CURVE ( 'NONE', #39, #39, #200, .T. ) ;
#148 = ORIENTED_EDGE ( 'NONE', *, *, #106, .F. ) ;
#149 = APPROVAL_DATE_TIME ( #54, #144 ) ;
#150 =( GEOMETRIC_REPRESENTATION_CONTEXT ( 3 ) GLOBAL_UNCERTAINTY_ASSIGNED_CONTEXT ( ( #101 ) ) GLOBAL_UNIT_ASSIGNED_CONTEXT ( ( #237, #191, #249 ) ) REPRESENTATION_CONTEXT ( 'NONE', 'WORKASPACE' ) );
#151 = FACE_BOUND ( 'NONE', #238, .T. ) ;
#152 = CARTESIAN_POINT ( 'NONE',  ( 6.284666409917640040E-14, -2.204364238465235428E-15, 18.00000000000000000 ) ) ;
#153 = DATE_AND_TIME ( #113, #97 ) ;
#154 = ORIENTED_EDGE ( 'NONE', *, *, #247, .F. ) ;
#155 = DATE_AND_TIME ( #245, #90 ) ;
#156 = TOROIDAL_SURFACE ( 'NONE', #17, 2.819999999999999840, 2.000000000000000888 ) ;
#157 = ADVANCED_FACE ( 'NONE', ( #117, #43 ), #71, .T. ) ;
#158 = FACE_OUTER_BOUND ( 'NONE', #15, .T. ) ;
#159 = CARTESIAN_POINT ( 'NONE',  ( 2.793185071074506684E-14, 0.9699999999999989742, 8.000000000000000000 ) ) ;
#160 = CARTESIAN_POINT ( 'NONE',  ( 1.745740669421566678E-13, 1.199999999999995515, 50.00000000000000000 ) ) ;
#161 = ADVANCED_FACE ( 'NONE', ( #45, #236 ), #50, .T. ) ;
#162 = AXIS2_PLACEMENT_3D ( 'NONE', #2, #258, #116 ) ;
#163 = CARTESIAN_POINT ( 'NONE',  ( 2.883896417162832445E-14, -1.011534696479630343E-15, 8.259807621135337286 ) ) ;
#164 = FACE_BOUND ( 'NONE', #168, .T. ) ;
#165 = DIRECTION ( 'NONE',  ( -3.491481338843133355E-15, 1.224646799147353207E-16, -1.000000000000000000 ) ) ;
#166 = ADVANCED_FACE ( 'NONE', ( #70, #93 ), #89, .T. ) ;
#167 = CIRCLE ( 'NONE', #182, 0.9699999999999999734 ) ;
#168 = EDGE_LOOP ( 'NONE', ( #87 ) ) ;
#169 = ORIENTED_EDGE ( 'NONE', *, *, #289, .F. ) ;
#170 = CC_DESIGN_PERSON_AND_ORGANIZATION_ASSIGNMENT ( #299, #30, ( #100 ) ) ;
#171 = CC_DESIGN_SECURITY_CLASSIFICATION ( #132, ( #100 ) ) ;
#172 = EDGE_LOOP ( 'NONE', ( #145 ) ) ;
#173 = APPROVAL_STATUS ( 'not_yet_approved' ) ;
#174 = CARTESIAN_POINT ( 'NONE',  ( 2.793185071074506684E-14, 7.273834945909995440E-33, 8.000000000000000000 ) ) ;
#175 = CC_DESIGN_APPROVAL ( #33, ( #100 ) ) ;
#176 = DIRECTION ( 'NONE',  ( -3.491481338843133355E-15, 1.224646799147353207E-16, -1.000000000000000000 ) ) ;
#177 = PERSON_AND_ORGANIZATION ( #139, #217 ) ;
#178 = FACE_OUTER_BOUND ( 'NONE', #9, .T. ) ;
#179 = CARTESIAN_POINT ( 'NONE',  ( 0.0000000000000000000, 0.0000000000000000000, 0.0000000000000000000 ) ) ;
#180 = DIRECTION ( 'NONE',  ( -3.491481338843133355E-15, 1.224646799147353207E-16, -1.000000000000000000 ) ) ;
#181 = PERSON_AND_ORGANIZATION ( #139, #217 ) ;
#182 = AXIS2_PLACEMENT_3D ( 'NONE', #16, #165, #188 ) ;
#183 = DIRECTION ( 'NONE',  ( -3.491481338843133355E-15, 1.224646799147353207E-16, -1.000000000000000000 ) ) ;
#184 = DIRECTION ( 'NONE',  ( -3.970989576056160244E-31, -1.000000000000000000, -1.117734198438665448E-16 ) ) ;
#185 = VERTEX_POINT ( 'NONE', #282 ) ;
#186 = CIRCLE ( 'NONE', #192, 1.500000000000001554 ) ;
#187 = AXIS2_PLACEMENT_3D ( 'NONE', #20, #68, #229 ) ;
#188 = DIRECTION ( 'NONE',  ( 0.0000000000000000000, 1.000000000000000000, 0.0000000000000000000 ) ) ;
#189 = CARTESIAN_POINT ( 'NONE',  ( 2.883896417162832445E-14, -1.011534696479630343E-15, 8.259807621135337286 ) ) ;
#190 = EDGE_CURVE ( 'NONE', #255, #255, #215, .T. ) ;
#191 =( NAMED_UNIT ( * ) PLANE_ANGLE_UNIT ( ) SI_UNIT ( $, .RADIAN. ) );
#192 = AXIS2_PLACEMENT_3D ( 'NONE', #202, #176, #300 ) ;
#193 = AXIS2_PLACEMENT_3D ( 'NONE', #179, #274, #228 ) ;
#194 = ORIENTED_EDGE ( 'NONE', *, *, #289, .T. ) ;
#195 = AXIS2_PLACEMENT_3D ( 'NONE', #85, #244, #218 ) ;
#196 = CALENDAR_DATE ( 2021, 1, 12 ) ;
#197 = CARTESIAN_POINT ( 'NONE',  ( 1.745740669421566678E-13, -6.123233995736766085E-15, 50.00000000000000000 ) ) ;
#198 = DATE_TIME_ROLE ( 'creation_date' ) ;
#199 = EDGE_LOOP ( 'NONE', ( #48 ) ) ;
#200 = CIRCLE ( 'NONE', #224, 1.200000000000001732 ) ;
#201 = COORDINATED_UNIVERSAL_TIME_OFFSET ( 1, 0, .AHEAD. ) ;
#202 = CARTESIAN_POINT ( 'NONE',  ( 1.735266225405037467E-13, -6.086494591762345225E-15, 49.70000000000000284 ) ) ;
#203 = PERSON_AND_ORGANIZATION ( #139, #217 ) ;
#204 = ORIENTED_EDGE ( 'NONE', *, *, #222, .F. ) ;
#205 = APPLICATION_PROTOCOL_DEFINITION ( 'international standard', 'config_control_design', 1994, #60 ) ;
#206 = CARTESIAN_POINT ( 'NONE',  ( 6.405924284287275164E-14, 0.8503844939755774712, 18.34729635533384595 ) ) ;
#207 = VERTEX_POINT ( 'NONE', #67 ) ;
#208 = VERTEX_POINT ( 'NONE', #159 ) ;
#209 = FACE_OUTER_BOUND ( 'NONE', #199, .T. ) ;
#210 = DIRECTION ( 'NONE',  ( -3.491481338843133355E-15, 1.224646799147353207E-16, -1.000000000000000000 ) ) ;
#211 = PRODUCT ( '327053', '327053', '', ( #86 ) ) ;
#212 = CC_DESIGN_DATE_AND_TIME_ASSIGNMENT ( #268, #131, ( #132 ) ) ;
#213 = EDGE_LOOP ( 'NONE', ( #72 ) ) ;
#214 = ORIENTED_EDGE ( 'NONE', *, *, #66, .F. ) ;
#215 = CIRCLE ( 'NONE', #263, 1.499999999999996669 ) ;
#216 = EDGE_LOOP ( 'NONE', ( #154 ) ) ;
#217 = ORGANIZATION ( 'UNSPECIFIED', 'UNSPECIFIED', '' ) ;
#218 = DIRECTION ( 'NONE',  ( 0.0000000000000000000, 1.000000000000000000, 0.0000000000000000000 ) ) ;
#219 = COORDINATED_UNIVERSAL_TIME_OFFSET ( 1, 0, .AHEAD. ) ;
#220 = FACE_OUTER_BOUND ( 'NONE', #146, .T. ) ;
#221 = APPROVAL_ROLE ( '' ) ;
#222 = EDGE_CURVE ( 'NONE', #138, #138, #18, .T. ) ;
#223 = EDGE_LOOP ( 'NONE', ( #75 ) ) ;
#224 = AXIS2_PLACEMENT_3D ( 'NONE', #197, #296, #118 ) ;
#225 = CALENDAR_DATE ( 2021, 1, 12 ) ;
#226 = ORIENTED_EDGE ( 'NONE', *, *, #190, .F. ) ;
#227 = DIRECTION ( 'NONE',  ( 3.491481338843133355E-15, -1.224646799147353207E-16, 1.000000000000000000 ) ) ;
#228 = DIRECTION ( 'NONE',  ( 1.000000000000000000, 0.0000000000000000000, 0.0000000000000000000 ) ) ;
#229 = DIRECTION ( 'NONE',  ( 3.970989576056160244E-31, 1.000000000000000000, 1.117734198438665448E-16 ) ) ;
#230 = APPROVAL_PERSON_ORGANIZATION ( #181, #33, #272 ) ;
#231 = CARTESIAN_POINT ( 'NONE',  ( 8.728703347107833388E-16, 0.9699999999999989742, 0.2500000000000000000 ) ) ;
#232 = CARTESIAN_POINT ( 'NONE',  ( 1.745740669421566678E-13, -6.123233995736766085E-15, 50.00000000000000000 ) ) ;
#233 = ADVANCED_FACE ( 'NONE', ( #209 ), #286, .F. ) ;
#234 = DIRECTION ( 'NONE',  ( 0.0000000000000000000, 1.000000000000000000, 0.0000000000000000000 ) ) ;
#235 = CIRCLE ( 'NONE', #123, 0.8199999999999988409 ) ;
#236 = FACE_BOUND ( 'NONE', #11, .T. ) ;
#237 =( LENGTH_UNIT ( ) NAMED_UNIT ( * ) SI_UNIT ( .MILLI., .METRE. ) );
#238 = EDGE_LOOP ( 'NONE', ( #214 ) ) ;
#239 = CLOSED_SHELL ( 'NONE', ( #233, #266, #295, #40 ) ) ;
#240 = CIRCLE ( 'NONE', #162, 0.8256624327025946508 ) ;
#241 = PRODUCT_DEFINITION_SHAPE ( 'NONE', 'NONE',  #28 ) ;
#242 = CC_DESIGN_DATE_AND_TIME_ASSIGNMENT ( #32, #198, ( #28 ) ) ;
#243 = AXIS2_PLACEMENT_3D ( 'NONE', #252, #267, #37 ) ;
#244 = DIRECTION ( 'NONE',  ( -3.491481338843133355E-15, 1.224646799147353207E-16, -1.000000000000000000 ) ) ;
#245 = CALENDAR_DATE ( 2021, 1, 12 ) ;
#246 = DIRECTION ( 'NONE',  ( 3.491481338843133355E-15, -1.224646799147353207E-16, 1.000000000000000000 ) ) ;
#247 = EDGE_CURVE ( 'NONE', #185, #185, #235, .T. ) ;
#248 = DIRECTION ( 'NONE',  ( 0.0000000000000000000, 1.000000000000000000, 0.0000000000000000000 ) ) ;
#249 =( NAMED_UNIT ( * ) SI_UNIT ( $, .STERADIAN. ) SOLID_ANGLE_UNIT ( ) );
#250 = ORIENTED_EDGE ( 'NONE', *, *, #147, .T. ) ;
#251 = APPROVAL_DATE_TIME ( #155, #33 ) ;
#252 = CARTESIAN_POINT ( 'NONE',  ( 0.0000000000000000000, 0.0000000000000000000, 0.0000000000000000000 ) ) ;
#253 = PERSON_AND_ORGANIZATION ( #139, #217 ) ;
#254 = CARTESIAN_POINT ( 'NONE',  ( 0.0000000000000000000, 0.0000000000000000000, 0.0000000000000000000 ) ) ;
#255 = VERTEX_POINT ( 'NONE', #94 ) ;
#256 = AXIS2_PLACEMENT_3D ( 'NONE', #152, #111, #248 ) ;
#257 = CONICAL_SURFACE ( 'NONE', #292, 1.499999999999996669, 0.1745329251994263975 ) ;
#258 = DIRECTION ( 'NONE',  ( -3.491481338843133355E-15, 1.224646799147353207E-16, -1.000000000000000000 ) ) ;
#259 = CC_DESIGN_PERSON_AND_ORGANIZATION_ASSIGNMENT ( #108, #128, ( #211 ) ) ;
#260 = DIRECTION ( 'NONE',  ( -4.275831445896958607E-31, -1.000000000000000000, -1.224646799147353207E-16 ) ) ;
#261 = DIRECTION ( 'NONE',  ( 0.0000000000000000000, 1.000000000000000000, 0.0000000000000000000 ) ) ;
#262 = AXIS2_PLACEMENT_3D ( 'NONE', #189, #183, #234 ) ;
#263 = AXIS2_PLACEMENT_3D ( 'NONE', #19, #21, #136 ) ;
#264 = EDGE_LOOP ( 'NONE', ( #133 ) ) ;
#265 = EDGE_LOOP ( 'NONE', ( #291 ) ) ;
#266 = ADVANCED_FACE ( 'NONE', ( #164, #95 ), #115, .T. ) ;
#267 = DIRECTION ( 'NONE',  ( -3.491481338843133355E-15, 1.224646799147353207E-16, -1.000000000000000000 ) ) ;
#268 = DATE_AND_TIME ( #225, #137 ) ;
#269 = MANIFOLD_SOLID_BREP ( 'Corps-Déplacer/Copier1[1]', #76 ) ;
#270 = ORIENTED_EDGE ( 'NONE', *, *, #82, .F. ) ;
#271 = LOCAL_TIME ( 15, 4, 1.000000000000000000, #62 ) ;
#272 = APPROVAL_ROLE ( '' ) ;
#273 = PLANE ( 'NONE',  #34 ) ;
#274 = DIRECTION ( 'NONE',  ( 0.0000000000000000000, 0.0000000000000000000, 1.000000000000000000 ) ) ;
#275 = FACE_OUTER_BOUND ( 'NONE', #216, .T. ) ;
#276 = AXIS2_PLACEMENT_3D ( 'NONE', #232, #69, #140 ) ;
#277 = APPROVAL_STATUS ( 'not_yet_approved' ) ;
#278 = CC_DESIGN_PERSON_AND_ORGANIZATION_ASSIGNMENT ( #59, #84, ( #100 ) ) ;
#279 = VERTEX_POINT ( 'NONE', #91 ) ;
#280 = VERTEX_POINT ( 'NONE', #206 ) ;
#281 = APPLICATION_CONTEXT ( 'configuration controlled 3d designs of mechanical parts and assemblies' ) ;
#282 = CARTESIAN_POINT ( 'NONE',  ( 2.883896417162832445E-14, 0.8199999999999978417, 8.259807621135337286 ) ) ;
#283 = CC_DESIGN_PERSON_AND_ORGANIZATION_ASSIGNMENT ( #80, #12, ( #28 ) ) ;
#284 = LOCAL_TIME ( 15, 4, 1.000000000000000000, #64 ) ;
#285 = FACE_OUTER_BOUND ( 'NONE', #129, .T. ) ;
#286 = PLANE ( 'NONE',  #26 ) ;
#287 = VERTEX_POINT ( 'NONE', #47 ) ;
#288 = AXIS2_PLACEMENT_3D ( 'NONE', #10, #227, #130 ) ;
#289 = EDGE_CURVE ( 'NONE', #143, #143, #167, .T. ) ;
#290 = EDGE_LOOP ( 'NONE', ( #125 ) ) ;
#291 = ORIENTED_EDGE ( 'NONE', *, *, #147, .F. ) ;
#292 = AXIS2_PLACEMENT_3D ( 'NONE', #107, #301, #63 ) ;
#293 = DIRECTION ( 'NONE',  ( -3.491481338843133355E-15, 1.224646799147353207E-16, -1.000000000000000000 ) ) ;
#294 = COORDINATED_UNIVERSAL_TIME_OFFSET ( 1, 0, .AHEAD. ) ;
#295 = ADVANCED_FACE ( 'NONE', ( #285, #1 ), #44, .T. ) ;
#296 = DIRECTION ( 'NONE',  ( -3.491481338843133355E-15, 1.224646799147353207E-16, -1.000000000000000000 ) ) ;
#297 = AXIS2_PLACEMENT_3D ( 'NONE', #254, #142, #141 ) ;
#298 = FACE_OUTER_BOUND ( 'NONE', #265, .T. ) ;
#299 = PERSON_AND_ORGANIZATION ( #139, #217 ) ;
#300 = DIRECTION ( 'NONE',  ( 0.0000000000000000000, 1.000000000000000000, 0.0000000000000000000 ) ) ;
#301 = DIRECTION ( 'NONE',  ( 3.491481338843133355E-15, -1.224646799147353207E-16, 1.000000000000000000 ) ) ;
#302 = APPLICATION_PROTOCOL_DEFINITION ( 'international standard', 'config_control_design', 1994, #281 ) ;
#303 = EDGE_CURVE ( 'NONE', #287, #287, #240, .T. ) ;
ENDSEC;
END-ISO-10303-21;
