ISO-10303-21;
HEADER;
FILE_DESCRIPTION (( 'STEP AP203' ),
    '1' );
FILE_NAME ('327052.step',
    '2021-12-01T14:04:01',
    ( '' ),
    ( '' ),
    'SwSTEP 2.0',
    'SolidWorks 2019',
    '' );
FILE_SCHEMA (( 'CONFIG_CONTROL_DESIGN' ));
ENDSEC;

DATA;
#1 = APPROVAL_DATE_TIME ( #209, #19 ) ;
#2 = CARTESIAN_POINT ( 'NONE',  ( 2.793185071074506684E-14, 7.236340951343448726E-33, 8.000000000000000000 ) ) ;
#3 = PLANE ( 'NONE',  #225 ) ;
#4 = ORIENTED_EDGE ( 'NONE', *, *, #155, .F. ) ;
#5 = AXIS2_PLACEMENT_3D ( 'NONE', #167, #98, #260 ) ;
#6 = DIRECTION ( 'NONE',  ( 0.0000000000000000000, 1.000000000000000000, 0.0000000000000000000 ) ) ;
#7 = DIRECTION ( 'NONE',  ( -4.275831445896958607E-31, -1.000000000000000000, -1.224646799147353207E-16 ) ) ;
#8 = CARTESIAN_POINT ( 'NONE',  ( -1.754507118108025543E-31, 6.153982558543974599E-33, -5.025108106948563639E-17 ) ) ;
#9 = APPROVAL_PERSON_ORGANIZATION ( #230, #144, #111 ) ;
#10 = CIRCLE ( 'NONE', #149, 1.499999999999996669 ) ;
#11 = CARTESIAN_POINT ( 'NONE',  ( 6.284666409917640040E-14, -2.168404344971008868E-15, 18.00000000000000000 ) ) ;
#12 = FACE_OUTER_BOUND ( 'NONE', #277, .T. ) ;
#13 = MANIFOLD_SOLID_BREP ( 'Corps-Déplacer/Copier1[1]', #83 ) ;
#14 = CARTESIAN_POINT ( 'NONE',  ( 2.793185071074506684E-14, 0.9649999999999989697, 8.000000000000000000 ) ) ;
#15 = FACE_BOUND ( 'NONE', #72, .T. ) ;
#16 = DIRECTION ( 'NONE',  ( 0.0000000000000000000, 0.0000000000000000000, 1.000000000000000000 ) ) ;
#17 = AXIS2_PLACEMENT_3D ( 'NONE', #11, #292, #32 ) ;
#18 = APPROVAL_STATUS ( 'not_yet_approved' ) ;
#19 = APPROVAL ( #212, 'UNSPECIFIED' ) ;
#20 =( LENGTH_UNIT ( ) NAMED_UNIT ( * ) SI_UNIT ( .MILLI., .METRE. ) );
#21 = EDGE_LOOP ( 'NONE', ( #233 ) ) ;
#22 = DATE_AND_TIME ( #300, #39 ) ;
#23 = EDGE_LOOP ( 'NONE', ( #210 ) ) ;
#24 = CONICAL_SURFACE ( 'NONE', #163, 1.499999999999996669, 0.1745329251994259534 ) ;
#25 = EDGE_LOOP ( 'NONE', ( #68 ) ) ;
#26 = ORIENTED_EDGE ( 'NONE', *, *, #125, .F. ) ;
#27 = CARTESIAN_POINT ( 'NONE',  ( 1.745740669421566678E-13, -6.123233995736766085E-15, 50.00000000000000000 ) ) ;
#28 = SHAPE_DEFINITION_REPRESENTATION ( #297, #76 ) ;
#29 = DIRECTION ( 'NONE',  ( 3.491481338843133355E-15, -1.224646799147353207E-16, 1.000000000000000000 ) ) ;
#30 = ORGANIZATION ( 'UNSPECIFIED', 'UNSPECIFIED', '' ) ;
#31 = DIRECTION ( 'NONE',  ( -3.491481338843133355E-15, 1.224646799147353207E-16, -1.000000000000000000 ) ) ;
#32 = DIRECTION ( 'NONE',  ( 4.275831445896958607E-31, 1.000000000000000000, 1.224646799147353207E-16 ) ) ;
#33 = DIRECTION ( 'NONE',  ( -3.491481338843133355E-15, 1.224646799147353207E-16, -1.000000000000000000 ) ) ;
#34 = CIRCLE ( 'NONE', #229, 1.200000000000001732 ) ;
#35 = CC_DESIGN_PERSON_AND_ORGANIZATION_ASSIGNMENT ( #274, #40, ( #276 ) ) ;
#36 = FACE_OUTER_BOUND ( 'NONE', #240, .T. ) ;
#37 = DIRECTION ( 'NONE',  ( 3.491481338843133355E-15, -1.224646799147353207E-16, 1.000000000000000000 ) ) ;
#38 = FACE_OUTER_BOUND ( 'NONE', #188, .T. ) ;
#39 = LOCAL_TIME ( 15, 4, 1.000000000000000000, #180 ) ;
#40 = PERSON_AND_ORGANIZATION_ROLE ( 'design_supplier' ) ;
#41 = VERTEX_POINT ( 'NONE', #137 ) ;
#42 = APPROVAL_DATE_TIME ( #22, #144 ) ;
#43 = EDGE_CURVE ( 'NONE', #198, #198, #55, .T. ) ;
#44 = AXIS2_PLACEMENT_3D ( 'NONE', #238, #216, #6 ) ;
#45 = AXIS2_PLACEMENT_3D ( 'NONE', #217, #282, #101 ) ;
#46 = PERSON_AND_ORGANIZATION_ROLE ( 'classification_officer' ) ;
#47 = VERTEX_POINT ( 'NONE', #114 ) ;
#48 = CARTESIAN_POINT ( 'NONE',  ( 6.284666409917640040E-14, -2.204364238465235428E-15, 18.00000000000000000 ) ) ;
#49 = CC_DESIGN_SECURITY_CLASSIFICATION ( #239, ( #276 ) ) ;
#50 = ORIENTED_EDGE ( 'NONE', *, *, #237, .F. ) ;
#51 = DIRECTION ( 'NONE',  ( 0.0000000000000000000, 1.000000000000000000, 0.0000000000000000000 ) ) ;
#52 = EDGE_LOOP ( 'NONE', ( #26 ) ) ;
#53 = EDGE_LOOP ( 'NONE', ( #186 ) ) ;
#54 = TOROIDAL_SURFACE ( 'NONE', #17, 2.815000000000000391, 2.000000000000000888 ) ;
#55 = CIRCLE ( 'NONE', #5, 0.9649999999999999689 ) ;
#56 = CARTESIAN_POINT ( 'NONE',  ( 1.745740669421566678E-13, 1.199999999999995515, 50.00000000000000000 ) ) ;
#57 = DIRECTION ( 'NONE',  ( 0.0000000000000000000, 1.000000000000000000, 0.0000000000000000000 ) ) ;
#58 = DIRECTION ( 'NONE',  ( -3.491481338843133355E-15, 1.224646799147353207E-16, -1.000000000000000000 ) ) ;
#59 = CARTESIAN_POINT ( 'NONE',  ( 1.735266225405037467E-13, -6.086494591762345225E-15, 49.70000000000000284 ) ) ;
#60 = CARTESIAN_POINT ( 'NONE',  ( 2.883896417162832445E-14, -1.011534696479630343E-15, 8.259807621135337286 ) ) ;
#61 = APPLICATION_PROTOCOL_DEFINITION ( 'international standard', 'config_control_design', 1994, #99 ) ;
#62 = DATE_AND_TIME ( #64, #96 ) ;
#63 = APPLICATION_CONTEXT ( 'configuration controlled 3d designs of mechanical parts and assemblies' ) ;
#64 = CALENDAR_DATE ( 2021, 1, 12 ) ;
#65 = CONICAL_SURFACE ( 'NONE', #103, 0.9649999999999989697, 0.5235987755982923764 ) ;
#66 =( NAMED_UNIT ( * ) SI_UNIT ( $, .STERADIAN. ) SOLID_ANGLE_UNIT ( ) );
#67 = ADVANCED_FACE ( 'NONE', ( #213 ), #3, .F. ) ;
#68 = ORIENTED_EDGE ( 'NONE', *, *, #259, .F. ) ;
#69 = FACE_OUTER_BOUND ( 'NONE', #287, .T. ) ;
#70 = CONICAL_SURFACE ( 'NONE', #44, 0.8149999999999987255, 0.5235987755982937086 ) ;
#71 = ORIENTED_EDGE ( 'NONE', *, *, #237, .T. ) ;
#72 = EDGE_LOOP ( 'NONE', ( #168 ) ) ;
#73 = CC_DESIGN_PERSON_AND_ORGANIZATION_ASSIGNMENT ( #298, #136, ( #116 ) ) ;
#74 = CALENDAR_DATE ( 2021, 1, 12 ) ;
#75 = CARTESIAN_POINT ( 'NONE',  ( 8.728703347107829444E-16, -3.061616997868381785E-17, 0.2499999999999998890 ) ) ;
#76 = ADVANCED_BREP_SHAPE_REPRESENTATION ( '327052', ( #13, #123, #199 ), #215 ) ;
#77 = VERTEX_POINT ( 'NONE', #56 ) ;
#78 = APPROVAL_PERSON_ORGANIZATION ( #286, #19, #95 ) ;
#79 = CARTESIAN_POINT ( 'NONE',  ( 1.745740669421566678E-13, -6.123233995736766085E-15, 50.00000000000000000 ) ) ;
#80 = DIRECTION ( 'NONE',  ( -3.491481338843133355E-15, 1.224646799147353207E-16, -1.000000000000000000 ) ) ;
#81 = VERTEX_POINT ( 'NONE', #267 ) ;
#82 = AXIS2_PLACEMENT_3D ( 'NONE', #151, #174, #295 ) ;
#83 = CLOSED_SHELL ( 'NONE', ( #67, #171, #224, #247, #290, #242, #268, #227 ) ) ;
#84 = CARTESIAN_POINT ( 'NONE',  ( 7.702139880005220070E-14, 1.499999999999994005, 22.05980537349011072 ) ) ;
#85 = ORIENTED_EDGE ( 'NONE', *, *, #278, .F. ) ;
#86 = EDGE_CURVE ( 'NONE', #81, #81, #91, .T. ) ;
#87 = CARTESIAN_POINT ( 'NONE',  ( 8.728703347107833388E-16, 0.9649999999999989697, 0.2500000000000000000 ) ) ;
#88 = APPROVAL_DATE_TIME ( #301, #255 ) ;
#89 = EDGE_LOOP ( 'NONE', ( #4 ) ) ;
#90 = AXIS2_PLACEMENT_3D ( 'NONE', #177, #200, #102 ) ;
#91 = CIRCLE ( 'NONE', #263, 0.8453844939755803534 ) ;
#92 = CALENDAR_DATE ( 2021, 1, 12 ) ;
#93 = ORIENTED_EDGE ( 'NONE', *, *, #155, .T. ) ;
#94 = EDGE_LOOP ( 'NONE', ( #279 ) ) ;
#95 = APPROVAL_ROLE ( '' ) ;
#96 = LOCAL_TIME ( 15, 4, 1.000000000000000000, #117 ) ;
#97 = EDGE_CURVE ( 'NONE', #156, #156, #178, .T. ) ;
#98 = DIRECTION ( 'NONE',  ( -3.491481338843133355E-15, 1.224646799147353207E-16, -1.000000000000000000 ) ) ;
#99 = APPLICATION_CONTEXT ( 'configuration controlled 3d designs of mechanical parts and assemblies' ) ;
#100 = FACE_BOUND ( 'NONE', #25, .T. ) ;
#101 = DIRECTION ( 'NONE',  ( 0.0000000000000000000, 1.000000000000000000, 0.0000000000000000000 ) ) ;
#102 = DIRECTION ( 'NONE',  ( 4.275831445896958607E-31, 1.000000000000000000, 1.224646799147353454E-16 ) ) ;
#103 = AXIS2_PLACEMENT_3D ( 'NONE', #75, #211, #261 ) ;
#104 = DIRECTION ( 'NONE',  ( 4.275831445896958607E-31, 1.000000000000000000, 1.224646799147353207E-16 ) ) ;
#105 = DIRECTION ( 'NONE',  ( -4.275831445896958607E-31, -1.000000000000000000, -1.224646799147353207E-16 ) ) ;
#106 = DESIGN_CONTEXT ( 'detailed design', #99, 'design' ) ;
#107 = DIRECTION ( 'NONE',  ( -3.491481338843133355E-15, 1.224646799147353207E-16, -1.000000000000000000 ) ) ;
#108 = AXIS2_PLACEMENT_3D ( 'NONE', #79, #80, #221 ) ;
#109 = DIRECTION ( 'NONE',  ( 0.0000000000000000000, -1.000000000000000000, 0.0000000000000000000 ) ) ;
#110 = PERSON_AND_ORGANIZATION ( #270, #30 ) ;
#111 = APPROVAL_ROLE ( '' ) ;
#112 = CIRCLE ( 'NONE', #283, 0.8149999999999987255 ) ;
#113 = APPLICATION_PROTOCOL_DEFINITION ( 'international standard', 'config_control_design', 1994, #63 ) ;
#114 = CARTESIAN_POINT ( 'NONE',  ( 0.0000000000000000000, 0.8206624327025946464, 0.0000000000000000000 ) ) ;
#115 = EDGE_LOOP ( 'NONE', ( #165 ) ) ;
#116 = PRODUCT ( '327052', '327052', '', ( #162 ) ) ;
#117 = COORDINATED_UNIVERSAL_TIME_OFFSET ( 1, 0, .AHEAD. ) ;
#118 = EDGE_LOOP ( 'NONE', ( #170 ) ) ;
#119 = ADVANCED_FACE ( 'NONE', ( #69 ), #128, .T. ) ;
#120 = AXIS2_PLACEMENT_3D ( 'NONE', #243, #107, #269 ) ;
#121 = DATE_TIME_ROLE ( 'classification_date' ) ;
#122 = DIRECTION ( 'NONE',  ( -3.491481338843133355E-15, 1.224646799147353207E-16, -1.000000000000000000 ) ) ;
#123 = MANIFOLD_SOLID_BREP ( 'Corps-Déplacer/Copier1[2]', #201 ) ;
#124 = CARTESIAN_POINT ( 'NONE',  ( 7.702139880005220070E-14, -2.701547004045825044E-15, 22.05980537349011072 ) ) ;
#125 = EDGE_CURVE ( 'NONE', #77, #77, #34, .T. ) ;
#126 = EDGE_LOOP ( 'NONE', ( #231 ) ) ;
#127 = AXIS2_PLACEMENT_3D ( 'NONE', #173, #58, #152 ) ;
#128 = PLANE ( 'NONE',  #275 ) ;
#129 = CARTESIAN_POINT ( 'NONE',  ( 2.793185071074506684E-14, 7.236340951343448726E-33, 8.000000000000000000 ) ) ;
#130 = VERTEX_POINT ( 'NONE', #84 ) ;
#131 = FACE_OUTER_BOUND ( 'NONE', #169, .T. ) ;
#132 = DIRECTION ( 'NONE',  ( -3.491481338843133355E-15, 1.224646799147353207E-16, -1.000000000000000000 ) ) ;
#133 = EDGE_CURVE ( 'NONE', #130, #130, #10, .T. ) ;
#134 = FACE_OUTER_BOUND ( 'NONE', #257, .T. ) ;
#135 = CC_DESIGN_APPROVAL ( #19, ( #239 ) ) ;
#136 = PERSON_AND_ORGANIZATION_ROLE ( 'design_owner' ) ;
#137 = CARTESIAN_POINT ( 'NONE',  ( 1.735266225405037467E-13, 1.499999999999995559, 49.70000000000000284 ) ) ;
#138 = DATE_TIME_ROLE ( 'creation_date' ) ;
#139 = CONICAL_SURFACE ( 'NONE', #108, 1.200000000000001732, 0.7853981633974453924 ) ;
#140 = DIRECTION ( 'NONE',  ( 1.000000000000000000, 0.0000000000000000000, 0.0000000000000000000 ) ) ;
#141 = DATE_AND_TIME ( #74, #222 ) ;
#142 = FACE_OUTER_BOUND ( 'NONE', #118, .T. ) ;
#143 = DIRECTION ( 'NONE',  ( 3.491481338843133355E-15, -1.224646799147353207E-16, 1.000000000000000000 ) ) ;
#144 = APPROVAL ( #232, 'UNSPECIFIED' ) ;
#145 = DIRECTION ( 'NONE',  ( -3.491481338843133355E-15, 1.224646799147353207E-16, -1.000000000000000000 ) ) ;
#146 = FACE_BOUND ( 'NONE', #126, .T. ) ;
#147 = AXIS2_PLACEMENT_3D ( 'NONE', #59, #157, #57 ) ;
#148 = FACE_OUTER_BOUND ( 'NONE', #208, .T. ) ;
#149 = AXIS2_PLACEMENT_3D ( 'NONE', #124, #256, #285 ) ;
#150 = CC_DESIGN_PERSON_AND_ORGANIZATION_ASSIGNMENT ( #110, #46, ( #239 ) ) ;
#151 = CARTESIAN_POINT ( 'NONE',  ( 8.728703347107829444E-16, -3.061616997868381785E-17, 0.2499999999999998890 ) ) ;
#152 = DIRECTION ( 'NONE',  ( 4.275831445896958607E-31, 1.000000000000000000, 1.224646799147353207E-16 ) ) ;
#153 = FACE_OUTER_BOUND ( 'NONE', #52, .T. ) ;
#154 = AXIS2_PLACEMENT_3D ( 'NONE', #48, #31, #258 ) ;
#155 = EDGE_CURVE ( 'NONE', #179, #179, #254, .T. ) ;
#156 = VERTEX_POINT ( 'NONE', #14 ) ;
#157 = DIRECTION ( 'NONE',  ( -3.491481338843133355E-15, 1.224646799147353207E-16, -1.000000000000000000 ) ) ;
#158 = UNCERTAINTY_MEASURE_WITH_UNIT (LENGTH_MEASURE( 1.000000000000000082E-05 ), #20, 'distance_accuracy_value', 'NONE');
#159 = CIRCLE ( 'NONE', #82, 0.9649999999999989697 ) ;
#160 = VERTEX_POINT ( 'NONE', #87 ) ;
#161 = CARTESIAN_POINT ( 'NONE',  ( 6.284666409917640040E-14, 0.8149999999999976152, 18.00000000000000000 ) ) ;
#162 = MECHANICAL_CONTEXT ( 'NONE', #63, 'mechanical' ) ;
#163 = AXIS2_PLACEMENT_3D ( 'NONE', #293, #37, #109 ) ;
#164 =( NAMED_UNIT ( * ) PLANE_ANGLE_UNIT ( ) SI_UNIT ( $, .RADIAN. ) );
#165 = ORIENTED_EDGE ( 'NONE', *, *, #125, .T. ) ;
#166 = DIRECTION ( 'NONE',  ( 0.0000000000000000000, 1.000000000000000000, 0.0000000000000000000 ) ) ;
#167 = CARTESIAN_POINT ( 'NONE',  ( 2.793185071074506684E-14, -9.797174393178825657E-16, 8.000000000000000000 ) ) ;
#168 = ORIENTED_EDGE ( 'NONE', *, *, #86, .F. ) ;
#169 = EDGE_LOOP ( 'NONE', ( #214 ) ) ;
#170 = ORIENTED_EDGE ( 'NONE', *, *, #43, .F. ) ;
#171 = ADVANCED_FACE ( 'NONE', ( #142, #146 ), #70, .T. ) ;
#172 = CC_DESIGN_APPROVAL ( #255, ( #276 ) ) ;
#173 = CARTESIAN_POINT ( 'NONE',  ( 1.745740669421566678E-13, 8.998558695971067645E-33, 50.00000000000000000 ) ) ;
#174 = DIRECTION ( 'NONE',  ( -3.491481338843133355E-15, 1.224646799147353207E-16, -1.000000000000000000 ) ) ;
#175 = FACE_OUTER_BOUND ( 'NONE', #299, .T. ) ;
#176 = PRODUCT_RELATED_PRODUCT_CATEGORY ( 'detail', '', ( #116 ) ) ;
#177 = CARTESIAN_POINT ( 'NONE',  ( 0.0000000000000000000, 0.0000000000000000000, 0.0000000000000000000 ) ) ;
#178 = CIRCLE ( 'NONE', #45, 0.9649999999999999689 ) ;
#179 = VERTEX_POINT ( 'NONE', #161 ) ;
#180 = COORDINATED_UNIVERSAL_TIME_OFFSET ( 1, 0, .AHEAD. ) ;
#181 = CC_DESIGN_APPROVAL ( #144, ( #192 ) ) ;
#182 = CARTESIAN_POINT ( 'NONE',  ( 2.883896417162832445E-14, 0.8149999999999978373, 8.259807621135337286 ) ) ;
#183 = PERSON_AND_ORGANIZATION ( #270, #30 ) ;
#184 = ADVANCED_FACE ( 'NONE', ( #100, #234 ), #65, .T. ) ;
#185 = PERSON_AND_ORGANIZATION_ROLE ( 'creator' ) ;
#186 = ORIENTED_EDGE ( 'NONE', *, *, #259, .T. ) ;
#187 = CC_DESIGN_DATE_AND_TIME_ASSIGNMENT ( #62, #138, ( #192 ) ) ;
#188 = EDGE_LOOP ( 'NONE', ( #71 ) ) ;
#189 = AXIS2_PLACEMENT_3D ( 'NONE', #8, #241, #105 ) ;
#190 = DIRECTION ( 'NONE',  ( -4.275831445896958607E-31, -1.000000000000000000, -1.224646799147353207E-16 ) ) ;
#191 = EDGE_LOOP ( 'NONE', ( #236 ) ) ;
#192 = PRODUCT_DEFINITION ( 'UNKNOWN', '', #276, #106 ) ;
#193 = FACE_OUTER_BOUND ( 'NONE', #94, .T. ) ;
#194 = APPROVAL_PERSON_ORGANIZATION ( #302, #255, #253 ) ;
#195 = CYLINDRICAL_SURFACE ( 'NONE', #262, 1.499999999999999112 ) ;
#196 = ADVANCED_FACE ( 'NONE', ( #148, #193 ), #288, .T. ) ;
#197 = FACE_BOUND ( 'NONE', #115, .T. ) ;
#198 = VERTEX_POINT ( 'NONE', #202 ) ;
#199 = AXIS2_PLACEMENT_3D ( 'NONE', #252, #16, #140 ) ;
#200 = DIRECTION ( 'NONE',  ( -3.491481338843133355E-15, 1.224646799147353207E-16, -1.000000000000000000 ) ) ;
#201 = CLOSED_SHELL ( 'NONE', ( #294, #184, #196, #119 ) ) ;
#202 = CARTESIAN_POINT ( 'NONE',  ( 2.793185071074506684E-14, 0.9649999999999989697, 8.000000000000000000 ) ) ;
#203 = EDGE_CURVE ( 'NONE', #228, #228, #112, .T. ) ;
#204 = COORDINATED_UNIVERSAL_TIME_OFFSET ( 1, 0, .AHEAD. ) ;
#205 = CIRCLE ( 'NONE', #147, 1.500000000000001554 ) ;
#206 = CC_DESIGN_PERSON_AND_ORGANIZATION_ASSIGNMENT ( #273, #185, ( #192 ) ) ;
#207 = COORDINATED_UNIVERSAL_TIME_OFFSET ( 1, 0, .AHEAD. ) ;
#208 = EDGE_LOOP ( 'NONE', ( #85 ) ) ;
#209 = DATE_AND_TIME ( #92, #249 ) ;
#210 = ORIENTED_EDGE ( 'NONE', *, *, #86, .T. ) ;
#211 = DIRECTION ( 'NONE',  ( 3.491481338843133355E-15, -1.224646799147353207E-16, 1.000000000000000000 ) ) ;
#212 = APPROVAL_STATUS ( 'not_yet_approved' ) ;
#213 = FACE_OUTER_BOUND ( 'NONE', #21, .T. ) ;
#214 = ORIENTED_EDGE ( 'NONE', *, *, #133, .F. ) ;
#215 =( GEOMETRIC_REPRESENTATION_CONTEXT ( 3 ) GLOBAL_UNCERTAINTY_ASSIGNED_CONTEXT ( ( #158 ) ) GLOBAL_UNIT_ASSIGNED_CONTEXT ( ( #20, #164, #66 ) ) REPRESENTATION_CONTEXT ( 'NONE', 'WORKASPACE' ) );
#216 = DIRECTION ( 'NONE',  ( -3.491481338843133355E-15, 1.224646799147353207E-16, -1.000000000000000000 ) ) ;
#217 = CARTESIAN_POINT ( 'NONE',  ( 2.793185071074506684E-14, -9.797174393178825657E-16, 8.000000000000000000 ) ) ;
#218 = FACE_OUTER_BOUND ( 'NONE', #23, .T. ) ;
#219 = CARTESIAN_POINT ( 'NONE',  ( -3.509014236216051087E-31, 1.230796511708794920E-32, -1.005021621389712728E-16 ) ) ;
#220 = FACE_OUTER_BOUND ( 'NONE', #53, .T. ) ;
#221 = DIRECTION ( 'NONE',  ( 0.0000000000000000000, 1.000000000000000000, 0.0000000000000000000 ) ) ;
#222 = LOCAL_TIME ( 15, 4, 1.000000000000000000, #204 ) ;
#223 = CARTESIAN_POINT ( 'NONE',  ( 0.0000000000000000000, 0.0000000000000000000, 0.0000000000000000000 ) ) ;
#224 = ADVANCED_FACE ( 'NONE', ( #175, #134 ), #266, .T. ) ;
#225 = AXIS2_PLACEMENT_3D ( 'NONE', #2, #29, #190 ) ;
#226 = SECURITY_CLASSIFICATION_LEVEL ( 'unclassified' ) ;
#227 = ADVANCED_FACE ( 'NONE', ( #153 ), #265, .F. ) ;
#228 = VERTEX_POINT ( 'NONE', #182 ) ;
#229 = AXIS2_PLACEMENT_3D ( 'NONE', #27, #145, #51 ) ;
#230 = PERSON_AND_ORGANIZATION ( #270, #30 ) ;
#231 = ORIENTED_EDGE ( 'NONE', *, *, #203, .T. ) ;
#232 = APPROVAL_STATUS ( 'not_yet_approved' ) ;
#233 = ORIENTED_EDGE ( 'NONE', *, *, #43, .T. ) ;
#234 = FACE_OUTER_BOUND ( 'NONE', #191, .T. ) ;
#235 = ORIENTED_EDGE ( 'NONE', *, *, #97, .F. ) ;
#236 = ORIENTED_EDGE ( 'NONE', *, *, #278, .T. ) ;
#237 = EDGE_CURVE ( 'NONE', #41, #41, #205, .T. ) ;
#238 = CARTESIAN_POINT ( 'NONE',  ( 2.883896417162832445E-14, -1.011534696479630343E-15, 8.259807621135337286 ) ) ;
#239 = SECURITY_CLASSIFICATION ( '', '', #226 ) ;
#240 = EDGE_LOOP ( 'NONE', ( #251 ) ) ;
#241 = DIRECTION ( 'NONE',  ( 3.491481338843133355E-15, -1.224646799147353207E-16, 1.000000000000000000 ) ) ;
#242 = ADVANCED_FACE ( 'NONE', ( #131, #38 ), #195, .T. ) ;
#243 = CARTESIAN_POINT ( 'NONE',  ( 0.0000000000000000000, 0.0000000000000000000, 0.0000000000000000000 ) ) ;
#244 = LOCAL_TIME ( 15, 4, 1.000000000000000000, #207 ) ;
#245 = FACE_OUTER_BOUND ( 'NONE', #89, .T. ) ;
#246 = PLANE ( 'NONE',  #189 ) ;
#247 = ADVANCED_FACE ( 'NONE', ( #245, #218 ), #54, .F. ) ;
#248 = DIRECTION ( 'NONE',  ( 4.275831445896958607E-31, 1.000000000000000000, 1.224646799147353454E-16 ) ) ;
#249 = LOCAL_TIME ( 15, 4, 1.000000000000000000, #284 ) ;
#250 = PERSON_AND_ORGANIZATION_ROLE ( 'creator' ) ;
#251 = ORIENTED_EDGE ( 'NONE', *, *, #133, .T. ) ;
#252 = CARTESIAN_POINT ( 'NONE',  ( 0.0000000000000000000, 0.0000000000000000000, 0.0000000000000000000 ) ) ;
#253 = APPROVAL_ROLE ( '' ) ;
#254 = CIRCLE ( 'NONE', #154, 0.8149999999999997247 ) ;
#255 = APPROVAL ( #18, 'UNSPECIFIED' ) ;
#256 = DIRECTION ( 'NONE',  ( -3.491481338843133355E-15, 1.224646799147353207E-16, -1.000000000000000000 ) ) ;
#257 = EDGE_LOOP ( 'NONE', ( #93 ) ) ;
#258 = DIRECTION ( 'NONE',  ( 0.0000000000000000000, 1.000000000000000000, 0.0000000000000000000 ) ) ;
#259 = EDGE_CURVE ( 'NONE', #47, #47, #289, .T. ) ;
#260 = DIRECTION ( 'NONE',  ( 0.0000000000000000000, 1.000000000000000000, 0.0000000000000000000 ) ) ;
#261 = DIRECTION ( 'NONE',  ( -3.991564651579767973E-31, -1.000000000000000000, -1.123525567342492921E-16 ) ) ;
#262 = AXIS2_PLACEMENT_3D ( 'NONE', #223, #132, #248 ) ;
#263 = AXIS2_PLACEMENT_3D ( 'NONE', #280, #122, #166 ) ;
#264 = DIRECTION ( 'NONE',  ( 0.0000000000000000000, 1.000000000000000000, 0.0000000000000000000 ) ) ;
#265 = PLANE ( 'NONE',  #127 ) ;
#266 = CYLINDRICAL_SURFACE ( 'NONE', #90, 0.8149999999999992806 ) ;
#267 = CARTESIAN_POINT ( 'NONE',  ( 6.405924284287273902E-14, 0.8453844939755781329, 18.34729635533384240 ) ) ;
#268 = ADVANCED_FACE ( 'NONE', ( #12, #197 ), #139, .T. ) ;
#269 = DIRECTION ( 'NONE',  ( 4.275831445896958607E-31, 1.000000000000000000, 1.224646799147353207E-16 ) ) ;
#270 = PERSON ( 'UNSPECIFIED', 'UNSPECIFIED', 'UNSPECIFIED', ('UNSPECIFIED'), ('UNSPECIFIED'), ('UNSPECIFIED') ) ;
#271 = CALENDAR_DATE ( 2021, 1, 12 ) ;
#272 = AXIS2_PLACEMENT_3D ( 'NONE', #219, #291, #104 ) ;
#273 = PERSON_AND_ORGANIZATION ( #270, #30 ) ;
#274 = PERSON_AND_ORGANIZATION ( #270, #30 ) ;
#275 = AXIS2_PLACEMENT_3D ( 'NONE', #129, #143, #7 ) ;
#276 = PRODUCT_DEFINITION_FORMATION_WITH_SPECIFIED_SOURCE ( 'ANY', '', #116, .NOT_KNOWN. ) ;
#277 = EDGE_LOOP ( 'NONE', ( #50 ) ) ;
#278 = EDGE_CURVE ( 'NONE', #160, #160, #159, .T. ) ;
#279 = ORIENTED_EDGE ( 'NONE', *, *, #97, .T. ) ;
#280 = CARTESIAN_POINT ( 'NONE',  ( 6.405924284287273902E-14, -2.246895775456748746E-15, 18.34729635533384240 ) ) ;
#281 = CC_DESIGN_DATE_AND_TIME_ASSIGNMENT ( #141, #121, ( #239 ) ) ;
#282 = DIRECTION ( 'NONE',  ( -3.491481338843133355E-15, 1.224646799147353207E-16, -1.000000000000000000 ) ) ;
#283 = AXIS2_PLACEMENT_3D ( 'NONE', #60, #33, #264 ) ;
#284 = COORDINATED_UNIVERSAL_TIME_OFFSET ( 1, 0, .AHEAD. ) ;
#285 = DIRECTION ( 'NONE',  ( 0.0000000000000000000, 1.000000000000000000, 0.0000000000000000000 ) ) ;
#286 = PERSON_AND_ORGANIZATION ( #270, #30 ) ;
#287 = EDGE_LOOP ( 'NONE', ( #235 ) ) ;
#288 = CYLINDRICAL_SURFACE ( 'NONE', #120, 0.9649999999999995248 ) ;
#289 = CIRCLE ( 'NONE', #272, 0.8206624327025946464 ) ;
#290 = ADVANCED_FACE ( 'NONE', ( #15, #36 ), #24, .T. ) ;
#291 = DIRECTION ( 'NONE',  ( -3.491481338843133355E-15, 1.224646799147353207E-16, -1.000000000000000000 ) ) ;
#292 = DIRECTION ( 'NONE',  ( -3.491481338843133355E-15, 1.224646799147353207E-16, -1.000000000000000000 ) ) ;
#293 = CARTESIAN_POINT ( 'NONE',  ( 7.702139880005220070E-14, -2.701547004045825044E-15, 22.05980537349011072 ) ) ;
#294 = ADVANCED_FACE ( 'NONE', ( #220 ), #246, .F. ) ;
#295 = DIRECTION ( 'NONE',  ( 3.991564651579767973E-31, 1.000000000000000000, 1.123525567342492921E-16 ) ) ;
#296 = CC_DESIGN_PERSON_AND_ORGANIZATION_ASSIGNMENT ( #183, #250, ( #276 ) ) ;
#297 = PRODUCT_DEFINITION_SHAPE ( 'NONE', 'NONE',  #192 ) ;
#298 = PERSON_AND_ORGANIZATION ( #270, #30 ) ;
#299 = EDGE_LOOP ( 'NONE', ( #303 ) ) ;
#300 = CALENDAR_DATE ( 2021, 1, 12 ) ;
#301 = DATE_AND_TIME ( #271, #244 ) ;
#302 = PERSON_AND_ORGANIZATION ( #270, #30 ) ;
#303 = ORIENTED_EDGE ( 'NONE', *, *, #203, .F. ) ;
ENDSEC;
END-ISO-10303-21;
