ISO-10303-21;
HEADER;
FILE_DESCRIPTION (( 'STEP AP203' ),
    '1' );
FILE_NAME ('327051.step',
    '2021-12-01T14:04:00',
    ( '' ),
    ( '' ),
    'SwSTEP 2.0',
    'SolidWorks 2019',
    '' );
FILE_SCHEMA (( 'CONFIG_CONTROL_DESIGN' ));
ENDSEC;

DATA;
#1 = APPROVAL_DATE_TIME ( #137, #243 ) ;
#2 = FACE_OUTER_BOUND ( 'NONE', #20, .T. ) ;
#3 = CYLINDRICAL_SURFACE ( 'NONE', #60, 0.9599999999999995204 ) ;
#4 = AXIS2_PLACEMENT_3D ( 'NONE', #300, #181, #145 ) ;
#5 = FACE_BOUND ( 'NONE', #282, .T. ) ;
#6 = PLANE ( 'NONE',  #184 ) ;
#7 = CARTESIAN_POINT ( 'NONE',  ( -3.487635078986565059E-31, 1.223297712795485030E-32, -9.988983873939756055E-17 ) ) ;
#8 = AXIS2_PLACEMENT_3D ( 'NONE', #34, #155, #131 ) ;
#9 = FACE_OUTER_BOUND ( 'NONE', #140, .T. ) ;
#10 = EDGE_CURVE ( 'NONE', #200, #200, #98, .T. ) ;
#11 = FACE_BOUND ( 'NONE', #166, .T. ) ;
#12 = DIRECTION ( 'NONE',  ( -3.491481338843133355E-15, 1.224646799147353207E-16, -1.000000000000000000 ) ) ;
#13 = AXIS2_PLACEMENT_3D ( 'NONE', #7, #244, #123 ) ;
#14 = PERSON_AND_ORGANIZATION ( #278, #79 ) ;
#15 = CC_DESIGN_DATE_AND_TIME_ASSIGNMENT ( #62, #113, ( #298 ) ) ;
#16 = ORIENTED_EDGE ( 'NONE', *, *, #88, .F. ) ;
#17 = CARTESIAN_POINT ( 'NONE',  ( 1.745740669421566678E-13, 1.199999999999995515, 50.00000000000000000 ) ) ;
#18 = FACE_OUTER_BOUND ( 'NONE', #90, .T. ) ;
#19 = ADVANCED_FACE ( 'NONE', ( #2, #161 ), #261, .T. ) ;
#20 = EDGE_LOOP ( 'NONE', ( #191 ) ) ;
#21 = EDGE_LOOP ( 'NONE', ( #16 ) ) ;
#22 = ORIENTED_EDGE ( 'NONE', *, *, #116, .T. ) ;
#23 = CONICAL_SURFACE ( 'NONE', #252, 1.200000000000001732, 0.7853981633974453924 ) ;
#24 = DIRECTION ( 'NONE',  ( 3.491481338843133355E-15, -1.224646799147353207E-16, 1.000000000000000000 ) ) ;
#25 = CARTESIAN_POINT ( 'NONE',  ( 8.728703347107829444E-16, -3.061616997868381785E-17, 0.2499999999999998890 ) ) ;
#26 = CARTESIAN_POINT ( 'NONE',  ( 1.745740669421566678E-13, 8.998558695971067645E-33, 50.00000000000000000 ) ) ;
#27 = DIRECTION ( 'NONE',  ( -4.275831445896958607E-31, -1.000000000000000000, -1.224646799147353207E-16 ) ) ;
#28 = DIRECTION ( 'NONE',  ( 3.491481338843133355E-15, -1.224646799147353207E-16, 1.000000000000000000 ) ) ;
#29 = APPROVAL_DATE_TIME ( #226, #236 ) ;
#30 = VERTEX_POINT ( 'NONE', #108 ) ;
#31 = APPLICATION_CONTEXT ( 'configuration controlled 3d designs of mechanical parts and assemblies' ) ;
#32 = VERTEX_POINT ( 'NONE', #77 ) ;
#33 = DIRECTION ( 'NONE',  ( -3.491481338843133355E-15, 1.224646799147353207E-16, -1.000000000000000000 ) ) ;
#34 = CARTESIAN_POINT ( 'NONE',  ( 0.0000000000000000000, 0.0000000000000000000, 0.0000000000000000000 ) ) ;
#35 = ADVANCED_FACE ( 'NONE', ( #189, #275 ), #3, .T. ) ;
#36 = DIRECTION ( 'NONE',  ( -3.491481338843133355E-15, 1.224646799147353207E-16, -1.000000000000000000 ) ) ;
#37 = AXIS2_PLACEMENT_3D ( 'NONE', #222, #170, #52 ) ;
#38 = PERSON_AND_ORGANIZATION_ROLE ( 'design_owner' ) ;
#39 = CARTESIAN_POINT ( 'NONE',  ( 0.0000000000000000000, 0.0000000000000000000, 0.0000000000000000000 ) ) ;
#40 = PERSON_AND_ORGANIZATION_ROLE ( 'classification_officer' ) ;
#41 = APPROVAL_STATUS ( 'not_yet_approved' ) ;
#42 =( GEOMETRIC_REPRESENTATION_CONTEXT ( 3 ) GLOBAL_UNCERTAINTY_ASSIGNED_CONTEXT ( ( #102 ) ) GLOBAL_UNIT_ASSIGNED_CONTEXT ( ( #57, #296, #202 ) ) REPRESENTATION_CONTEXT ( 'NONE', 'WORKASPACE' ) );
#43 = ORIENTED_EDGE ( 'NONE', *, *, #247, .T. ) ;
#44 = EDGE_LOOP ( 'NONE', ( #167 ) ) ;
#45 = ADVANCED_FACE ( 'NONE', ( #58, #5 ), #23, .T. ) ;
#46 = AXIS2_PLACEMENT_3D ( 'NONE', #133, #217, #284 ) ;
#47 = CARTESIAN_POINT ( 'NONE',  ( 7.712040467325477241E-14, -2.705019662609553044E-15, 22.08816178258819818 ) ) ;
#48 = CIRCLE ( 'NONE', #89, 1.200000000000001732 ) ;
#49 = CYLINDRICAL_SURFACE ( 'NONE', #198, 0.8099999999999997202 ) ;
#50 = DIRECTION ( 'NONE',  ( -3.491481338843133355E-15, 1.224646799147353207E-16, -1.000000000000000000 ) ) ;
#51 = DIRECTION ( 'NONE',  ( 0.0000000000000000000, 1.000000000000000000, 0.0000000000000000000 ) ) ;
#52 = DIRECTION ( 'NONE',  ( 0.0000000000000000000, 1.000000000000000000, 0.0000000000000000000 ) ) ;
#53 = CARTESIAN_POINT ( 'NONE',  ( 1.735266225405037467E-13, 1.499999999999995559, 49.70000000000000284 ) ) ;
#54 = CARTESIAN_POINT ( 'NONE',  ( 6.405924284287275164E-14, 0.8403844939755779064, 18.34729635533384595 ) ) ;
#55 = CIRCLE ( 'NONE', #297, 1.499999999999996669 ) ;
#56 = ADVANCED_FACE ( 'NONE', ( #18 ), #207, .F. ) ;
#57 =( LENGTH_UNIT ( ) NAMED_UNIT ( * ) SI_UNIT ( .MILLI., .METRE. ) );
#58 = FACE_OUTER_BOUND ( 'NONE', #187, .T. ) ;
#59 = PERSON_AND_ORGANIZATION ( #278, #79 ) ;
#60 = AXIS2_PLACEMENT_3D ( 'NONE', #39, #67, #260 ) ;
#61 = EDGE_LOOP ( 'NONE', ( #250 ) ) ;
#62 = DATE_AND_TIME ( #254, #65 ) ;
#63 = DATE_TIME_ROLE ( 'classification_date' ) ;
#64 = ORIENTED_EDGE ( 'NONE', *, *, #216, .F. ) ;
#65 = LOCAL_TIME ( 15, 4, 0.0000000000000000000, #174 ) ;
#66 = ADVANCED_FACE ( 'NONE', ( #269, #9 ), #193, .T. ) ;
#67 = DIRECTION ( 'NONE',  ( -3.491481338843133355E-15, 1.224646799147353207E-16, -1.000000000000000000 ) ) ;
#68 = LOCAL_TIME ( 15, 4, 0.0000000000000000000, #82 ) ;
#69 = ORIENTED_EDGE ( 'NONE', *, *, #190, .T. ) ;
#70 = DIRECTION ( 'NONE',  ( 0.0000000000000000000, 1.000000000000000000, 0.0000000000000000000 ) ) ;
#71 = DIRECTION ( 'NONE',  ( -3.491481338843133355E-15, 1.224646799147353207E-16, -1.000000000000000000 ) ) ;
#72 = FACE_OUTER_BOUND ( 'NONE', #277, .T. ) ;
#73 = CC_DESIGN_PERSON_AND_ORGANIZATION_ASSIGNMENT ( #152, #38, ( #283 ) ) ;
#74 = CARTESIAN_POINT ( 'NONE',  ( 0.0000000000000000000, 0.0000000000000000000, 0.0000000000000000000 ) ) ;
#75 = CIRCLE ( 'NONE', #118, 1.500000000000001554 ) ;
#76 = DIRECTION ( 'NONE',  ( -3.491481338843133355E-15, 1.224646799147353207E-16, -1.000000000000000000 ) ) ;
#77 = CARTESIAN_POINT ( 'NONE',  ( 2.793185071074506684E-14, 0.9599999999999989653, 8.000000000000000000 ) ) ;
#78 = VERTEX_POINT ( 'NONE', #206 ) ;
#79 = ORGANIZATION ( 'UNSPECIFIED', 'UNSPECIFIED', '' ) ;
#80 = VERTEX_POINT ( 'NONE', #17 ) ;
#81 = EDGE_LOOP ( 'NONE', ( #22 ) ) ;
#82 = COORDINATED_UNIVERSAL_TIME_OFFSET ( 1, 0, .AHEAD. ) ;
#83 = AXIS2_PLACEMENT_3D ( 'NONE', #146, #290, #70 ) ;
#84 = DATE_AND_TIME ( #234, #192 ) ;
#85 = PERSON_AND_ORGANIZATION ( #278, #79 ) ;
#86 = APPLICATION_CONTEXT ( 'configuration controlled 3d designs of mechanical parts and assemblies' ) ;
#87 = ORIENTED_EDGE ( 'NONE', *, *, #291, .F. ) ;
#88 = EDGE_CURVE ( 'NONE', #80, #80, #48, .T. ) ;
#89 = AXIS2_PLACEMENT_3D ( 'NONE', #127, #71, #168 ) ;
#90 = EDGE_LOOP ( 'NONE', ( #229 ) ) ;
#91 = CARTESIAN_POINT ( 'NONE',  ( 1.745740669421566678E-13, -6.123233995736766085E-15, 50.00000000000000000 ) ) ;
#92 = APPROVAL_PERSON_ORGANIZATION ( #164, #175, #279 ) ;
#93 = DIRECTION ( 'NONE',  ( 4.275831445896958607E-31, 1.000000000000000000, 1.224646799147353454E-16 ) ) ;
#94 = CARTESIAN_POINT ( 'NONE',  ( 2.793185071074506684E-14, 7.198846956776902012E-33, 8.000000000000000000 ) ) ;
#95 = TOROIDAL_SURFACE ( 'NONE', #235, 2.810000000000000497, 2.000000000000000888 ) ;
#96 = FACE_OUTER_BOUND ( 'NONE', #259, .T. ) ;
#97 = DIRECTION ( 'NONE',  ( -3.491481338843133355E-15, 1.224646799147353207E-16, -1.000000000000000000 ) ) ;
#98 = CIRCLE ( 'NONE', #141, 0.9599999999999999645 ) ;
#99 = EDGE_CURVE ( 'NONE', #129, #129, #225, .T. ) ;
#100 = PLANE ( 'NONE',  #154 ) ;
#101 = AXIS2_PLACEMENT_3D ( 'NONE', #74, #294, #125 ) ;
#102 = UNCERTAINTY_MEASURE_WITH_UNIT (LENGTH_MEASURE( 1.000000000000000082E-05 ), #57, 'distance_accuracy_value', 'NONE');
#103 = PERSON_AND_ORGANIZATION_ROLE ( 'creator' ) ;
#104 = MECHANICAL_CONTEXT ( 'NONE', #86, 'mechanical' ) ;
#105 = MANIFOLD_SOLID_BREP ( 'Corps-Déplacer/Copier1[1]', #182 ) ;
#106 = CARTESIAN_POINT ( 'NONE',  ( 2.883896417162832445E-14, 0.8099999999999980549, 8.259807621135337286 ) ) ;
#107 = ORIENTED_EDGE ( 'NONE', *, *, #216, .T. ) ;
#108 = CARTESIAN_POINT ( 'NONE',  ( 8.728703347107833388E-16, 0.9599999999999989653, 0.2500000000000000000 ) ) ;
#109 = APPROVAL_PERSON_ORGANIZATION ( #114, #243, #210 ) ;
#110 = ORIENTED_EDGE ( 'NONE', *, *, #238, .T. ) ;
#111 = APPROVAL_STATUS ( 'not_yet_approved' ) ;
#112 = EDGE_LOOP ( 'NONE', ( #135 ) ) ;
#113 = DATE_TIME_ROLE ( 'creation_date' ) ;
#114 = PERSON_AND_ORGANIZATION ( #278, #79 ) ;
#115 = AXIS2_PLACEMENT_3D ( 'NONE', #219, #76, #194 ) ;
#116 = EDGE_CURVE ( 'NONE', #227, #227, #293, .T. ) ;
#117 = ORIENTED_EDGE ( 'NONE', *, *, #147, .F. ) ;
#118 = AXIS2_PLACEMENT_3D ( 'NONE', #241, #97, #197 ) ;
#119 = ORIENTED_EDGE ( 'NONE', *, *, #99, .F. ) ;
#120 = DIRECTION ( 'NONE',  ( 3.491481338843133355E-15, -1.224646799147353207E-16, 1.000000000000000000 ) ) ;
#121 = CARTESIAN_POINT ( 'NONE',  ( 6.284666409917638777E-14, -2.204364238465235033E-15, 17.99999999999999645 ) ) ;
#122 = CC_DESIGN_PERSON_AND_ORGANIZATION_ASSIGNMENT ( #85, #138, ( #245 ) ) ;
#123 = DIRECTION ( 'NONE',  ( 4.275831445896958607E-31, 1.000000000000000000, 1.224646799147353207E-16 ) ) ;
#124 = CONICAL_SURFACE ( 'NONE', #195, 0.9599999999999989653, 0.5235987755982930425 ) ;
#125 = DIRECTION ( 'NONE',  ( 4.275831445896958607E-31, 1.000000000000000000, 1.224646799147353454E-16 ) ) ;
#126 = ADVANCED_FACE ( 'NONE', ( #72 ), #6, .T. ) ;
#127 = CARTESIAN_POINT ( 'NONE',  ( 1.745740669421566678E-13, -6.123233995736766085E-15, 50.00000000000000000 ) ) ;
#128 = VERTEX_POINT ( 'NONE', #54 ) ;
#129 = VERTEX_POINT ( 'NONE', #248 ) ;
#130 = ORIENTED_EDGE ( 'NONE', *, *, #10, .F. ) ;
#131 = DIRECTION ( 'NONE',  ( 1.000000000000000000, 0.0000000000000000000, 0.0000000000000000000 ) ) ;
#132 = AXIS2_PLACEMENT_3D ( 'NONE', #262, #28, #223 ) ;
#133 = CARTESIAN_POINT ( 'NONE',  ( 2.883896417162832445E-14, -1.011534696479630343E-15, 8.259807621135337286 ) ) ;
#134 = APPROVAL_ROLE ( '' ) ;
#135 = ORIENTED_EDGE ( 'NONE', *, *, #147, .T. ) ;
#136 = CALENDAR_DATE ( 2021, 1, 12 ) ;
#137 = DATE_AND_TIME ( #183, #249 ) ;
#138 = PERSON_AND_ORGANIZATION_ROLE ( 'design_supplier' ) ;
#139 = EDGE_LOOP ( 'NONE', ( #285 ) ) ;
#140 = EDGE_LOOP ( 'NONE', ( #107 ) ) ;
#141 = AXIS2_PLACEMENT_3D ( 'NONE', #178, #33, #231 ) ;
#142 = AXIS2_PLACEMENT_3D ( 'NONE', #26, #50, #196 ) ;
#143 = DIRECTION ( 'NONE',  ( -3.491481338843133355E-15, 1.224646799147353207E-16, -1.000000000000000000 ) ) ;
#144 = FACE_OUTER_BOUND ( 'NONE', #44, .T. ) ;
#145 = DIRECTION ( 'NONE',  ( -4.275831445896958607E-31, -1.000000000000000000, -1.224646799147353207E-16 ) ) ;
#146 = CARTESIAN_POINT ( 'NONE',  ( 2.883896417162832445E-14, -1.011534696479630343E-15, 8.259807621135337286 ) ) ;
#147 = EDGE_CURVE ( 'NONE', #128, #128, #171, .T. ) ;
#148 = FACE_OUTER_BOUND ( 'NONE', #215, .T. ) ;
#149 = ADVANCED_BREP_SHAPE_REPRESENTATION ( '327051', ( #105, #213, #8 ), #42 ) ;
#150 = DESIGN_CONTEXT ( 'detailed design', #31, 'design' ) ;
#151 = CC_DESIGN_APPROVAL ( #243, ( #245 ) ) ;
#152 = PERSON_AND_ORGANIZATION ( #278, #79 ) ;
#153 = CARTESIAN_POINT ( 'NONE',  ( 6.284666409917640040E-14, -2.168404344971008868E-15, 18.00000000000000000 ) ) ;
#154 = AXIS2_PLACEMENT_3D ( 'NONE', #94, #24, #288 ) ;
#155 = DIRECTION ( 'NONE',  ( 0.0000000000000000000, 0.0000000000000000000, 1.000000000000000000 ) ) ;
#156 = CC_DESIGN_DATE_AND_TIME_ASSIGNMENT ( #281, #63, ( #233 ) ) ;
#157 = ORIENTED_EDGE ( 'NONE', *, *, #88, .T. ) ;
#158 = DIRECTION ( 'NONE',  ( 4.275831445896958607E-31, 1.000000000000000000, 1.224646799147353207E-16 ) ) ;
#159 = ADVANCED_FACE ( 'NONE', ( #267, #96 ), #49, .T. ) ;
#160 = CIRCLE ( 'NONE', #287, 0.9599999999999989653 ) ;
#161 = FACE_BOUND ( 'NONE', #81, .T. ) ;
#162 = COORDINATED_UNIVERSAL_TIME_OFFSET ( 1, 0, .AHEAD. ) ;
#163 = PERSON_AND_ORGANIZATION ( #278, #79 ) ;
#164 = PERSON_AND_ORGANIZATION ( #278, #79 ) ;
#165 = ORIENTED_EDGE ( 'NONE', *, *, #116, .F. ) ;
#166 = EDGE_LOOP ( 'NONE', ( #117 ) ) ;
#167 = ORIENTED_EDGE ( 'NONE', *, *, #291, .T. ) ;
#168 = DIRECTION ( 'NONE',  ( 0.0000000000000000000, 1.000000000000000000, 0.0000000000000000000 ) ) ;
#169 = FACE_BOUND ( 'NONE', #203, .T. ) ;
#170 = DIRECTION ( 'NONE',  ( -3.491481338843133355E-15, 1.224646799147353207E-16, -1.000000000000000000 ) ) ;
#171 = CIRCLE ( 'NONE', #37, 0.8403844939755801269 ) ;
#172 = DIRECTION ( 'NONE',  ( 4.012354050806746032E-31, 1.000000000000000000, 1.129377263005735100E-16 ) ) ;
#173 = COORDINATED_UNIVERSAL_TIME_OFFSET ( 1, 0, .AHEAD. ) ;
#174 = COORDINATED_UNIVERSAL_TIME_OFFSET ( 1, 0, .AHEAD. ) ;
#175 = APPROVAL ( #41, 'UNSPECIFIED' ) ;
#176 = APPROVAL_PERSON_ORGANIZATION ( #59, #236, #134 ) ;
#177 = APPLICATION_PROTOCOL_DEFINITION ( 'international standard', 'config_control_design', 1994, #86 ) ;
#178 = CARTESIAN_POINT ( 'NONE',  ( 2.793185071074506684E-14, -9.797174393178825657E-16, 8.000000000000000000 ) ) ;
#179 = ADVANCED_FACE ( 'NONE', ( #286 ), #264, .F. ) ;
#180 = CARTESIAN_POINT ( 'NONE',  ( 7.712040467325477241E-14, 1.499999999999994005, 22.08816178258819818 ) ) ;
#181 = DIRECTION ( 'NONE',  ( 3.491481338843133355E-15, -1.224646799147353207E-16, 1.000000000000000000 ) ) ;
#182 = CLOSED_SHELL ( 'NONE', ( #258, #19, #159, #302, #204, #66, #45, #179 ) ) ;
#183 = CALENDAR_DATE ( 2021, 1, 12 ) ;
#184 = AXIS2_PLACEMENT_3D ( 'NONE', #242, #120, #27 ) ;
#185 = SHAPE_DEFINITION_REPRESENTATION ( #212, #149 ) ;
#186 = PERSON_AND_ORGANIZATION_ROLE ( 'creator' ) ;
#187 = EDGE_LOOP ( 'NONE', ( #64 ) ) ;
#188 = CC_DESIGN_PERSON_AND_ORGANIZATION_ASSIGNMENT ( #163, #186, ( #245 ) ) ;
#189 = FACE_OUTER_BOUND ( 'NONE', #237, .T. ) ;
#190 = EDGE_CURVE ( 'NONE', #78, #78, #280, .T. ) ;
#191 = ORIENTED_EDGE ( 'NONE', *, *, #247, .F. ) ;
#192 = LOCAL_TIME ( 15, 4, 0.0000000000000000000, #162 ) ;
#193 = CYLINDRICAL_SURFACE ( 'NONE', #101, 1.499999999999999112 ) ;
#194 = DIRECTION ( 'NONE',  ( 0.0000000000000000000, 1.000000000000000000, 0.0000000000000000000 ) ) ;
#195 = AXIS2_PLACEMENT_3D ( 'NONE', #220, #199, #246 ) ;
#196 = DIRECTION ( 'NONE',  ( 4.275831445896958607E-31, 1.000000000000000000, 1.224646799147353207E-16 ) ) ;
#197 = DIRECTION ( 'NONE',  ( 0.0000000000000000000, 1.000000000000000000, 0.0000000000000000000 ) ) ;
#198 = AXIS2_PLACEMENT_3D ( 'NONE', #218, #12, #93 ) ;
#199 = DIRECTION ( 'NONE',  ( 3.491481338843133355E-15, -1.224646799147353207E-16, 1.000000000000000000 ) ) ;
#200 = VERTEX_POINT ( 'NONE', #201 ) ;
#201 = CARTESIAN_POINT ( 'NONE',  ( 2.793185071074506684E-14, 0.9599999999999989653, 8.000000000000000000 ) ) ;
#202 =( NAMED_UNIT ( * ) SI_UNIT ( $, .STERADIAN. ) SOLID_ANGLE_UNIT ( ) );
#203 = EDGE_LOOP ( 'NONE', ( #119 ) ) ;
#204 = ADVANCED_FACE ( 'NONE', ( #11, #144 ), #268, .T. ) ;
#205 = CC_DESIGN_APPROVAL ( #236, ( #298 ) ) ;
#206 = CARTESIAN_POINT ( 'NONE',  ( 6.284666409917638777E-14, 0.8099999999999982769, 17.99999999999999645 ) ) ;
#207 = PLANE ( 'NONE',  #4 ) ;
#208 = CC_DESIGN_APPROVAL ( #175, ( #233 ) ) ;
#209 = EDGE_LOOP ( 'NONE', ( #87 ) ) ;
#210 = APPROVAL_ROLE ( '' ) ;
#211 = COORDINATED_UNIVERSAL_TIME_OFFSET ( 1, 0, .AHEAD. ) ;
#212 = PRODUCT_DEFINITION_SHAPE ( 'NONE', 'NONE',  #298 ) ;
#213 = MANIFOLD_SOLID_BREP ( 'Corps-Déplacer/Copier1[2]', #224 ) ;
#214 = CC_DESIGN_PERSON_AND_ORGANIZATION_ASSIGNMENT ( #14, #103, ( #298 ) ) ;
#215 = EDGE_LOOP ( 'NONE', ( #43 ) ) ;
#216 = EDGE_CURVE ( 'NONE', #295, #295, #75, .T. ) ;
#217 = DIRECTION ( 'NONE',  ( -3.491481338843133355E-15, 1.224646799147353207E-16, -1.000000000000000000 ) ) ;
#218 = CARTESIAN_POINT ( 'NONE',  ( 0.0000000000000000000, 0.0000000000000000000, 0.0000000000000000000 ) ) ;
#219 = CARTESIAN_POINT ( 'NONE',  ( 2.793185071074506684E-14, -9.797174393178825657E-16, 8.000000000000000000 ) ) ;
#220 = CARTESIAN_POINT ( 'NONE',  ( 8.728703347107829444E-16, -3.061616997868381785E-17, 0.2499999999999998890 ) ) ;
#221 = CIRCLE ( 'NONE', #115, 0.9599999999999999645 ) ;
#222 = CARTESIAN_POINT ( 'NONE',  ( 6.405924284287275164E-14, -2.246895775456749140E-15, 18.34729635533384595 ) ) ;
#223 = DIRECTION ( 'NONE',  ( 0.0000000000000000000, -1.000000000000000000, 0.0000000000000000000 ) ) ;
#224 = CLOSED_SHELL ( 'NONE', ( #56, #270, #35, #126 ) ) ;
#225 = CIRCLE ( 'NONE', #13, 0.8156624327025944199 ) ;
#226 = DATE_AND_TIME ( #271, #257 ) ;
#227 = VERTEX_POINT ( 'NONE', #106 ) ;
#228 = DIRECTION ( 'NONE',  ( 0.0000000000000000000, 1.000000000000000000, 0.0000000000000000000 ) ) ;
#229 = ORIENTED_EDGE ( 'NONE', *, *, #99, .T. ) ;
#230 = DIRECTION ( 'NONE',  ( 0.0000000000000000000, 1.000000000000000000, 0.0000000000000000000 ) ) ;
#231 = DIRECTION ( 'NONE',  ( 0.0000000000000000000, 1.000000000000000000, 0.0000000000000000000 ) ) ;
#232 = APPROVAL_DATE_TIME ( #84, #175 ) ;
#233 = SECURITY_CLASSIFICATION ( '', '', #256 ) ;
#234 = CALENDAR_DATE ( 2021, 1, 12 ) ;
#235 = AXIS2_PLACEMENT_3D ( 'NONE', #153, #274, #158 ) ;
#236 = APPROVAL ( #111, 'UNSPECIFIED' ) ;
#237 = EDGE_LOOP ( 'NONE', ( #253 ) ) ;
#238 = EDGE_CURVE ( 'NONE', #30, #30, #160, .T. ) ;
#239 = EDGE_LOOP ( 'NONE', ( #165 ) ) ;
#240 = DIRECTION ( 'NONE',  ( -3.491481338843133355E-15, 1.224646799147353207E-16, -1.000000000000000000 ) ) ;
#241 = CARTESIAN_POINT ( 'NONE',  ( 1.735266225405037467E-13, -6.086494591762345225E-15, 49.70000000000000284 ) ) ;
#242 = CARTESIAN_POINT ( 'NONE',  ( 2.793185071074506684E-14, 7.198846956776902012E-33, 8.000000000000000000 ) ) ;
#243 = APPROVAL ( #255, 'UNSPECIFIED' ) ;
#244 = DIRECTION ( 'NONE',  ( -3.491481338843133355E-15, 1.224646799147353207E-16, -1.000000000000000000 ) ) ;
#245 = PRODUCT_DEFINITION_FORMATION_WITH_SPECIFIED_SOURCE ( 'ANY', '', #283, .NOT_KNOWN. ) ;
#246 = DIRECTION ( 'NONE',  ( -4.012354050806746032E-31, -1.000000000000000000, -1.129377263005735100E-16 ) ) ;
#247 = EDGE_CURVE ( 'NONE', #32, #32, #221, .T. ) ;
#248 = CARTESIAN_POINT ( 'NONE',  ( 0.0000000000000000000, 0.8156624327025944199, 0.0000000000000000000 ) ) ;
#249 = LOCAL_TIME ( 15, 4, 0.0000000000000000000, #211 ) ;
#250 = ORIENTED_EDGE ( 'NONE', *, *, #190, .F. ) ;
#251 = VERTEX_POINT ( 'NONE', #180 ) ;
#252 = AXIS2_PLACEMENT_3D ( 'NONE', #91, #36, #230 ) ;
#253 = ORIENTED_EDGE ( 'NONE', *, *, #238, .F. ) ;
#254 = CALENDAR_DATE ( 2021, 1, 12 ) ;
#255 = APPROVAL_STATUS ( 'not_yet_approved' ) ;
#256 = SECURITY_CLASSIFICATION_LEVEL ( 'unclassified' ) ;
#257 = LOCAL_TIME ( 15, 4, 0.0000000000000000000, #173 ) ;
#258 = ADVANCED_FACE ( 'NONE', ( #148 ), #100, .F. ) ;
#259 = EDGE_LOOP ( 'NONE', ( #69 ) ) ;
#260 = DIRECTION ( 'NONE',  ( 4.275831445896957731E-31, 1.000000000000000000, 1.224646799147353207E-16 ) ) ;
#261 = CONICAL_SURFACE ( 'NONE', #46, 0.8099999999999989431, 0.5235987755982931535 ) ;
#262 = CARTESIAN_POINT ( 'NONE',  ( 7.712040467325477241E-14, -2.705019662609553044E-15, 22.08816178258819818 ) ) ;
#263 = AXIS2_PLACEMENT_3D ( 'NONE', #121, #143, #51 ) ;
#264 = PLANE ( 'NONE',  #142 ) ;
#265 = FACE_OUTER_BOUND ( 'NONE', #299, .T. ) ;
#266 = PRODUCT_RELATED_PRODUCT_CATEGORY ( 'detail', '', ( #283 ) ) ;
#267 = FACE_OUTER_BOUND ( 'NONE', #239, .T. ) ;
#268 = CONICAL_SURFACE ( 'NONE', #132, 1.499999999999996669, 0.1745329251994263420 ) ;
#269 = FACE_OUTER_BOUND ( 'NONE', #209, .T. ) ;
#270 = ADVANCED_FACE ( 'NONE', ( #169, #265 ), #124, .T. ) ;
#271 = CALENDAR_DATE ( 2021, 1, 12 ) ;
#272 = FACE_OUTER_BOUND ( 'NONE', #112, .T. ) ;
#273 = FACE_OUTER_BOUND ( 'NONE', #61, .T. ) ;
#274 = DIRECTION ( 'NONE',  ( -3.491481338843133355E-15, 1.224646799147353207E-16, -1.000000000000000000 ) ) ;
#275 = FACE_OUTER_BOUND ( 'NONE', #139, .T. ) ;
#276 = APPLICATION_PROTOCOL_DEFINITION ( 'international standard', 'config_control_design', 1994, #31 ) ;
#277 = EDGE_LOOP ( 'NONE', ( #130 ) ) ;
#278 = PERSON ( 'UNSPECIFIED', 'UNSPECIFIED', 'UNSPECIFIED', ('UNSPECIFIED'), ('UNSPECIFIED'), ('UNSPECIFIED') ) ;
#279 = APPROVAL_ROLE ( '' ) ;
#280 = CIRCLE ( 'NONE', #263, 0.8100000000000003864 ) ;
#281 = DATE_AND_TIME ( #136, #68 ) ;
#282 = EDGE_LOOP ( 'NONE', ( #157 ) ) ;
#283 = PRODUCT ( '327051', '327051', '', ( #104 ) ) ;
#284 = DIRECTION ( 'NONE',  ( 0.0000000000000000000, 1.000000000000000000, 0.0000000000000000000 ) ) ;
#285 = ORIENTED_EDGE ( 'NONE', *, *, #10, .T. ) ;
#286 = FACE_OUTER_BOUND ( 'NONE', #21, .T. ) ;
#287 = AXIS2_PLACEMENT_3D ( 'NONE', #25, #292, #172 ) ;
#288 = DIRECTION ( 'NONE',  ( -4.275831445896958607E-31, -1.000000000000000000, -1.224646799147353207E-16 ) ) ;
#289 = CC_DESIGN_PERSON_AND_ORGANIZATION_ASSIGNMENT ( #303, #40, ( #233 ) ) ;
#290 = DIRECTION ( 'NONE',  ( -3.491481338843133355E-15, 1.224646799147353207E-16, -1.000000000000000000 ) ) ;
#291 = EDGE_CURVE ( 'NONE', #251, #251, #55, .T. ) ;
#292 = DIRECTION ( 'NONE',  ( -3.491481338843133355E-15, 1.224646799147353207E-16, -1.000000000000000000 ) ) ;
#293 = CIRCLE ( 'NONE', #83, 0.8099999999999989431 ) ;
#294 = DIRECTION ( 'NONE',  ( -3.491481338843133355E-15, 1.224646799147353207E-16, -1.000000000000000000 ) ) ;
#295 = VERTEX_POINT ( 'NONE', #53 ) ;
#296 =( NAMED_UNIT ( * ) PLANE_ANGLE_UNIT ( ) SI_UNIT ( $, .RADIAN. ) );
#297 = AXIS2_PLACEMENT_3D ( 'NONE', #47, #240, #228 ) ;
#298 = PRODUCT_DEFINITION ( 'UNKNOWN', '', #245, #150 ) ;
#299 = EDGE_LOOP ( 'NONE', ( #110 ) ) ;
#300 = CARTESIAN_POINT ( 'NONE',  ( -1.743817539493282529E-31, 6.116488563977425148E-33, -4.994491936969878027E-17 ) ) ;
#301 = CC_DESIGN_SECURITY_CLASSIFICATION ( #233, ( #245 ) ) ;
#302 = ADVANCED_FACE ( 'NONE', ( #273, #272 ), #95, .F. ) ;
#303 = PERSON_AND_ORGANIZATION ( #278, #79 ) ;
ENDSEC;
END-ISO-10303-21;
