ISO-10303-21;
HEADER;
FILE_DESCRIPTION (( 'STEP AP203' ),
    '1' );
FILE_NAME ('327050.step',
    '2021-12-01T14:04:00',
    ( '' ),
    ( '' ),
    'SwSTEP 2.0',
    'SolidWorks 2019',
    '' );
FILE_SCHEMA (( 'CONFIG_CONTROL_DESIGN' ));
ENDSEC;

DATA;
#1 = ORIENTED_EDGE ( 'NONE', *, *, #158, .T. ) ;
#2 = AXIS2_PLACEMENT_3D ( 'NONE', #77, #149, #236 ) ;
#3 = PRODUCT_RELATED_PRODUCT_CATEGORY ( 'detail', '', ( #206 ) ) ;
#4 = DIRECTION ( 'NONE',  ( 3.491481338843133355E-15, -1.224646799147353207E-16, 1.000000000000000000 ) ) ;
#5 = DIRECTION ( 'NONE',  ( -3.491481338843133355E-15, 1.224646799147353207E-16, -1.000000000000000000 ) ) ;
#6 = ADVANCED_FACE ( 'NONE', ( #283, #229 ), #132, .T. ) ;
#7 = CARTESIAN_POINT ( 'NONE',  ( 7.343091158800657137E-14, -2.575609665567363473E-15, 21.03144896439204814 ) ) ;
#8 = CARTESIAN_POINT ( 'NONE',  ( 0.0000000000000000000, 0.0000000000000000000, 0.0000000000000000000 ) ) ;
#9 = CARTESIAN_POINT ( 'NONE',  ( 1.745740669421566678E-13, 8.998558695971067645E-33, 50.00000000000000000 ) ) ;
#10 = VERTEX_POINT ( 'NONE', #272 ) ;
#11 = ORGANIZATION ( 'UNSPECIFIED', 'UNSPECIFIED', '' ) ;
#12 = VERTEX_POINT ( 'NONE', #81 ) ;
#13 =( NAMED_UNIT ( * ) SI_UNIT ( $, .STERADIAN. ) SOLID_ANGLE_UNIT ( ) );
#14 = AXIS2_PLACEMENT_3D ( 'NONE', #9, #25, #266 ) ;
#15 = EDGE_LOOP ( 'NONE', ( #78 ) ) ;
#16 = PRODUCT_DEFINITION_SHAPE ( 'NONE', 'NONE',  #237 ) ;
#17 = CIRCLE ( 'NONE', #76, 0.8199999999999939559 ) ;
#18 = PERSON_AND_ORGANIZATION ( #92, #11 ) ;
#19 = ORIENTED_EDGE ( 'NONE', *, *, #91, .F. ) ;
#20 = ORIENTED_EDGE ( 'NONE', *, *, #274, .F. ) ;
#21 = DIRECTION ( 'NONE',  ( 0.0000000000000000000, 1.000000000000000000, 0.0000000000000000000 ) ) ;
#22 = ADVANCED_FACE ( 'NONE', ( #179, #157 ), #269, .T. ) ;
#23 = CIRCLE ( 'NONE', #115, 0.8199999999999950662 ) ;
#24 = ORIENTED_EDGE ( 'NONE', *, *, #91, .T. ) ;
#25 = DIRECTION ( 'NONE',  ( -3.491481338843133355E-15, 1.224646799147353207E-16, -1.000000000000000000 ) ) ;
#26 = EDGE_CURVE ( 'NONE', #31, #31, #205, .T. ) ;
#27 = PLANE ( 'NONE',  #245 ) ;
#28 = LOCAL_TIME ( 15, 4, 0.0000000000000000000, #176 ) ;
#29 = PLANE ( 'NONE',  #178 ) ;
#30 = PLANE ( 'NONE',  #14 ) ;
#31 = VERTEX_POINT ( 'NONE', #294 ) ;
#32 = DATE_TIME_ROLE ( 'creation_date' ) ;
#33 = TOROIDAL_SURFACE ( 'NONE', #280, 2.819999999999995399, 2.000000000000000444 ) ;
#34 = APPROVAL_STATUS ( 'not_yet_approved' ) ;
#35 = CC_DESIGN_DATE_AND_TIME_ASSIGNMENT ( #267, #32, ( #237 ) ) ;
#36 = ORIENTED_EDGE ( 'NONE', *, *, #88, .T. ) ;
#37 = CARTESIAN_POINT ( 'NONE',  ( 0.0000000000000000000, 0.7756624327025946064, 0.0000000000000000000 ) ) ;
#38 = LOCAL_TIME ( 15, 4, 0.0000000000000000000, #282 ) ;
#39 = CALENDAR_DATE ( 2021, 1, 12 ) ;
#40 = DIRECTION ( 'NONE',  ( 4.275831445896958607E-31, 1.000000000000000000, 1.224646799147353207E-16 ) ) ;
#41 = COORDINATED_UNIVERSAL_TIME_OFFSET ( 1, 0, .AHEAD. ) ;
#42 = EDGE_LOOP ( 'NONE', ( #45 ) ) ;
#43 = EDGE_CURVE ( 'NONE', #160, #160, #291, .T. ) ;
#44 = ORIENTED_EDGE ( 'NONE', *, *, #158, .F. ) ;
#45 = ORIENTED_EDGE ( 'NONE', *, *, #125, .F. ) ;
#46 = FACE_OUTER_BOUND ( 'NONE', #60, .T. ) ;
#47 = ADVANCED_FACE ( 'NONE', ( #86, #255 ), #33, .F. ) ;
#48 = DIRECTION ( 'NONE',  ( 0.0000000000000000000, 1.000000000000000000, 0.0000000000000000000 ) ) ;
#49 = CYLINDRICAL_SURFACE ( 'NONE', #228, 0.9199999999999995959 ) ;
#50 = FACE_OUTER_BOUND ( 'NONE', #209, .T. ) ;
#51 = APPROVAL ( #136, 'UNSPECIFIED' ) ;
#52 = DIRECTION ( 'NONE',  ( -3.491481338843133355E-15, 1.224646799147353207E-16, -1.000000000000000000 ) ) ;
#53 =( NAMED_UNIT ( * ) PLANE_ANGLE_UNIT ( ) SI_UNIT ( $, .RADIAN. ) );
#54 = EDGE_LOOP ( 'NONE', ( #200 ) ) ;
#55 = VERTEX_POINT ( 'NONE', #37 ) ;
#56 =( GEOMETRIC_REPRESENTATION_CONTEXT ( 3 ) GLOBAL_UNCERTAINTY_ASSIGNED_CONTEXT ( ( #85 ) ) GLOBAL_UNIT_ASSIGNED_CONTEXT ( ( #156, #53, #13 ) ) REPRESENTATION_CONTEXT ( 'NONE', 'WORKASPACE' ) );
#57 = CC_DESIGN_DATE_AND_TIME_ASSIGNMENT ( #164, #118, ( #201 ) ) ;
#58 = EDGE_LOOP ( 'NONE', ( #19 ) ) ;
#59 = CARTESIAN_POINT ( 'NONE',  ( 7.343091158800657137E-14, 1.499999999999994005, 21.03144896439204814 ) ) ;
#60 = EDGE_LOOP ( 'NONE', ( #64 ) ) ;
#61 = PERSON_AND_ORGANIZATION ( #92, #11 ) ;
#62 = COORDINATED_UNIVERSAL_TIME_OFFSET ( 1, 0, .AHEAD. ) ;
#63 = AXIS2_PLACEMENT_3D ( 'NONE', #170, #218, #195 ) ;
#64 = ORIENTED_EDGE ( 'NONE', *, *, #43, .T. ) ;
#65 = EDGE_LOOP ( 'NONE', ( #143 ) ) ;
#66 = AXIS2_PLACEMENT_3D ( 'NONE', #75, #262, #122 ) ;
#67 = CARTESIAN_POINT ( 'NONE',  ( 5.935518276033326704E-14, -2.168404344971008868E-15, 17.00000000000000000 ) ) ;
#68 = PERSON_AND_ORGANIZATION ( #92, #11 ) ;
#69 = EDGE_LOOP ( 'NONE', ( #190 ) ) ;
#70 = DIRECTION ( 'NONE',  ( 4.275831445896958607E-31, 1.000000000000000000, 1.224646799147353454E-16 ) ) ;
#71 = CIRCLE ( 'NONE', #135, 1.500000000000001554 ) ;
#72 = CLOSED_SHELL ( 'NONE', ( #288, #241, #102, #297 ) ) ;
#73 = CARTESIAN_POINT ( 'NONE',  ( 5.935518276033326704E-14, -2.081899558550500280E-15, 17.00000000000000000 ) ) ;
#74 = DIRECTION ( 'NONE',  ( -3.491481338843133355E-15, 1.224646799147353207E-16, -1.000000000000000000 ) ) ;
#75 = CARTESIAN_POINT ( 'NONE',  ( 8.728703347107829444E-16, -3.061616997868381785E-17, 0.2499999999999998890 ) ) ;
#76 = AXIS2_PLACEMENT_3D ( 'NONE', #214, #217, #48 ) ;
#77 = CARTESIAN_POINT ( 'NONE',  ( 2.793185071074506684E-14, -9.797174393178825657E-16, 8.000000000000000000 ) ) ;
#78 = ORIENTED_EDGE ( 'NONE', *, *, #80, .F. ) ;
#79 = CARTESIAN_POINT ( 'NONE',  ( 0.0000000000000000000, 0.0000000000000000000, 0.0000000000000000000 ) ) ;
#80 = EDGE_CURVE ( 'NONE', #10, #10, #146, .T. ) ;
#81 = CARTESIAN_POINT ( 'NONE',  ( 6.056776150402961829E-14, 0.8503844939755726973, 17.34729635533384240 ) ) ;
#82 = AXIS2_PLACEMENT_3D ( 'NONE', #148, #196, #286 ) ;
#83 = EDGE_LOOP ( 'NONE', ( #36 ) ) ;
#84 = CARTESIAN_POINT ( 'NONE',  ( 1.735266225405037467E-13, 1.499999999999995559, 49.70000000000000284 ) ) ;
#85 = UNCERTAINTY_MEASURE_WITH_UNIT (LENGTH_MEASURE( 1.000000000000000082E-05 ), #156, 'distance_accuracy_value', 'NONE');
#86 = FACE_OUTER_BOUND ( 'NONE', #42, .T. ) ;
#87 = APPROVAL_ROLE ( '' ) ;
#88 = EDGE_CURVE ( 'NONE', #12, #12, #193, .T. ) ;
#89 = CC_DESIGN_APPROVAL ( #51, ( #201 ) ) ;
#90 = CARTESIAN_POINT ( 'NONE',  ( 1.745740669421566678E-13, -6.123233995736766085E-15, 50.00000000000000000 ) ) ;
#91 = EDGE_CURVE ( 'NONE', #198, #198, #265, .T. ) ;
#92 = PERSON ( 'UNSPECIFIED', 'UNSPECIFIED', 'UNSPECIFIED', ('UNSPECIFIED'), ('UNSPECIFIED'), ('UNSPECIFIED') ) ;
#93 = EDGE_LOOP ( 'NONE', ( #24 ) ) ;
#94 = CONICAL_SURFACE ( 'NONE', #63, 1.499999999999996669, 0.1745329251994263975 ) ;
#95 = DATE_AND_TIME ( #278, #220 ) ;
#96 = CARTESIAN_POINT ( 'NONE',  ( 8.728703347107829444E-16, -3.061616997868381785E-17, 0.2499999999999998890 ) ) ;
#97 = CARTESIAN_POINT ( 'NONE',  ( 2.793185071074506684E-14, 6.898895000244531038E-33, 8.000000000000000000 ) ) ;
#98 = CARTESIAN_POINT ( 'NONE',  ( 2.853659301800060557E-14, -1.000928944092382267E-15, 8.173205080756900998 ) ) ;
#99 = PRODUCT_DEFINITION_FORMATION_WITH_SPECIFIED_SOURCE ( 'ANY', '', #206, .NOT_KNOWN. ) ;
#100 = DIRECTION ( 'NONE',  ( 0.0000000000000000000, 1.000000000000000000, 0.0000000000000000000 ) ) ;
#101 = FACE_OUTER_BOUND ( 'NONE', #93, .T. ) ;
#102 = ADVANCED_FACE ( 'NONE', ( #175, #46 ), #49, .T. ) ;
#103 = FACE_OUTER_BOUND ( 'NONE', #277, .T. ) ;
#104 = CIRCLE ( 'NONE', #2, 0.9200000000000000400 ) ;
#105 = VERTEX_POINT ( 'NONE', #244 ) ;
#106 = EDGE_CURVE ( 'NONE', #225, #225, #104, .T. ) ;
#107 = APPROVAL_ROLE ( '' ) ;
#108 = DATE_AND_TIME ( #292, #28 ) ;
#109 = APPLICATION_PROTOCOL_DEFINITION ( 'international standard', 'config_control_design', 1994, #233 ) ;
#110 = AXIS2_PLACEMENT_3D ( 'NONE', #188, #208, #232 ) ;
#111 = DIRECTION ( 'NONE',  ( 0.0000000000000000000, 1.000000000000000000, 0.0000000000000000000 ) ) ;
#112 = DIRECTION ( 'NONE',  ( 1.000000000000000000, 0.0000000000000000000, 0.0000000000000000000 ) ) ;
#113 = MANIFOLD_SOLID_BREP ( 'Corps-Déplacer/Copier1[2]', #72 ) ;
#114 = CC_DESIGN_PERSON_AND_ORGANIZATION_ASSIGNMENT ( #68, #227, ( #99 ) ) ;
#115 = AXIS2_PLACEMENT_3D ( 'NONE', #73, #52, #123 ) ;
#116 = CLOSED_SHELL ( 'NONE', ( #189, #219, #6, #47, #210, #134, #22, #117 ) ) ;
#117 = ADVANCED_FACE ( 'NONE', ( #191 ), #30, .F. ) ;
#118 = DATE_TIME_ROLE ( 'classification_date' ) ;
#119 = DIRECTION ( 'NONE',  ( -3.491481338843133355E-15, 1.224646799147353207E-16, -1.000000000000000000 ) ) ;
#120 = DIRECTION ( 'NONE',  ( -3.491481338843133355E-15, 1.224646799147353207E-16, -1.000000000000000000 ) ) ;
#121 = APPROVAL_PERSON_ORGANIZATION ( #139, #51, #162 ) ;
#122 = DIRECTION ( 'NONE',  ( -4.186804226928778201E-31, -1.000000000000000000, -1.178480622266853943E-16 ) ) ;
#123 = DIRECTION ( 'NONE',  ( 0.0000000000000000000, 1.000000000000000000, 0.0000000000000000000 ) ) ;
#124 = DIRECTION ( 'NONE',  ( 3.491481338843133355E-15, -1.224646799147353207E-16, 1.000000000000000000 ) ) ;
#125 = EDGE_CURVE ( 'NONE', #248, #248, #23, .T. ) ;
#126 = CARTESIAN_POINT ( 'NONE',  ( 2.793185071074506684E-14, 6.898895000244531038E-33, 8.000000000000000000 ) ) ;
#127 = FACE_OUTER_BOUND ( 'NONE', #186, .T. ) ;
#128 = PERSON_AND_ORGANIZATION_ROLE ( 'design_owner' ) ;
#129 = PERSON_AND_ORGANIZATION ( #92, #11 ) ;
#130 = MECHANICAL_CONTEXT ( 'NONE', #233, 'mechanical' ) ;
#131 = DIRECTION ( 'NONE',  ( 0.0000000000000000000, 0.0000000000000000000, 1.000000000000000000 ) ) ;
#132 = CYLINDRICAL_SURFACE ( 'NONE', #155, 0.8199999999999945111 ) ;
#133 = AXIS2_PLACEMENT_3D ( 'NONE', #98, #192, #289 ) ;
#134 = ADVANCED_FACE ( 'NONE', ( #261, #287 ), #242, .T. ) ;
#135 = AXIS2_PLACEMENT_3D ( 'NONE', #152, #5, #215 ) ;
#136 = APPROVAL_STATUS ( 'not_yet_approved' ) ;
#137 = SHAPE_DEFINITION_REPRESENTATION ( #16, #184 ) ;
#138 = EDGE_CURVE ( 'NONE', #105, #105, #17, .T. ) ;
#139 = PERSON_AND_ORGANIZATION ( #92, #11 ) ;
#140 = EDGE_LOOP ( 'NONE', ( #169 ) ) ;
#141 = AXIS2_PLACEMENT_3D ( 'NONE', #281, #163, #111 ) ;
#142 = APPROVAL_DATE_TIME ( #95, #51 ) ;
#143 = ORIENTED_EDGE ( 'NONE', *, *, #274, .T. ) ;
#144 = CARTESIAN_POINT ( 'NONE',  ( 0.0000000000000000000, 0.0000000000000000000, 0.0000000000000000000 ) ) ;
#145 = CC_DESIGN_PERSON_AND_ORGANIZATION_ASSIGNMENT ( #18, #226, ( #201 ) ) ;
#146 = CIRCLE ( 'NONE', #240, 1.200000000000001732 ) ;
#147 = DIRECTION ( 'NONE',  ( -3.491481338843133355E-15, 1.224646799147353207E-16, -1.000000000000000000 ) ) ;
#148 = CARTESIAN_POINT ( 'NONE',  ( -3.316601821150687345E-31, 1.163307321489010972E-32, -9.499125154280817089E-17 ) ) ;
#149 = DIRECTION ( 'NONE',  ( -3.491481338843133355E-15, 1.224646799147353207E-16, -1.000000000000000000 ) ) ;
#150 = AXIS2_PLACEMENT_3D ( 'NONE', #96, #224, #247 ) ;
#151 = DIRECTION ( 'NONE',  ( -3.491481338843133355E-15, 1.224646799147353207E-16, -1.000000000000000000 ) ) ;
#152 = CARTESIAN_POINT ( 'NONE',  ( 1.735266225405037467E-13, -6.086494591762345225E-15, 49.70000000000000284 ) ) ;
#153 = CARTESIAN_POINT ( 'NONE',  ( 2.793185071074506684E-14, 0.9199999999999990408, 8.000000000000000000 ) ) ;
#154 = VERTEX_POINT ( 'NONE', #84 ) ;
#155 = AXIS2_PLACEMENT_3D ( 'NONE', #144, #119, #40 ) ;
#156 =( LENGTH_UNIT ( ) NAMED_UNIT ( * ) SI_UNIT ( .MILLI., .METRE. ) );
#157 = FACE_BOUND ( 'NONE', #302, .T. ) ;
#158 = EDGE_CURVE ( 'NONE', #154, #154, #71, .T. ) ;
#159 = APPROVAL_DATE_TIME ( #108, #260 ) ;
#160 = VERTEX_POINT ( 'NONE', #270 ) ;
#161 = AXIS2_PLACEMENT_3D ( 'NONE', #7, #151, #100 ) ;
#162 = APPROVAL_ROLE ( '' ) ;
#163 = DIRECTION ( 'NONE',  ( -3.491481338843133355E-15, 1.224646799147353207E-16, -1.000000000000000000 ) ) ;
#164 = DATE_AND_TIME ( #39, #38 ) ;
#165 = APPROVAL_PERSON_ORGANIZATION ( #61, #260, #87 ) ;
#166 = EDGE_LOOP ( 'NONE', ( #268 ) ) ;
#167 = DIRECTION ( 'NONE',  ( -3.491481338843133355E-15, 1.224646799147353207E-16, -1.000000000000000000 ) ) ;
#168 = CC_DESIGN_PERSON_AND_ORGANIZATION_ASSIGNMENT ( #296, #128, ( #206 ) ) ;
#169 = ORIENTED_EDGE ( 'NONE', *, *, #138, .F. ) ;
#170 = CARTESIAN_POINT ( 'NONE',  ( 7.343091158800657137E-14, -2.575609665567363473E-15, 21.03144896439204814 ) ) ;
#171 = CARTESIAN_POINT ( 'NONE',  ( -1.658300910575343673E-31, 5.816536607445054858E-33, -4.749562577140408544E-17 ) ) ;
#172 = FACE_BOUND ( 'NONE', #231, .T. ) ;
#173 = PLANE ( 'NONE',  #252 ) ;
#174 = APPROVAL_PERSON_ORGANIZATION ( #129, #230, #107 ) ;
#175 = FACE_OUTER_BOUND ( 'NONE', #54, .T. ) ;
#176 = COORDINATED_UNIVERSAL_TIME_OFFSET ( 1, 0, .AHEAD. ) ;
#177 = ORIENTED_EDGE ( 'NONE', *, *, #138, .T. ) ;
#178 = AXIS2_PLACEMENT_3D ( 'NONE', #126, #290, #284 ) ;
#179 = FACE_OUTER_BOUND ( 'NONE', #293, .T. ) ;
#180 = CARTESIAN_POINT ( 'NONE',  ( 5.935518276033326704E-14, 0.8199999999999930678, 17.00000000000000000 ) ) ;
#181 = CARTESIAN_POINT ( 'NONE',  ( 6.056776150402961829E-14, -2.124431095542013598E-15, 17.34729635533384240 ) ) ;
#182 = SECURITY_CLASSIFICATION_LEVEL ( 'unclassified' ) ;
#183 = AXIS2_PLACEMENT_3D ( 'NONE', #181, #120, #212 ) ;
#184 = ADVANCED_BREP_SHAPE_REPRESENTATION ( '327050', ( #303, #113, #264 ), #56 ) ;
#185 = PERSON_AND_ORGANIZATION ( #92, #11 ) ;
#186 = EDGE_LOOP ( 'NONE', ( #271 ) ) ;
#187 = AXIS2_PLACEMENT_3D ( 'NONE', #239, #74, #70 ) ;
#188 = CARTESIAN_POINT ( 'NONE',  ( 1.745740669421566678E-13, -6.123233995736766085E-15, 50.00000000000000000 ) ) ;
#189 = ADVANCED_FACE ( 'NONE', ( #127 ), #29, .F. ) ;
#190 = ORIENTED_EDGE ( 'NONE', *, *, #43, .F. ) ;
#191 = FACE_OUTER_BOUND ( 'NONE', #15, .T. ) ;
#192 = DIRECTION ( 'NONE',  ( -3.491481338843133355E-15, 1.224646799147353207E-16, -1.000000000000000000 ) ) ;
#193 = CIRCLE ( 'NONE', #183, 0.8503844939755749177 ) ;
#194 = DIRECTION ( 'NONE',  ( 4.275831445896958607E-31, 1.000000000000000000, 1.224646799147353207E-16 ) ) ;
#195 = DIRECTION ( 'NONE',  ( 0.0000000000000000000, -1.000000000000000000, 0.0000000000000000000 ) ) ;
#196 = DIRECTION ( 'NONE',  ( -3.491481338843133355E-15, 1.224646799147353207E-16, -1.000000000000000000 ) ) ;
#197 = CC_DESIGN_APPROVAL ( #260, ( #237 ) ) ;
#198 = VERTEX_POINT ( 'NONE', #59 ) ;
#199 = CALENDAR_DATE ( 2021, 1, 12 ) ;
#200 = ORIENTED_EDGE ( 'NONE', *, *, #26, .F. ) ;
#201 = SECURITY_CLASSIFICATION ( '', '', #182 ) ;
#202 = EDGE_LOOP ( 'NONE', ( #1 ) ) ;
#203 = PERSON_AND_ORGANIZATION_ROLE ( 'creator' ) ;
#204 = CC_DESIGN_PERSON_AND_ORGANIZATION_ASSIGNMENT ( #185, #299, ( #99 ) ) ;
#205 = CIRCLE ( 'NONE', #150, 0.9199999999999990408 ) ;
#206 = PRODUCT ( '327050', '327050', '', ( #130 ) ) ;
#207 = DATE_AND_TIME ( #300, #276 ) ;
#208 = DIRECTION ( 'NONE',  ( -3.491481338843133355E-15, 1.224646799147353207E-16, -1.000000000000000000 ) ) ;
#209 = EDGE_LOOP ( 'NONE', ( #295 ) ) ;
#210 = ADVANCED_FACE ( 'NONE', ( #263, #101 ), #94, .T. ) ;
#211 = CIRCLE ( 'NONE', #82, 0.7756624327025946064 ) ;
#212 = DIRECTION ( 'NONE',  ( 0.0000000000000000000, 1.000000000000000000, 0.0000000000000000000 ) ) ;
#213 = FACE_OUTER_BOUND ( 'NONE', #65, .T. ) ;
#214 = CARTESIAN_POINT ( 'NONE',  ( 2.853659301800060557E-14, -1.000928944092382267E-15, 8.173205080756900998 ) ) ;
#215 = DIRECTION ( 'NONE',  ( 0.0000000000000000000, 1.000000000000000000, 0.0000000000000000000 ) ) ;
#216 = CONICAL_SURFACE ( 'NONE', #133, 0.8199999999999939559, 0.5235987755982938197 ) ;
#217 = DIRECTION ( 'NONE',  ( -3.491481338843133355E-15, 1.224646799147353207E-16, -1.000000000000000000 ) ) ;
#218 = DIRECTION ( 'NONE',  ( 3.491481338843133355E-15, -1.224646799147353207E-16, 1.000000000000000000 ) ) ;
#219 = ADVANCED_FACE ( 'NONE', ( #50, #258 ), #216, .T. ) ;
#220 = LOCAL_TIME ( 15, 4, 0.0000000000000000000, #253 ) ;
#221 = APPROVAL_STATUS ( 'not_yet_approved' ) ;
#222 = CC_DESIGN_PERSON_AND_ORGANIZATION_ASSIGNMENT ( #275, #203, ( #237 ) ) ;
#223 = DIRECTION ( 'NONE',  ( -4.275831445896958607E-31, -1.000000000000000000, -1.224646799147353207E-16 ) ) ;
#224 = DIRECTION ( 'NONE',  ( -3.491481338843133355E-15, 1.224646799147353207E-16, -1.000000000000000000 ) ) ;
#225 = VERTEX_POINT ( 'NONE', #153 ) ;
#226 = PERSON_AND_ORGANIZATION_ROLE ( 'classification_officer' ) ;
#227 = PERSON_AND_ORGANIZATION_ROLE ( 'creator' ) ;
#228 = AXIS2_PLACEMENT_3D ( 'NONE', #8, #147, #194 ) ;
#229 = FACE_OUTER_BOUND ( 'NONE', #235, .T. ) ;
#230 = APPROVAL ( #221, 'UNSPECIFIED' ) ;
#231 = EDGE_LOOP ( 'NONE', ( #20 ) ) ;
#232 = DIRECTION ( 'NONE',  ( 0.0000000000000000000, 1.000000000000000000, 0.0000000000000000000 ) ) ;
#233 = APPLICATION_CONTEXT ( 'configuration controlled 3d designs of mechanical parts and assemblies' ) ;
#234 = CC_DESIGN_APPROVAL ( #230, ( #99 ) ) ;
#235 = EDGE_LOOP ( 'NONE', ( #298 ) ) ;
#236 = DIRECTION ( 'NONE',  ( 0.0000000000000000000, 1.000000000000000000, 0.0000000000000000000 ) ) ;
#237 = PRODUCT_DEFINITION ( 'UNKNOWN', '', #99, #273 ) ;
#238 = FACE_OUTER_BOUND ( 'NONE', #69, .T. ) ;
#239 = CARTESIAN_POINT ( 'NONE',  ( 0.0000000000000000000, 0.0000000000000000000, 0.0000000000000000000 ) ) ;
#240 = AXIS2_PLACEMENT_3D ( 'NONE', #90, #279, #21 ) ;
#241 = ADVANCED_FACE ( 'NONE', ( #172, #103 ), #249, .T. ) ;
#242 = CYLINDRICAL_SURFACE ( 'NONE', #187, 1.499999999999999112 ) ;
#243 = DIRECTION ( 'NONE',  ( -4.275831445896958607E-31, -1.000000000000000000, -1.224646799147353207E-16 ) ) ;
#244 = CARTESIAN_POINT ( 'NONE',  ( 2.853659301800060557E-14, 0.8199999999999929567, 8.173205080756900998 ) ) ;
#245 = AXIS2_PLACEMENT_3D ( 'NONE', #97, #124, #223 ) ;
#246 = APPLICATION_PROTOCOL_DEFINITION ( 'international standard', 'config_control_design', 1994, #259 ) ;
#247 = DIRECTION ( 'NONE',  ( 4.186804226928778201E-31, 1.000000000000000000, 1.178480622266853943E-16 ) ) ;
#248 = VERTEX_POINT ( 'NONE', #180 ) ;
#249 = CONICAL_SURFACE ( 'NONE', #66, 0.9199999999999990408, 0.5235987755982930425 ) ;
#250 = APPROVAL_DATE_TIME ( #207, #230 ) ;
#251 = ORIENTED_EDGE ( 'NONE', *, *, #80, .T. ) ;
#252 = AXIS2_PLACEMENT_3D ( 'NONE', #171, #4, #243 ) ;
#253 = COORDINATED_UNIVERSAL_TIME_OFFSET ( 1, 0, .AHEAD. ) ;
#254 = EDGE_LOOP ( 'NONE', ( #177 ) ) ;
#255 = FACE_OUTER_BOUND ( 'NONE', #83, .T. ) ;
#256 = ORIENTED_EDGE ( 'NONE', *, *, #26, .T. ) ;
#257 = CC_DESIGN_SECURITY_CLASSIFICATION ( #201, ( #99 ) ) ;
#258 = FACE_BOUND ( 'NONE', #254, .T. ) ;
#259 = APPLICATION_CONTEXT ( 'configuration controlled 3d designs of mechanical parts and assemblies' ) ;
#260 = APPROVAL ( #34, 'UNSPECIFIED' ) ;
#261 = FACE_OUTER_BOUND ( 'NONE', #58, .T. ) ;
#262 = DIRECTION ( 'NONE',  ( 3.491481338843133355E-15, -1.224646799147353207E-16, 1.000000000000000000 ) ) ;
#263 = FACE_BOUND ( 'NONE', #166, .T. ) ;
#264 = AXIS2_PLACEMENT_3D ( 'NONE', #79, #131, #112 ) ;
#265 = CIRCLE ( 'NONE', #161, 1.499999999999996669 ) ;
#266 = DIRECTION ( 'NONE',  ( 4.275831445896958607E-31, 1.000000000000000000, 1.224646799147353207E-16 ) ) ;
#267 = DATE_AND_TIME ( #199, #285 ) ;
#268 = ORIENTED_EDGE ( 'NONE', *, *, #88, .F. ) ;
#269 = CONICAL_SURFACE ( 'NONE', #110, 1.200000000000001732, 0.7853981633974453924 ) ;
#270 = CARTESIAN_POINT ( 'NONE',  ( 2.793185071074506684E-14, 0.9199999999999990408, 8.000000000000000000 ) ) ;
#271 = ORIENTED_EDGE ( 'NONE', *, *, #106, .T. ) ;
#272 = CARTESIAN_POINT ( 'NONE',  ( 1.745740669421566678E-13, 1.199999999999995515, 50.00000000000000000 ) ) ;
#273 = DESIGN_CONTEXT ( 'detailed design', #259, 'design' ) ;
#274 = EDGE_CURVE ( 'NONE', #55, #55, #211, .T. ) ;
#275 = PERSON_AND_ORGANIZATION ( #92, #11 ) ;
#276 = LOCAL_TIME ( 15, 4, 0.0000000000000000000, #41 ) ;
#277 = EDGE_LOOP ( 'NONE', ( #256 ) ) ;
#278 = CALENDAR_DATE ( 2021, 1, 12 ) ;
#279 = DIRECTION ( 'NONE',  ( -3.491481338843133355E-15, 1.224646799147353207E-16, -1.000000000000000000 ) ) ;
#280 = AXIS2_PLACEMENT_3D ( 'NONE', #67, #167, #301 ) ;
#281 = CARTESIAN_POINT ( 'NONE',  ( 2.793185071074506684E-14, -9.797174393178825657E-16, 8.000000000000000000 ) ) ;
#282 = COORDINATED_UNIVERSAL_TIME_OFFSET ( 1, 0, .AHEAD. ) ;
#283 = FACE_OUTER_BOUND ( 'NONE', #140, .T. ) ;
#284 = DIRECTION ( 'NONE',  ( -4.275831445896958607E-31, -1.000000000000000000, -1.224646799147353207E-16 ) ) ;
#285 = LOCAL_TIME ( 15, 4, 0.0000000000000000000, #62 ) ;
#286 = DIRECTION ( 'NONE',  ( 4.275831445896958607E-31, 1.000000000000000000, 1.224646799147353207E-16 ) ) ;
#287 = FACE_OUTER_BOUND ( 'NONE', #202, .T. ) ;
#288 = ADVANCED_FACE ( 'NONE', ( #213 ), #173, .F. ) ;
#289 = DIRECTION ( 'NONE',  ( 0.0000000000000000000, 1.000000000000000000, 0.0000000000000000000 ) ) ;
#290 = DIRECTION ( 'NONE',  ( 3.491481338843133355E-15, -1.224646799147353207E-16, 1.000000000000000000 ) ) ;
#291 = CIRCLE ( 'NONE', #141, 0.9200000000000000400 ) ;
#292 = CALENDAR_DATE ( 2021, 1, 12 ) ;
#293 = EDGE_LOOP ( 'NONE', ( #44 ) ) ;
#294 = CARTESIAN_POINT ( 'NONE',  ( 8.728703347107833388E-16, 0.9199999999999990408, 0.2500000000000000000 ) ) ;
#295 = ORIENTED_EDGE ( 'NONE', *, *, #106, .F. ) ;
#296 = PERSON_AND_ORGANIZATION ( #92, #11 ) ;
#297 = ADVANCED_FACE ( 'NONE', ( #238 ), #27, .T. ) ;
#298 = ORIENTED_EDGE ( 'NONE', *, *, #125, .T. ) ;
#299 = PERSON_AND_ORGANIZATION_ROLE ( 'design_supplier' ) ;
#300 = CALENDAR_DATE ( 2021, 1, 12 ) ;
#301 = DIRECTION ( 'NONE',  ( 4.275831445896958607E-31, 1.000000000000000000, 1.224646799147353207E-16 ) ) ;
#302 = EDGE_LOOP ( 'NONE', ( #251 ) ) ;
#303 = MANIFOLD_SOLID_BREP ( 'Corps-Déplacer/Copier1[1]', #116 ) ;
ENDSEC;
END-ISO-10303-21;
