ISO-10303-21;
HEADER;
FILE_DESCRIPTION (( 'STEP AP203' ),
    '1' );
FILE_NAME ('327049.step',
    '2021-12-01T14:03:59',
    ( '' ),
    ( '' ),
    'SwSTEP 2.0',
    'SolidWorks 2019',
    '' );
FILE_SCHEMA (( 'CONFIG_CONTROL_DESIGN' ));
ENDSEC;

DATA;
#1 = EDGE_LOOP ( 'NONE', ( #283 ) ) ;
#2 = VERTEX_POINT ( 'NONE', #149 ) ;
#3 = CC_DESIGN_PERSON_AND_ORGANIZATION_ASSIGNMENT ( #11, #251, ( #57 ) ) ;
#4 = ORIENTED_EDGE ( 'NONE', *, *, #53, .F. ) ;
#5 = EDGE_LOOP ( 'NONE', ( #146 ) ) ;
#6 = EDGE_LOOP ( 'NONE', ( #78 ) ) ;
#7 = ADVANCED_FACE ( 'NONE', ( #200, #217 ), #176, .T. ) ;
#8 = COORDINATED_UNIVERSAL_TIME_OFFSET ( 1, 0, .AHEAD. ) ;
#9 = AXIS2_PLACEMENT_3D ( 'NONE', #46, #238, #180 ) ;
#10 = EDGE_LOOP ( 'NONE', ( #54 ) ) ;
#11 = PERSON_AND_ORGANIZATION ( #14, #75 ) ;
#12 = DIRECTION ( 'NONE',  ( -3.491481338843133355E-15, 1.224646799147353207E-16, -1.000000000000000000 ) ) ;
#13 = APPROVAL_STATUS ( 'not_yet_approved' ) ;
#14 = PERSON ( 'UNSPECIFIED', 'UNSPECIFIED', 'UNSPECIFIED', ('UNSPECIFIED'), ('UNSPECIFIED'), ('UNSPECIFIED') ) ;
#15 = DIRECTION ( 'NONE',  ( 0.0000000000000000000, 1.000000000000000000, 0.0000000000000000000 ) ) ;
#16 = AXIS2_PLACEMENT_3D ( 'NONE', #62, #107, #289 ) ;
#17 = CARTESIAN_POINT ( 'NONE',  ( 1.735266225405037467E-13, -6.086494591762345225E-15, 49.70000000000000284 ) ) ;
#18 = DIRECTION ( 'NONE',  ( -3.491481338843133355E-15, 1.224646799147353207E-16, -1.000000000000000000 ) ) ;
#19 = DIRECTION ( 'NONE',  ( 3.491481338843133355E-15, -1.224646799147353207E-16, 1.000000000000000000 ) ) ;
#20 = EDGE_CURVE ( 'NONE', #29, #29, #249, .T. ) ;
#21 = UNCERTAINTY_MEASURE_WITH_UNIT (LENGTH_MEASURE( 1.000000000000000082E-05 ), #70, 'distance_accuracy_value', 'NONE');
#22 = AXIS2_PLACEMENT_3D ( 'NONE', #196, #152, #33 ) ;
#23 = PRODUCT ( '327049', '327049', '', ( #141 ) ) ;
#24 = CC_DESIGN_DATE_AND_TIME_ASSIGNMENT ( #233, #211, ( #265 ) ) ;
#25 = APPROVAL_PERSON_ORGANIZATION ( #158, #111, #272 ) ;
#26 = PERSON_AND_ORGANIZATION ( #14, #75 ) ;
#27 = CARTESIAN_POINT ( 'NONE',  ( 2.793185071074506684E-14, 0.9099999999999990319, 8.000000000000000000 ) ) ;
#28 = EDGE_LOOP ( 'NONE', ( #66 ) ) ;
#29 = VERTEX_POINT ( 'NONE', #256 ) ;
#30 = ORIENTED_EDGE ( 'NONE', *, *, #128, .F. ) ;
#31 = CARTESIAN_POINT ( 'NONE',  ( 6.056776150402961829E-14, 0.8403844939755792387, 17.34729635533384240 ) ) ;
#32 = EDGE_LOOP ( 'NONE', ( #4 ) ) ;
#33 = DIRECTION ( 'NONE',  ( 0.0000000000000000000, 1.000000000000000000, 0.0000000000000000000 ) ) ;
#34 = APPROVAL_DATE_TIME ( #55, #214 ) ;
#35 = FACE_OUTER_BOUND ( 'NONE', #5, .T. ) ;
#36 = FACE_OUTER_BOUND ( 'NONE', #1, .T. ) ;
#37 = PLANE ( 'NONE',  #161 ) ;
#38 =( GEOMETRIC_REPRESENTATION_CONTEXT ( 3 ) GLOBAL_UNCERTAINTY_ASSIGNED_CONTEXT ( ( #21 ) ) GLOBAL_UNIT_ASSIGNED_CONTEXT ( ( #70, #167, #164 ) ) REPRESENTATION_CONTEXT ( 'NONE', 'WORKASPACE' ) );
#39 = DIRECTION ( 'NONE',  ( -3.491481338843133355E-15, 1.224646799147353207E-16, -1.000000000000000000 ) ) ;
#40 = FACE_BOUND ( 'NONE', #6, .T. ) ;
#41 = ADVANCED_BREP_SHAPE_REPRESENTATION ( '327049', ( #303, #216, #299 ), #38 ) ;
#42 = CIRCLE ( 'NONE', #230, 1.499999999999996669 ) ;
#43 = VERTEX_POINT ( 'NONE', #259 ) ;
#44 = AXIS2_PLACEMENT_3D ( 'NONE', #181, #296, #64 ) ;
#45 = ADVANCED_FACE ( 'NONE', ( #35, #193 ), #50, .T. ) ;
#46 = CARTESIAN_POINT ( 'NONE',  ( 5.935518276033326704E-14, -2.081899558550500280E-15, 17.00000000000000000 ) ) ;
#47 = CARTESIAN_POINT ( 'NONE',  ( 2.793185071074506684E-14, 0.9099999999999990319, 8.000000000000000000 ) ) ;
#48 = ORIENTED_EDGE ( 'NONE', *, *, #208, .T. ) ;
#49 = COORDINATED_UNIVERSAL_TIME_OFFSET ( 1, 0, .AHEAD. ) ;
#50 = CYLINDRICAL_SURFACE ( 'NONE', #132, 0.9099999999999995870 ) ;
#51 = CIRCLE ( 'NONE', #9, 0.8100000000000002753 ) ;
#52 = EDGE_LOOP ( 'NONE', ( #95 ) ) ;
#53 = EDGE_CURVE ( 'NONE', #119, #119, #156, .T. ) ;
#54 = ORIENTED_EDGE ( 'NONE', *, *, #189, .F. ) ;
#55 = DATE_AND_TIME ( #270, #297 ) ;
#56 = DIRECTION ( 'NONE',  ( 4.275831445896958607E-31, 1.000000000000000000, 1.224646799147353207E-16 ) ) ;
#57 = PRODUCT_DEFINITION_FORMATION_WITH_SPECIFIED_SOURCE ( 'ANY', '', #23, .NOT_KNOWN. ) ;
#58 = DATE_AND_TIME ( #100, #254 ) ;
#59 = AXIS2_PLACEMENT_3D ( 'NONE', #166, #69, #262 ) ;
#60 = FACE_OUTER_BOUND ( 'NONE', #32, .T. ) ;
#61 = EDGE_CURVE ( 'NONE', #213, #213, #267, .T. ) ;
#62 = CARTESIAN_POINT ( 'NONE',  ( 2.793185071074506684E-14, -9.797174393178825657E-16, 8.000000000000000000 ) ) ;
#63 = CARTESIAN_POINT ( 'NONE',  ( 0.0000000000000000000, 0.0000000000000000000, 0.0000000000000000000 ) ) ;
#64 = DIRECTION ( 'NONE',  ( -4.275831445896958607E-31, -1.000000000000000000, -1.224646799147353207E-16 ) ) ;
#65 = CARTESIAN_POINT ( 'NONE',  ( 2.853659301800057402E-14, 0.8099999999999980549, 8.173205080756892116 ) ) ;
#66 = ORIENTED_EDGE ( 'NONE', *, *, #208, .F. ) ;
#67 = CLOSED_SHELL ( 'NONE', ( #93, #138, #131, #184, #86, #7, #260, #168 ) ) ;
#68 = EDGE_CURVE ( 'NONE', #278, #278, #192, .T. ) ;
#69 = DIRECTION ( 'NONE',  ( -3.491481338843133355E-15, 1.224646799147353207E-16, -1.000000000000000000 ) ) ;
#70 =( LENGTH_UNIT ( ) NAMED_UNIT ( * ) SI_UNIT ( .MILLI., .METRE. ) );
#71 = EDGE_LOOP ( 'NONE', ( #287 ) ) ;
#72 = DIRECTION ( 'NONE',  ( 0.0000000000000000000, 0.0000000000000000000, 1.000000000000000000 ) ) ;
#73 = ORIENTED_EDGE ( 'NONE', *, *, #76, .T. ) ;
#74 = EDGE_LOOP ( 'NONE', ( #104 ) ) ;
#75 = ORGANIZATION ( 'UNSPECIFIED', 'UNSPECIFIED', '' ) ;
#76 = EDGE_CURVE ( 'NONE', #2, #2, #51, .T. ) ;
#77 = CONICAL_SURFACE ( 'NONE', #212, 1.200000000000001732, 0.7853981633974453924 ) ;
#78 = ORIENTED_EDGE ( 'NONE', *, *, #20, .F. ) ;
#79 = PERSON_AND_ORGANIZATION_ROLE ( 'design_supplier' ) ;
#80 = DIRECTION ( 'NONE',  ( 0.0000000000000000000, -1.000000000000000000, 0.0000000000000000000 ) ) ;
#81 = EDGE_CURVE ( 'NONE', #241, #241, #137, .T. ) ;
#82 = DIRECTION ( 'NONE',  ( -3.491481338843133355E-15, 1.224646799147353207E-16, -1.000000000000000000 ) ) ;
#83 = LOCAL_TIME ( 15, 3, 59.00000000000000000, #215 ) ;
#84 = DIRECTION ( 'NONE',  ( -3.491481338843133355E-15, 1.224646799147353207E-16, -1.000000000000000000 ) ) ;
#85 = DIRECTION ( 'NONE',  ( 4.275831445896958607E-31, 1.000000000000000000, 1.224646799147353207E-16 ) ) ;
#86 = ADVANCED_FACE ( 'NONE', ( #110, #226 ), #188, .T. ) ;
#87 = CYLINDRICAL_SURFACE ( 'NONE', #220, 0.8099999999999996092 ) ;
#88 = APPROVAL_PERSON_ORGANIZATION ( #175, #214, #222 ) ;
#89 = AXIS2_PLACEMENT_3D ( 'NONE', #182, #82, #109 ) ;
#90 = DESIGN_CONTEXT ( 'detailed design', #106, 'design' ) ;
#91 = CARTESIAN_POINT ( 'NONE',  ( 1.735266225405037467E-13, 1.499999999999995559, 49.70000000000000284 ) ) ;
#92 = CONICAL_SURFACE ( 'NONE', #89, 0.8099999999999989431, 0.5235987755982933756 ) ;
#93 = ADVANCED_FACE ( 'NONE', ( #274 ), #112, .F. ) ;
#94 = PERSON_AND_ORGANIZATION ( #14, #75 ) ;
#95 = ORIENTED_EDGE ( 'NONE', *, *, #115, .T. ) ;
#96 = AXIS2_PLACEMENT_3D ( 'NONE', #245, #243, #268 ) ;
#97 = CIRCLE ( 'NONE', #286, 1.500000000000001554 ) ;
#98 = CARTESIAN_POINT ( 'NONE',  ( 0.0000000000000000000, 0.0000000000000000000, 0.0000000000000000000 ) ) ;
#99 = EDGE_LOOP ( 'NONE', ( #123 ) ) ;
#100 = CALENDAR_DATE ( 2021, 1, 12 ) ;
#101 = DIRECTION ( 'NONE',  ( 4.275831445896958607E-31, 1.000000000000000000, 1.224646799147353207E-16 ) ) ;
#102 = AXIS2_PLACEMENT_3D ( 'NONE', #98, #269, #195 ) ;
#103 = PERSON_AND_ORGANIZATION ( #14, #75 ) ;
#104 = ORIENTED_EDGE ( 'NONE', *, *, #115, .F. ) ;
#105 = CC_DESIGN_PERSON_AND_ORGANIZATION_ASSIGNMENT ( #103, #79, ( #57 ) ) ;
#106 = APPLICATION_CONTEXT ( 'configuration controlled 3d designs of mechanical parts and assemblies' ) ;
#107 = DIRECTION ( 'NONE',  ( -3.491481338843133355E-15, 1.224646799147353207E-16, -1.000000000000000000 ) ) ;
#108 = FACE_OUTER_BOUND ( 'NONE', #74, .T. ) ;
#109 = DIRECTION ( 'NONE',  ( 0.0000000000000000000, 1.000000000000000000, 0.0000000000000000000 ) ) ;
#110 = FACE_BOUND ( 'NONE', #10, .T. ) ;
#111 = APPROVAL ( #13, 'UNSPECIFIED' ) ;
#112 = PLANE ( 'NONE',  #44 ) ;
#113 = PERSON_AND_ORGANIZATION_ROLE ( 'design_owner' ) ;
#114 = CC_DESIGN_PERSON_AND_ORGANIZATION_ASSIGNMENT ( #199, #288, ( #210 ) ) ;
#115 = EDGE_CURVE ( 'NONE', #185, #185, #97, .T. ) ;
#116 = CC_DESIGN_SECURITY_CLASSIFICATION ( #210, ( #57 ) ) ;
#117 = CLOSED_SHELL ( 'NONE', ( #118, #203, #45, #153 ) ) ;
#118 = ADVANCED_FACE ( 'NONE', ( #159 ), #37, .F. ) ;
#119 = VERTEX_POINT ( 'NONE', #27 ) ;
#120 = PERSON_AND_ORGANIZATION_ROLE ( 'creator' ) ;
#121 = ORIENTED_EDGE ( 'NONE', *, *, #53, .T. ) ;
#122 = VERTEX_POINT ( 'NONE', #31 ) ;
#123 = ORIENTED_EDGE ( 'NONE', *, *, #81, .F. ) ;
#124 = CIRCLE ( 'NONE', #242, 1.200000000000001732 ) ;
#125 = COORDINATED_UNIVERSAL_TIME_OFFSET ( 1, 0, .AHEAD. ) ;
#126 = ORIENTED_EDGE ( 'NONE', *, *, #128, .T. ) ;
#127 = CARTESIAN_POINT ( 'NONE',  ( 2.853659301800057402E-14, -1.000928944092381281E-15, 8.173205080756892116 ) ) ;
#128 = EDGE_CURVE ( 'NONE', #144, #144, #42, .T. ) ;
#129 = DATE_TIME_ROLE ( 'classification_date' ) ;
#130 = DIRECTION ( 'NONE',  ( -3.491481338843133355E-15, 1.224646799147353207E-16, -1.000000000000000000 ) ) ;
#131 = ADVANCED_FACE ( 'NONE', ( #36, #178 ), #87, .T. ) ;
#132 = AXIS2_PLACEMENT_3D ( 'NONE', #282, #151, #101 ) ;
#133 = DIRECTION ( 'NONE',  ( 3.491481338843133355E-15, -1.224646799147353207E-16, 1.000000000000000000 ) ) ;
#134 = SHAPE_DEFINITION_REPRESENTATION ( #187, #41 ) ;
#135 = CARTESIAN_POINT ( 'NONE',  ( 7.362892333441165168E-14, -2.582554982694818290E-15, 21.08816178258820528 ) ) ;
#136 = DIRECTION ( 'NONE',  ( 3.491481338843133355E-15, -1.224646799147353207E-16, 1.000000000000000000 ) ) ;
#137 = CIRCLE ( 'NONE', #16, 0.9100000000000000311 ) ;
#138 = ADVANCED_FACE ( 'NONE', ( #209, #290 ), #92, .T. ) ;
#139 = DIRECTION ( 'NONE',  ( 4.275831445896958607E-31, 1.000000000000000000, 1.224646799147353207E-16 ) ) ;
#140 = DIRECTION ( 'NONE',  ( 3.491481338843133355E-15, -1.224646799147353207E-16, 1.000000000000000000 ) ) ;
#141 = MECHANICAL_CONTEXT ( 'NONE', #293, 'mechanical' ) ;
#142 = LOCAL_TIME ( 15, 3, 59.00000000000000000, #49 ) ;
#143 = AXIS2_PLACEMENT_3D ( 'NONE', #228, #39, #255 ) ;
#144 = VERTEX_POINT ( 'NONE', #281 ) ;
#145 = APPROVAL_DATE_TIME ( #186, #227 ) ;
#146 = ORIENTED_EDGE ( 'NONE', *, *, #68, .F. ) ;
#147 = APPROVAL_STATUS ( 'not_yet_approved' ) ;
#148 = ORIENTED_EDGE ( 'NONE', *, *, #81, .T. ) ;
#149 = CARTESIAN_POINT ( 'NONE',  ( 5.935518276033326704E-14, 0.8099999999999982769, 17.00000000000000000 ) ) ;
#150 = CC_DESIGN_APPROVAL ( #111, ( #57 ) ) ;
#151 = DIRECTION ( 'NONE',  ( -3.491481338843133355E-15, 1.224646799147353207E-16, -1.000000000000000000 ) ) ;
#152 = DIRECTION ( 'NONE',  ( -3.491481338843133355E-15, 1.224646799147353207E-16, -1.000000000000000000 ) ) ;
#153 = ADVANCED_FACE ( 'NONE', ( #60 ), #179, .T. ) ;
#154 = EDGE_LOOP ( 'NONE', ( #240 ) ) ;
#155 = FACE_OUTER_BOUND ( 'NONE', #169, .T. ) ;
#156 = CIRCLE ( 'NONE', #22, 0.9100000000000000311 ) ;
#157 = DIRECTION ( 'NONE',  ( -3.491481338843133355E-15, 1.224646799147353207E-16, -1.000000000000000000 ) ) ;
#158 = PERSON_AND_ORGANIZATION ( #14, #75 ) ;
#159 = FACE_OUTER_BOUND ( 'NONE', #173, .T. ) ;
#160 = FACE_OUTER_BOUND ( 'NONE', #154, .T. ) ;
#161 = AXIS2_PLACEMENT_3D ( 'NONE', #204, #136, #202 ) ;
#162 = FACE_OUTER_BOUND ( 'NONE', #28, .T. ) ;
#163 = PRODUCT_RELATED_PRODUCT_CATEGORY ( 'detail', '', ( #23 ) ) ;
#164 =( NAMED_UNIT ( * ) SI_UNIT ( $, .STERADIAN. ) SOLID_ANGLE_UNIT ( ) );
#165 = CALENDAR_DATE ( 2021, 1, 12 ) ;
#166 = CARTESIAN_POINT ( 'NONE',  ( 8.728703347107829444E-16, -3.061616997868381785E-17, 0.2499999999999998890 ) ) ;
#167 =( NAMED_UNIT ( * ) PLANE_ANGLE_UNIT ( ) SI_UNIT ( $, .RADIAN. ) );
#168 = ADVANCED_FACE ( 'NONE', ( #162 ), #207, .F. ) ;
#169 = EDGE_LOOP ( 'NONE', ( #221 ) ) ;
#170 = DIRECTION ( 'NONE',  ( 1.000000000000000000, 0.0000000000000000000, 0.0000000000000000000 ) ) ;
#171 = EDGE_LOOP ( 'NONE', ( #73 ) ) ;
#172 = CC_DESIGN_APPROVAL ( #227, ( #265 ) ) ;
#173 = EDGE_LOOP ( 'NONE', ( #198 ) ) ;
#174 = TOROIDAL_SURFACE ( 'NONE', #258, 2.810000000000000497, 2.000000000000000000 ) ;
#175 = PERSON_AND_ORGANIZATION ( #14, #75 ) ;
#176 = CYLINDRICAL_SURFACE ( 'NONE', #102, 1.499999999999999112 ) ;
#177 = COORDINATED_UNIVERSAL_TIME_OFFSET ( 1, 0, .AHEAD. ) ;
#178 = FACE_OUTER_BOUND ( 'NONE', #171, .T. ) ;
#179 = PLANE ( 'NONE',  #261 ) ;
#180 = DIRECTION ( 'NONE',  ( 0.0000000000000000000, 1.000000000000000000, 0.0000000000000000000 ) ) ;
#181 = CARTESIAN_POINT ( 'NONE',  ( 2.793185071074506684E-14, 6.823907011111438978E-33, 8.000000000000000000 ) ) ;
#182 = CARTESIAN_POINT ( 'NONE',  ( 2.853659301800057402E-14, -1.000928944092381281E-15, 8.173205080756892116 ) ) ;
#183 = AXIS2_PLACEMENT_3D ( 'NONE', #135, #19, #80 ) ;
#184 = ADVANCED_FACE ( 'NONE', ( #160, #253 ), #174, .F. ) ;
#185 = VERTEX_POINT ( 'NONE', #91 ) ;
#186 = DATE_AND_TIME ( #165, #142 ) ;
#187 = PRODUCT_DEFINITION_SHAPE ( 'NONE', 'NONE',  #265 ) ;
#188 = CONICAL_SURFACE ( 'NONE', #183, 1.499999999999996669, 0.1745329251994257314 ) ;
#189 = EDGE_CURVE ( 'NONE', #122, #122, #300, .T. ) ;
#190 = APPROVAL_ROLE ( '' ) ;
#191 = PERSON_AND_ORGANIZATION ( #14, #75 ) ;
#192 = CIRCLE ( 'NONE', #59, 0.9099999999999990319 ) ;
#193 = FACE_OUTER_BOUND ( 'NONE', #264, .T. ) ;
#194 = FACE_BOUND ( 'NONE', #280, .T. ) ;
#195 = DIRECTION ( 'NONE',  ( 4.275831445896958607E-31, 1.000000000000000000, 1.224646799147353454E-16 ) ) ;
#196 = CARTESIAN_POINT ( 'NONE',  ( 2.793185071074506684E-14, -9.797174393178825657E-16, 8.000000000000000000 ) ) ;
#197 = APPROVAL_STATUS ( 'not_yet_approved' ) ;
#198 = ORIENTED_EDGE ( 'NONE', *, *, #20, .T. ) ;
#199 = PERSON_AND_ORGANIZATION ( #14, #75 ) ;
#200 = FACE_OUTER_BOUND ( 'NONE', #247, .T. ) ;
#201 = SECURITY_CLASSIFICATION_LEVEL ( 'unclassified' ) ;
#202 = DIRECTION ( 'NONE',  ( -4.275831445896958607E-31, -1.000000000000000000, -1.224646799147353207E-16 ) ) ;
#203 = ADVANCED_FACE ( 'NONE', ( #40, #155 ), #291, .T. ) ;
#204 = CARTESIAN_POINT ( 'NONE',  ( -1.636921753345859177E-31, 5.741548618311964167E-33, -4.688330237183042252E-17 ) ) ;
#205 = LOCAL_TIME ( 15, 3, 59.00000000000000000, #8 ) ;
#206 = AXIS2_PLACEMENT_3D ( 'NONE', #231, #140, #232 ) ;
#207 = PLANE ( 'NONE',  #298 ) ;
#208 = EDGE_CURVE ( 'NONE', #43, #43, #124, .T. ) ;
#209 = FACE_OUTER_BOUND ( 'NONE', #99, .T. ) ;
#210 = SECURITY_CLASSIFICATION ( '', '', #201 ) ;
#211 = DATE_TIME_ROLE ( 'creation_date' ) ;
#212 = AXIS2_PLACEMENT_3D ( 'NONE', #302, #279, #237 ) ;
#213 = VERTEX_POINT ( 'NONE', #65 ) ;
#214 = APPROVAL ( #197, 'UNSPECIFIED' ) ;
#215 = COORDINATED_UNIVERSAL_TIME_OFFSET ( 1, 0, .AHEAD. ) ;
#216 = MANIFOLD_SOLID_BREP ( 'Corps-Déplacer/Copier1[2]', #117 ) ;
#217 = FACE_OUTER_BOUND ( 'NONE', #52, .T. ) ;
#218 = APPROVAL_PERSON_ORGANIZATION ( #94, #227, #190 ) ;
#219 = CARTESIAN_POINT ( 'NONE',  ( 8.728703347107833388E-16, 0.9099999999999990319, 0.2500000000000000000 ) ) ;
#220 = AXIS2_PLACEMENT_3D ( 'NONE', #63, #271, #56 ) ;
#221 = ORIENTED_EDGE ( 'NONE', *, *, #68, .T. ) ;
#222 = APPROVAL_ROLE ( '' ) ;
#223 = EDGE_LOOP ( 'NONE', ( #148 ) ) ;
#224 = ORIENTED_EDGE ( 'NONE', *, *, #61, .T. ) ;
#225 = DIRECTION ( 'NONE',  ( 0.0000000000000000000, 1.000000000000000000, 0.0000000000000000000 ) ) ;
#226 = FACE_OUTER_BOUND ( 'NONE', #277, .T. ) ;
#227 = APPROVAL ( #147, 'UNSPECIFIED' ) ;
#228 = CARTESIAN_POINT ( 'NONE',  ( 6.056776150402961829E-14, -2.124431095542013598E-15, 17.34729635533384240 ) ) ;
#229 = DIRECTION ( 'NONE',  ( -3.491481338843133355E-15, 1.224646799147353207E-16, -1.000000000000000000 ) ) ;
#230 = AXIS2_PLACEMENT_3D ( 'NONE', #250, #229, #275 ) ;
#231 = CARTESIAN_POINT ( 'NONE',  ( 8.728703347107829444E-16, -3.061616997868381785E-17, 0.2499999999999998890 ) ) ;
#232 = DIRECTION ( 'NONE',  ( -4.232813064587336213E-31, -1.000000000000000000, -1.191430958775280912E-16 ) ) ;
#233 = DATE_AND_TIME ( #239, #83 ) ;
#234 = CC_DESIGN_APPROVAL ( #214, ( #210 ) ) ;
#235 = CARTESIAN_POINT ( 'NONE',  ( 0.0000000000000000000, 0.0000000000000000000, 0.0000000000000000000 ) ) ;
#236 = AXIS2_PLACEMENT_3D ( 'NONE', #127, #130, #225 ) ;
#237 = DIRECTION ( 'NONE',  ( 0.0000000000000000000, 1.000000000000000000, 0.0000000000000000000 ) ) ;
#238 = DIRECTION ( 'NONE',  ( -3.491481338843133355E-15, 1.224646799147353207E-16, -1.000000000000000000 ) ) ;
#239 = CALENDAR_DATE ( 2021, 1, 12 ) ;
#240 = ORIENTED_EDGE ( 'NONE', *, *, #76, .F. ) ;
#241 = VERTEX_POINT ( 'NONE', #47 ) ;
#242 = AXIS2_PLACEMENT_3D ( 'NONE', #248, #18, #15 ) ;
#243 = DIRECTION ( 'NONE',  ( -3.491481338843133355E-15, 1.224646799147353207E-16, -1.000000000000000000 ) ) ;
#244 = CC_DESIGN_PERSON_AND_ORGANIZATION_ASSIGNMENT ( #191, #120, ( #265 ) ) ;
#245 = CARTESIAN_POINT ( 'NONE',  ( -3.273843506691718355E-31, 1.148309723662392833E-32, -9.376660474366084505E-17 ) ) ;
#246 = DATE_AND_TIME ( #266, #205 ) ;
#247 = EDGE_LOOP ( 'NONE', ( #30 ) ) ;
#248 = CARTESIAN_POINT ( 'NONE',  ( 1.745740669421566678E-13, -6.123233995736766085E-15, 50.00000000000000000 ) ) ;
#249 = CIRCLE ( 'NONE', #96, 0.7656624327025947085 ) ;
#250 = CARTESIAN_POINT ( 'NONE',  ( 7.362892333441165168E-14, -2.582554982694818290E-15, 21.08816178258820528 ) ) ;
#251 = PERSON_AND_ORGANIZATION_ROLE ( 'creator' ) ;
#252 = DIRECTION ( 'NONE',  ( 0.0000000000000000000, 1.000000000000000000, 0.0000000000000000000 ) ) ;
#253 = FACE_OUTER_BOUND ( 'NONE', #71, .T. ) ;
#254 = LOCAL_TIME ( 15, 3, 59.00000000000000000, #125 ) ;
#255 = DIRECTION ( 'NONE',  ( 0.0000000000000000000, 1.000000000000000000, 0.0000000000000000000 ) ) ;
#256 = CARTESIAN_POINT ( 'NONE',  ( 0.0000000000000000000, 0.7656624327025947085, 0.0000000000000000000 ) ) ;
#257 = CC_DESIGN_DATE_AND_TIME_ASSIGNMENT ( #58, #129, ( #210 ) ) ;
#258 = AXIS2_PLACEMENT_3D ( 'NONE', #294, #84, #85 ) ;
#259 = CARTESIAN_POINT ( 'NONE',  ( 1.745740669421566678E-13, 1.199999999999995515, 50.00000000000000000 ) ) ;
#260 = ADVANCED_FACE ( 'NONE', ( #108, #194 ), #77, .T. ) ;
#261 = AXIS2_PLACEMENT_3D ( 'NONE', #276, #133, #292 ) ;
#262 = DIRECTION ( 'NONE',  ( 4.232813064587336213E-31, 1.000000000000000000, 1.191430958775280912E-16 ) ) ;
#263 = APPLICATION_PROTOCOL_DEFINITION ( 'international standard', 'config_control_design', 1994, #293 ) ;
#264 = EDGE_LOOP ( 'NONE', ( #121 ) ) ;
#265 = PRODUCT_DEFINITION ( 'UNKNOWN', '', #57, #90 ) ;
#266 = CALENDAR_DATE ( 2021, 1, 12 ) ;
#267 = CIRCLE ( 'NONE', #236, 0.8099999999999989431 ) ;
#268 = DIRECTION ( 'NONE',  ( 4.275831445896958607E-31, 1.000000000000000000, 1.224646799147353454E-16 ) ) ;
#269 = DIRECTION ( 'NONE',  ( -3.491481338843133355E-15, 1.224646799147353207E-16, -1.000000000000000000 ) ) ;
#270 = CALENDAR_DATE ( 2021, 1, 12 ) ;
#271 = DIRECTION ( 'NONE',  ( -3.491481338843133355E-15, 1.224646799147353207E-16, -1.000000000000000000 ) ) ;
#272 = APPROVAL_ROLE ( '' ) ;
#273 = CARTESIAN_POINT ( 'NONE',  ( 1.745740669421566678E-13, 8.998558695971067645E-33, 50.00000000000000000 ) ) ;
#274 = FACE_OUTER_BOUND ( 'NONE', #223, .T. ) ;
#275 = DIRECTION ( 'NONE',  ( 0.0000000000000000000, 1.000000000000000000, 0.0000000000000000000 ) ) ;
#276 = CARTESIAN_POINT ( 'NONE',  ( 2.793185071074506684E-14, 6.823907011111438978E-33, 8.000000000000000000 ) ) ;
#277 = EDGE_LOOP ( 'NONE', ( #126 ) ) ;
#278 = VERTEX_POINT ( 'NONE', #219 ) ;
#279 = DIRECTION ( 'NONE',  ( -3.491481338843133355E-15, 1.224646799147353207E-16, -1.000000000000000000 ) ) ;
#280 = EDGE_LOOP ( 'NONE', ( #48 ) ) ;
#281 = CARTESIAN_POINT ( 'NONE',  ( 7.362892333441165168E-14, 1.499999999999994005, 21.08816178258820528 ) ) ;
#282 = CARTESIAN_POINT ( 'NONE',  ( 0.0000000000000000000, 0.0000000000000000000, 0.0000000000000000000 ) ) ;
#283 = ORIENTED_EDGE ( 'NONE', *, *, #61, .F. ) ;
#284 = EDGE_LOOP ( 'NONE', ( #224 ) ) ;
#285 = APPROVAL_DATE_TIME ( #246, #111 ) ;
#286 = AXIS2_PLACEMENT_3D ( 'NONE', #17, #12, #252 ) ;
#287 = ORIENTED_EDGE ( 'NONE', *, *, #189, .T. ) ;
#288 = PERSON_AND_ORGANIZATION_ROLE ( 'classification_officer' ) ;
#289 = DIRECTION ( 'NONE',  ( 0.0000000000000000000, 1.000000000000000000, 0.0000000000000000000 ) ) ;
#290 = FACE_BOUND ( 'NONE', #284, .T. ) ;
#291 = CONICAL_SURFACE ( 'NONE', #206, 0.9099999999999990319, 0.5235987755982923764 ) ;
#292 = DIRECTION ( 'NONE',  ( -4.275831445896958607E-31, -1.000000000000000000, -1.224646799147353207E-16 ) ) ;
#293 = APPLICATION_CONTEXT ( 'configuration controlled 3d designs of mechanical parts and assemblies' ) ;
#294 = CARTESIAN_POINT ( 'NONE',  ( 5.935518276033326704E-14, -2.168404344971008868E-15, 17.00000000000000000 ) ) ;
#295 = CC_DESIGN_PERSON_AND_ORGANIZATION_ASSIGNMENT ( #26, #113, ( #23 ) ) ;
#296 = DIRECTION ( 'NONE',  ( 3.491481338843133355E-15, -1.224646799147353207E-16, 1.000000000000000000 ) ) ;
#297 = LOCAL_TIME ( 15, 3, 59.00000000000000000, #177 ) ;
#298 = AXIS2_PLACEMENT_3D ( 'NONE', #273, #157, #139 ) ;
#299 = AXIS2_PLACEMENT_3D ( 'NONE', #235, #72, #170 ) ;
#300 = CIRCLE ( 'NONE', #143, 0.8403844939755813481 ) ;
#301 = APPLICATION_PROTOCOL_DEFINITION ( 'international standard', 'config_control_design', 1994, #106 ) ;
#302 = CARTESIAN_POINT ( 'NONE',  ( 1.745740669421566678E-13, -6.123233995736766085E-15, 50.00000000000000000 ) ) ;
#303 = MANIFOLD_SOLID_BREP ( 'Corps-Déplacer/Copier1[1]', #67 ) ;
ENDSEC;
END-ISO-10303-21;
