ISO-10303-21;
HEADER;
FILE_DESCRIPTION (( 'STEP AP203' ),
    '1' );
FILE_NAME ('327048.step',
    '2021-12-01T14:03:58',
    ( '' ),
    ( '' ),
    'SwSTEP 2.0',
    'SolidWorks 2019',
    '' );
FILE_SCHEMA (( 'CONFIG_CONTROL_DESIGN' ));
ENDSEC;

DATA;
#1 = FACE_OUTER_BOUND ( 'NONE', #41, .T. ) ;
#2 = FACE_OUTER_BOUND ( 'NONE', #51, .T. ) ;
#3 = CARTESIAN_POINT ( 'NONE',  ( 2.793185071074506684E-14, -9.797174393178825657E-16, 8.000000000000000000 ) ) ;
#4 = ORIENTED_EDGE ( 'NONE', *, *, #190, .T. ) ;
#5 = DIRECTION ( 'NONE',  ( 0.0000000000000000000, 1.000000000000000000, 0.0000000000000000000 ) ) ;
#6 = EDGE_LOOP ( 'NONE', ( #185 ) ) ;
#7 = CARTESIAN_POINT ( 'NONE',  ( 2.793185071074506684E-14, 6.786413016544892265E-33, 8.000000000000000000 ) ) ;
#8 = ORIENTED_EDGE ( 'NONE', *, *, #150, .T. ) ;
#9 = VERTEX_POINT ( 'NONE', #84 ) ;
#10 = ORIENTED_EDGE ( 'NONE', *, *, #83, .T. ) ;
#11 = ADVANCED_FACE ( 'NONE', ( #244 ), #167, .F. ) ;
#12 = APPLICATION_PROTOCOL_DEFINITION ( 'international standard', 'config_control_design', 1994, #196 ) ;
#13 = CC_DESIGN_SECURITY_CLASSIFICATION ( #111, ( #287 ) ) ;
#14 = VERTEX_POINT ( 'NONE', #37 ) ;
#15 = DIRECTION ( 'NONE',  ( 1.000000000000000000, 0.0000000000000000000, 0.0000000000000000000 ) ) ;
#16 = DIRECTION ( 'NONE',  ( 0.0000000000000000000, 0.0000000000000000000, 1.000000000000000000 ) ) ;
#17 = UNCERTAINTY_MEASURE_WITH_UNIT (LENGTH_MEASURE( 1.000000000000000082E-05 ), #208, 'distance_accuracy_value', 'NONE');
#18 = COORDINATED_UNIVERSAL_TIME_OFFSET ( 1, 0, .AHEAD. ) ;
#19 = AXIS2_PLACEMENT_3D ( 'NONE', #25, #259, #130 ) ;
#20 = FACE_OUTER_BOUND ( 'NONE', #47, .T. ) ;
#21 = APPROVAL_ROLE ( '' ) ;
#22 = COORDINATED_UNIVERSAL_TIME_OFFSET ( 1, 0, .AHEAD. ) ;
#23 = ORIENTED_EDGE ( 'NONE', *, *, #180, .F. ) ;
#24 = DATE_AND_TIME ( #183, #296 ) ;
#25 = CARTESIAN_POINT ( 'NONE',  ( 2.853659301800060557E-14, -1.000928944092382267E-15, 8.173205080756900998 ) ) ;
#26 = DIRECTION ( 'NONE',  ( -4.275831445896958607E-31, -1.000000000000000000, -1.224646799147353207E-16 ) ) ;
#27 = DIRECTION ( 'NONE',  ( -3.491481338843133355E-15, 1.224646799147353207E-16, -1.000000000000000000 ) ) ;
#28 = FACE_OUTER_BOUND ( 'NONE', #96, .T. ) ;
#29 = DIRECTION ( 'NONE',  ( -3.491481338843133355E-15, 1.224646799147353207E-16, -1.000000000000000000 ) ) ;
#30 = ORIENTED_EDGE ( 'NONE', *, *, #162, .T. ) ;
#31 = CIRCLE ( 'NONE', #159, 0.7606624327025948151 ) ;
#32 = APPLICATION_CONTEXT ( 'configuration controlled 3d designs of mechanical parts and assemblies' ) ;
#33 = AXIS2_PLACEMENT_3D ( 'NONE', #136, #177, #270 ) ;
#34 = VERTEX_POINT ( 'NONE', #175 ) ;
#35 = PERSON ( 'UNSPECIFIED', 'UNSPECIFIED', 'UNSPECIFIED', ('UNSPECIFIED'), ('UNSPECIFIED'), ('UNSPECIFIED') ) ;
#36 = EDGE_LOOP ( 'NONE', ( #192 ) ) ;
#37 = CARTESIAN_POINT ( 'NONE',  ( 1.745740669421566678E-13, 1.199999999999995515, 50.00000000000000000 ) ) ;
#38 = CC_DESIGN_PERSON_AND_ORGANIZATION_ASSIGNMENT ( #117, #49, ( #287 ) ) ;
#39 = LOCAL_TIME ( 15, 3, 58.00000000000000000, #210 ) ;
#40 = DIRECTION ( 'NONE',  ( 3.491481338843133355E-15, -1.224646799147353207E-16, 1.000000000000000000 ) ) ;
#41 = EDGE_LOOP ( 'NONE', ( #141 ) ) ;
#42 = SECURITY_CLASSIFICATION_LEVEL ( 'unclassified' ) ;
#43 = ADVANCED_FACE ( 'NONE', ( #134, #228 ), #61, .T. ) ;
#44 = CLOSED_SHELL ( 'NONE', ( #293, #181, #273, #126, #300, #43, #129, #11 ) ) ;
#45 = DATE_AND_TIME ( #298, #85 ) ;
#46 = ADVANCED_FACE ( 'NONE', ( #20 ), #161, .F. ) ;
#47 = EDGE_LOOP ( 'NONE', ( #8 ) ) ;
#48 = ORIENTED_EDGE ( 'NONE', *, *, #241, .T. ) ;
#49 = PERSON_AND_ORGANIZATION_ROLE ( 'design_supplier' ) ;
#50 = CONICAL_SURFACE ( 'NONE', #104, 0.9049999999999991385, 0.5235987755982923764 ) ;
#51 = EDGE_LOOP ( 'NONE', ( #274 ) ) ;
#52 = LOCAL_TIME ( 15, 3, 58.00000000000000000, #22 ) ;
#53 = ORIENTED_EDGE ( 'NONE', *, *, #199, .T. ) ;
#54 = DIRECTION ( 'NONE',  ( 3.491481338843133355E-15, -1.224646799147353207E-16, 1.000000000000000000 ) ) ;
#55 = CARTESIAN_POINT ( 'NONE',  ( 7.372792920761433698E-14, -2.586027641258551023E-15, 21.11651819168632116 ) ) ;
#56 = ORIENTED_EDGE ( 'NONE', *, *, #125, .F. ) ;
#57 = CARTESIAN_POINT ( 'NONE',  ( 6.056776150402963091E-14, -2.124431095542013992E-15, 17.34729635533384595 ) ) ;
#58 = EDGE_LOOP ( 'NONE', ( #219 ) ) ;
#59 = CARTESIAN_POINT ( 'NONE',  ( 8.728703347107829444E-16, -3.061616997868381785E-17, 0.2499999999999998890 ) ) ;
#60 = DIRECTION ( 'NONE',  ( 4.275831445896958607E-31, 1.000000000000000000, 1.224646799147353207E-16 ) ) ;
#61 = CYLINDRICAL_SURFACE ( 'NONE', #65, 1.499999999999999112 ) ;
#62 = CARTESIAN_POINT ( 'NONE',  ( 5.935518276033326704E-14, 0.8049999999999932765, 17.00000000000000000 ) ) ;
#63 = FACE_OUTER_BOUND ( 'NONE', #214, .T. ) ;
#64 = CARTESIAN_POINT ( 'NONE',  ( 0.0000000000000000000, 0.0000000000000000000, 0.0000000000000000000 ) ) ;
#65 = AXIS2_PLACEMENT_3D ( 'NONE', #233, #235, #257 ) ;
#66 = CIRCLE ( 'NONE', #80, 0.8049999999999952749 ) ;
#67 = VERTEX_POINT ( 'NONE', #268 ) ;
#68 = CYLINDRICAL_SURFACE ( 'NONE', #33, 0.8049999999999946088 ) ;
#69 = ORIENTED_EDGE ( 'NONE', *, *, #109, .T. ) ;
#70 = PERSON_AND_ORGANIZATION_ROLE ( 'classification_officer' ) ;
#71 = AXIS2_PLACEMENT_3D ( 'NONE', #277, #189, #77 ) ;
#72 =( GEOMETRIC_REPRESENTATION_CONTEXT ( 3 ) GLOBAL_UNCERTAINTY_ASSIGNED_CONTEXT ( ( #17 ) ) GLOBAL_UNIT_ASSIGNED_CONTEXT ( ( #208, #176, #267 ) ) REPRESENTATION_CONTEXT ( 'NONE', 'WORKASPACE' ) );
#73 = FACE_OUTER_BOUND ( 'NONE', #231, .T. ) ;
#74 = DIRECTION ( 'NONE',  ( -3.491481338843133355E-15, 1.224646799147353207E-16, -1.000000000000000000 ) ) ;
#75 = ORGANIZATION ( 'UNSPECIFIED', 'UNSPECIFIED', '' ) ;
#76 = DIRECTION ( 'NONE',  ( 3.491481338843133355E-15, -1.224646799147353207E-16, 1.000000000000000000 ) ) ;
#77 = DIRECTION ( 'NONE',  ( 4.256198772126491847E-31, 1.000000000000000000, 1.198013450260226956E-16 ) ) ;
#78 = FACE_OUTER_BOUND ( 'NONE', #137, .T. ) ;
#79 = CIRCLE ( 'NONE', #131, 0.8353844939755754595 ) ;
#80 = AXIS2_PLACEMENT_3D ( 'NONE', #263, #27, #197 ) ;
#81 = CARTESIAN_POINT ( 'NONE',  ( 8.728703347107833388E-16, 0.9049999999999991385, 0.2500000000000000000 ) ) ;
#82 = CARTESIAN_POINT ( 'NONE',  ( 7.372792920761433698E-14, -2.586027641258551023E-15, 21.11651819168632116 ) ) ;
#83 = EDGE_CURVE ( 'NONE', #34, #34, #79, .T. ) ;
#84 = CARTESIAN_POINT ( 'NONE',  ( 0.0000000000000000000, 0.7606624327025948151, 0.0000000000000000000 ) ) ;
#85 = LOCAL_TIME ( 15, 3, 58.00000000000000000, #234 ) ;
#86 = DESIGN_CONTEXT ( 'detailed design', #32, 'design' ) ;
#87 = DIRECTION ( 'NONE',  ( 4.275831445896958607E-31, 1.000000000000000000, 1.224646799147353207E-16 ) ) ;
#88 = DATE_AND_TIME ( #271, #39 ) ;
#89 = EDGE_LOOP ( 'NONE', ( #94 ) ) ;
#90 = AXIS2_PLACEMENT_3D ( 'NONE', #55, #246, #172 ) ;
#91 = APPROVAL_STATUS ( 'not_yet_approved' ) ;
#92 = ADVANCED_FACE ( 'NONE', ( #99, #220 ), #50, .T. ) ;
#93 = DIRECTION ( 'NONE',  ( 3.491481338843133355E-15, -1.224646799147353207E-16, 1.000000000000000000 ) ) ;
#94 = ORIENTED_EDGE ( 'NONE', *, *, #199, .F. ) ;
#95 = PERSON_AND_ORGANIZATION ( #35, #75 ) ;
#96 = EDGE_LOOP ( 'NONE', ( #10 ) ) ;
#97 = CARTESIAN_POINT ( 'NONE',  ( 1.745740669421566678E-13, 8.998558695971067645E-33, 50.00000000000000000 ) ) ;
#98 = CLOSED_SHELL ( 'NONE', ( #46, #92, #205, #165 ) ) ;
#99 = FACE_BOUND ( 'NONE', #6, .T. ) ;
#100 = CC_DESIGN_PERSON_AND_ORGANIZATION_ASSIGNMENT ( #204, #291, ( #171 ) ) ;
#101 = DIRECTION ( 'NONE',  ( 0.0000000000000000000, 1.000000000000000000, 0.0000000000000000000 ) ) ;
#102 = DIRECTION ( 'NONE',  ( 0.0000000000000000000, 1.000000000000000000, 0.0000000000000000000 ) ) ;
#103 = DIRECTION ( 'NONE',  ( 4.275831445896958607E-31, 1.000000000000000000, 1.224646799147353207E-16 ) ) ;
#104 = AXIS2_PLACEMENT_3D ( 'NONE', #59, #54, #262 ) ;
#105 = AXIS2_PLACEMENT_3D ( 'NONE', #188, #264, #243 ) ;
#106 = DIRECTION ( 'NONE',  ( -3.491481338843133355E-15, 1.224646799147353207E-16, -1.000000000000000000 ) ) ;
#107 = EDGE_LOOP ( 'NONE', ( #53 ) ) ;
#108 = DIRECTION ( 'NONE',  ( -4.275831445896958607E-31, -1.000000000000000000, -1.224646799147353207E-16 ) ) ;
#109 = EDGE_CURVE ( 'NONE', #295, #295, #224, .T. ) ;
#110 = VERTEX_POINT ( 'NONE', #62 ) ;
#111 = SECURITY_CLASSIFICATION ( '', '', #42 ) ;
#112 = APPLICATION_PROTOCOL_DEFINITION ( 'international standard', 'config_control_design', 1994, #32 ) ;
#113 = DIRECTION ( 'NONE',  ( 0.0000000000000000000, -1.000000000000000000, 0.0000000000000000000 ) ) ;
#114 = CALENDAR_DATE ( 2021, 1, 12 ) ;
#115 = AXIS2_PLACEMENT_3D ( 'NONE', #168, #74, #60 ) ;
#116 = ADVANCED_BREP_SHAPE_REPRESENTATION ( '327048', ( #290, #200, #157 ), #72 ) ;
#117 = PERSON_AND_ORGANIZATION ( #35, #75 ) ;
#118 = ORIENTED_EDGE ( 'NONE', *, *, #187, .T. ) ;
#119 = DIRECTION ( 'NONE',  ( -3.491481338843133355E-15, 1.224646799147353207E-16, -1.000000000000000000 ) ) ;
#120 = CC_DESIGN_DATE_AND_TIME_ASSIGNMENT ( #24, #164, ( #111 ) ) ;
#121 = CIRCLE ( 'NONE', #105, 0.8049999999999939426 ) ;
#122 = DIRECTION ( 'NONE',  ( 4.275831445896958607E-31, 1.000000000000000000, 1.224646799147353207E-16 ) ) ;
#123 = EDGE_LOOP ( 'NONE', ( #69 ) ) ;
#124 = DIRECTION ( 'NONE',  ( 0.0000000000000000000, 1.000000000000000000, 0.0000000000000000000 ) ) ;
#125 = EDGE_CURVE ( 'NONE', #156, #156, #252, .T. ) ;
#126 = ADVANCED_FACE ( 'NONE', ( #260, #28 ), #178, .F. ) ;
#127 = DIRECTION ( 'NONE',  ( -3.491481338843133355E-15, 1.224646799147353207E-16, -1.000000000000000000 ) ) ;
#128 = PRODUCT_DEFINITION_SHAPE ( 'NONE', 'NONE',  #279 ) ;
#129 = ADVANCED_FACE ( 'NONE', ( #1, #152 ), #294, .T. ) ;
#130 = DIRECTION ( 'NONE',  ( 0.0000000000000000000, 1.000000000000000000, 0.0000000000000000000 ) ) ;
#131 = AXIS2_PLACEMENT_3D ( 'NONE', #57, #245, #5 ) ;
#132 = CC_DESIGN_APPROVAL ( #238, ( #111 ) ) ;
#133 = EDGE_LOOP ( 'NONE', ( #284 ) ) ;
#134 = FACE_OUTER_BOUND ( 'NONE', #221, .T. ) ;
#135 = CARTESIAN_POINT ( 'NONE',  ( 2.793185071074506684E-14, 0.9049999999999991385, 8.000000000000000000 ) ) ;
#136 = CARTESIAN_POINT ( 'NONE',  ( 0.0000000000000000000, 0.0000000000000000000, 0.0000000000000000000 ) ) ;
#137 = EDGE_LOOP ( 'NONE', ( #4 ) ) ;
#138 = CARTESIAN_POINT ( 'NONE',  ( 2.793185071074506684E-14, 0.9049999999999991385, 8.000000000000000000 ) ) ;
#139 = APPROVAL_PERSON_ORGANIZATION ( #301, #238, #142 ) ;
#140 = EDGE_LOOP ( 'NONE', ( #191 ) ) ;
#141 = ORIENTED_EDGE ( 'NONE', *, *, #109, .F. ) ;
#142 = APPROVAL_ROLE ( '' ) ;
#143 = CALENDAR_DATE ( 2021, 1, 12 ) ;
#144 = ORIENTED_EDGE ( 'NONE', *, *, #162, .F. ) ;
#145 = CC_DESIGN_APPROVAL ( #198, ( #279 ) ) ;
#146 = DATE_TIME_ROLE ( 'creation_date' ) ;
#147 = CARTESIAN_POINT ( 'NONE',  ( 5.935518276033326704E-14, -2.168404344971008868E-15, 17.00000000000000000 ) ) ;
#148 = AXIS2_PLACEMENT_3D ( 'NONE', #195, #106, #101 ) ;
#149 = CYLINDRICAL_SURFACE ( 'NONE', #115, 0.9049999999999995826 ) ;
#150 = EDGE_CURVE ( 'NONE', #9, #9, #31, .T. ) ;
#151 = DIRECTION ( 'NONE',  ( -3.491481338843133355E-15, 1.224646799147353207E-16, -1.000000000000000000 ) ) ;
#152 = FACE_BOUND ( 'NONE', #216, .T. ) ;
#153 = CARTESIAN_POINT ( 'NONE',  ( 2.793185071074506684E-14, -9.797174393178825657E-16, 8.000000000000000000 ) ) ;
#154 = AXIS2_PLACEMENT_3D ( 'NONE', #3, #119, #217 ) ;
#155 = VERTEX_POINT ( 'NONE', #138 ) ;
#156 = VERTEX_POINT ( 'NONE', #135 ) ;
#157 = AXIS2_PLACEMENT_3D ( 'NONE', #64, #16, #15 ) ;
#158 = SHAPE_DEFINITION_REPRESENTATION ( #128, #116 ) ;
#159 = AXIS2_PLACEMENT_3D ( 'NONE', #242, #29, #122 ) ;
#160 = CONICAL_SURFACE ( 'NONE', #19, 0.8049999999999939426, 0.5235987755982938197 ) ;
#161 = PLANE ( 'NONE',  #255 ) ;
#162 = EDGE_CURVE ( 'NONE', #14, #14, #202, .T. ) ;
#163 = PERSON_AND_ORGANIZATION ( #35, #75 ) ;
#164 = DATE_TIME_ROLE ( 'classification_date' ) ;
#165 = ADVANCED_FACE ( 'NONE', ( #282 ), #222, .T. ) ;
#166 = DIRECTION ( 'NONE',  ( -3.491481338843133355E-15, 1.224646799147353207E-16, -1.000000000000000000 ) ) ;
#167 = PLANE ( 'NONE',  #218 ) ;
#168 = CARTESIAN_POINT ( 'NONE',  ( 0.0000000000000000000, 0.0000000000000000000, 0.0000000000000000000 ) ) ;
#169 = CIRCLE ( 'NONE', #90, 1.499999999999996669 ) ;
#170 = CARTESIAN_POINT ( 'NONE',  ( 1.735266225405037467E-13, -6.086494591762345225E-15, 49.70000000000000284 ) ) ;
#171 = PRODUCT ( '327048', '327048', '', ( #249 ) ) ;
#172 = DIRECTION ( 'NONE',  ( 0.0000000000000000000, 1.000000000000000000, 0.0000000000000000000 ) ) ;
#173 = DIRECTION ( 'NONE',  ( 0.0000000000000000000, 1.000000000000000000, 0.0000000000000000000 ) ) ;
#174 = CC_DESIGN_DATE_AND_TIME_ASSIGNMENT ( #88, #146, ( #279 ) ) ;
#175 = CARTESIAN_POINT ( 'NONE',  ( 6.056776150402963091E-14, 0.8353844939755733501, 17.34729635533384595 ) ) ;
#176 =( NAMED_UNIT ( * ) PLANE_ANGLE_UNIT ( ) SI_UNIT ( $, .RADIAN. ) );
#177 = DIRECTION ( 'NONE',  ( -3.491481338843133355E-15, 1.224646799147353207E-16, -1.000000000000000000 ) ) ;
#178 = TOROIDAL_SURFACE ( 'NONE', #261, 2.804999999999995275, 2.000000000000000888 ) ;
#179 = APPROVAL_PERSON_ORGANIZATION ( #95, #253, #21 ) ;
#180 = EDGE_CURVE ( 'NONE', #266, #266, #169, .T. ) ;
#181 = ADVANCED_FACE ( 'NONE', ( #2, #276 ), #160, .T. ) ;
#182 = PERSON_AND_ORGANIZATION ( #35, #75 ) ;
#183 = CALENDAR_DATE ( 2021, 1, 12 ) ;
#184 = APPROVAL_STATUS ( 'not_yet_approved' ) ;
#185 = ORIENTED_EDGE ( 'NONE', *, *, #150, .F. ) ;
#186 = DIRECTION ( 'NONE',  ( -3.491481338843133355E-15, 1.224646799147353207E-16, -1.000000000000000000 ) ) ;
#187 = EDGE_CURVE ( 'NONE', #67, #67, #121, .T. ) ;
#188 = CARTESIAN_POINT ( 'NONE',  ( 2.853659301800060557E-14, -1.000928944092382267E-15, 8.173205080756900998 ) ) ;
#189 = DIRECTION ( 'NONE',  ( -3.491481338843133355E-15, 1.224646799147353207E-16, -1.000000000000000000 ) ) ;
#190 = EDGE_CURVE ( 'NONE', #110, #110, #66, .T. ) ;
#191 = ORIENTED_EDGE ( 'NONE', *, *, #83, .F. ) ;
#192 = ORIENTED_EDGE ( 'NONE', *, *, #180, .T. ) ;
#193 = AXIS2_PLACEMENT_3D ( 'NONE', #153, #166, #173 ) ;
#194 = AXIS2_PLACEMENT_3D ( 'NONE', #7, #76, #26 ) ;
#195 = CARTESIAN_POINT ( 'NONE',  ( 1.745740669421566678E-13, -6.123233995736766085E-15, 50.00000000000000000 ) ) ;
#196 = APPLICATION_CONTEXT ( 'configuration controlled 3d designs of mechanical parts and assemblies' ) ;
#197 = DIRECTION ( 'NONE',  ( 0.0000000000000000000, 1.000000000000000000, 0.0000000000000000000 ) ) ;
#198 = APPROVAL ( #292, 'UNSPECIFIED' ) ;
#199 = EDGE_CURVE ( 'NONE', #247, #247, #256, .T. ) ;
#200 = MANIFOLD_SOLID_BREP ( 'Corps-Déplacer/Copier1[2]', #98 ) ;
#201 = PLANE ( 'NONE',  #225 ) ;
#202 = CIRCLE ( 'NONE', #148, 1.200000000000001732 ) ;
#203 = FACE_BOUND ( 'NONE', #140, .T. ) ;
#204 = PERSON_AND_ORGANIZATION ( #35, #75 ) ;
#205 = ADVANCED_FACE ( 'NONE', ( #283, #73 ), #149, .T. ) ;
#206 = PERSON_AND_ORGANIZATION ( #35, #75 ) ;
#207 = DIRECTION ( 'NONE',  ( -3.491481338843133355E-15, 1.224646799147353207E-16, -1.000000000000000000 ) ) ;
#208 =( LENGTH_UNIT ( ) NAMED_UNIT ( * ) SI_UNIT ( .MILLI., .METRE. ) );
#209 = PERSON_AND_ORGANIZATION ( #35, #75 ) ;
#210 = COORDINATED_UNIVERSAL_TIME_OFFSET ( 1, 0, .AHEAD. ) ;
#211 = COORDINATED_UNIVERSAL_TIME_OFFSET ( 1, 0, .AHEAD. ) ;
#212 = AXIS2_PLACEMENT_3D ( 'NONE', #82, #289, #113 ) ;
#213 = CC_DESIGN_PERSON_AND_ORGANIZATION_ASSIGNMENT ( #163, #237, ( #287 ) ) ;
#214 = EDGE_LOOP ( 'NONE', ( #48 ) ) ;
#215 = APPROVAL_ROLE ( '' ) ;
#216 = EDGE_LOOP ( 'NONE', ( #30 ) ) ;
#217 = DIRECTION ( 'NONE',  ( 0.0000000000000000000, 1.000000000000000000, 0.0000000000000000000 ) ) ;
#218 = AXIS2_PLACEMENT_3D ( 'NONE', #97, #207, #87 ) ;
#219 = ORIENTED_EDGE ( 'NONE', *, *, #187, .F. ) ;
#220 = FACE_OUTER_BOUND ( 'NONE', #107, .T. ) ;
#221 = EDGE_LOOP ( 'NONE', ( #23 ) ) ;
#222 = PLANE ( 'NONE',  #194 ) ;
#223 = EDGE_LOOP ( 'NONE', ( #144 ) ) ;
#224 = CIRCLE ( 'NONE', #250, 1.500000000000001554 ) ;
#225 = AXIS2_PLACEMENT_3D ( 'NONE', #232, #40, #108 ) ;
#226 = CARTESIAN_POINT ( 'NONE',  ( 1.745740669421566678E-13, -6.123233995736766085E-15, 50.00000000000000000 ) ) ;
#227 = CC_DESIGN_PERSON_AND_ORGANIZATION_ASSIGNMENT ( #209, #303, ( #279 ) ) ;
#228 = FACE_OUTER_BOUND ( 'NONE', #123, .T. ) ;
#229 = CARTESIAN_POINT ( 'NONE',  ( 7.372792920761433698E-14, 1.499999999999994005, 21.11651819168632116 ) ) ;
#230 = CARTESIAN_POINT ( 'NONE',  ( 1.735266225405037467E-13, 1.499999999999995559, 49.70000000000000284 ) ) ;
#231 = EDGE_LOOP ( 'NONE', ( #272 ) ) ;
#232 = CARTESIAN_POINT ( 'NONE',  ( 2.793185071074506684E-14, 6.786413016544892265E-33, 8.000000000000000000 ) ) ;
#233 = CARTESIAN_POINT ( 'NONE',  ( 0.0000000000000000000, 0.0000000000000000000, 0.0000000000000000000 ) ) ;
#234 = COORDINATED_UNIVERSAL_TIME_OFFSET ( 1, 0, .AHEAD. ) ;
#235 = DIRECTION ( 'NONE',  ( -3.491481338843133355E-15, 1.224646799147353207E-16, -1.000000000000000000 ) ) ;
#236 = APPROVAL_PERSON_ORGANIZATION ( #206, #198, #215 ) ;
#237 = PERSON_AND_ORGANIZATION_ROLE ( 'creator' ) ;
#238 = APPROVAL ( #184, 'UNSPECIFIED' ) ;
#239 = CONICAL_SURFACE ( 'NONE', #212, 1.499999999999996669, 0.1745329251994261754 ) ;
#240 = EDGE_LOOP ( 'NONE', ( #118 ) ) ;
#241 = EDGE_CURVE ( 'NONE', #155, #155, #281, .T. ) ;
#242 = CARTESIAN_POINT ( 'NONE',  ( -3.252464349462234079E-31, 1.140810924749083491E-32, -9.315428134408716980E-17 ) ) ;
#243 = DIRECTION ( 'NONE',  ( 0.0000000000000000000, 1.000000000000000000, 0.0000000000000000000 ) ) ;
#244 = FACE_OUTER_BOUND ( 'NONE', #223, .T. ) ;
#245 = DIRECTION ( 'NONE',  ( -3.491481338843133355E-15, 1.224646799147353207E-16, -1.000000000000000000 ) ) ;
#246 = DIRECTION ( 'NONE',  ( -3.491481338843133355E-15, 1.224646799147353207E-16, -1.000000000000000000 ) ) ;
#247 = VERTEX_POINT ( 'NONE', #81 ) ;
#248 = DIRECTION ( 'NONE',  ( -4.275831445896958607E-31, -1.000000000000000000, -1.224646799147353207E-16 ) ) ;
#249 = MECHANICAL_CONTEXT ( 'NONE', #196, 'mechanical' ) ;
#250 = AXIS2_PLACEMENT_3D ( 'NONE', #170, #151, #102 ) ;
#251 = DATE_AND_TIME ( #114, #269 ) ;
#252 = CIRCLE ( 'NONE', #193, 0.9050000000000001377 ) ;
#253 = APPROVAL ( #91, 'UNSPECIFIED' ) ;
#254 = APPROVAL_DATE_TIME ( #45, #253 ) ;
#255 = AXIS2_PLACEMENT_3D ( 'NONE', #302, #93, #248 ) ;
#256 = CIRCLE ( 'NONE', #71, 0.9049999999999991385 ) ;
#257 = DIRECTION ( 'NONE',  ( 4.275831445896958607E-31, 1.000000000000000000, 1.224646799147353454E-16 ) ) ;
#258 = PRODUCT_RELATED_PRODUCT_CATEGORY ( 'detail', '', ( #171 ) ) ;
#259 = DIRECTION ( 'NONE',  ( -3.491481338843133355E-15, 1.224646799147353207E-16, -1.000000000000000000 ) ) ;
#260 = FACE_OUTER_BOUND ( 'NONE', #133, .T. ) ;
#261 = AXIS2_PLACEMENT_3D ( 'NONE', #147, #186, #103 ) ;
#262 = DIRECTION ( 'NONE',  ( -4.256198772126491847E-31, -1.000000000000000000, -1.198013450260226956E-16 ) ) ;
#263 = CARTESIAN_POINT ( 'NONE',  ( 5.935518276033326704E-14, -2.081899558550500280E-15, 17.00000000000000000 ) ) ;
#264 = DIRECTION ( 'NONE',  ( -3.491481338843133355E-15, 1.224646799147353207E-16, -1.000000000000000000 ) ) ;
#265 = CC_DESIGN_APPROVAL ( #253, ( #287 ) ) ;
#266 = VERTEX_POINT ( 'NONE', #229 ) ;
#267 =( NAMED_UNIT ( * ) SI_UNIT ( $, .STERADIAN. ) SOLID_ANGLE_UNIT ( ) );
#268 = CARTESIAN_POINT ( 'NONE',  ( 2.853659301800060557E-14, 0.8049999999999930544, 8.173205080756900998 ) ) ;
#269 = LOCAL_TIME ( 15, 3, 58.00000000000000000, #211 ) ;
#270 = DIRECTION ( 'NONE',  ( 4.275831445896958607E-31, 1.000000000000000000, 1.224646799147353207E-16 ) ) ;
#271 = CALENDAR_DATE ( 2021, 1, 12 ) ;
#272 = ORIENTED_EDGE ( 'NONE', *, *, #125, .T. ) ;
#273 = ADVANCED_FACE ( 'NONE', ( #278, #78 ), #68, .T. ) ;
#274 = ORIENTED_EDGE ( 'NONE', *, *, #241, .F. ) ;
#275 = DATE_AND_TIME ( #143, #52 ) ;
#276 = FACE_BOUND ( 'NONE', #240, .T. ) ;
#277 = CARTESIAN_POINT ( 'NONE',  ( 8.728703347107829444E-16, -3.061616997868381785E-17, 0.2499999999999998890 ) ) ;
#278 = FACE_OUTER_BOUND ( 'NONE', #58, .T. ) ;
#279 = PRODUCT_DEFINITION ( 'UNKNOWN', '', #287, #86 ) ;
#280 = EDGE_LOOP ( 'NONE', ( #56 ) ) ;
#281 = CIRCLE ( 'NONE', #154, 0.9050000000000001377 ) ;
#282 = FACE_OUTER_BOUND ( 'NONE', #280, .T. ) ;
#283 = FACE_OUTER_BOUND ( 'NONE', #89, .T. ) ;
#284 = ORIENTED_EDGE ( 'NONE', *, *, #190, .F. ) ;
#285 = FACE_OUTER_BOUND ( 'NONE', #36, .T. ) ;
#286 = AXIS2_PLACEMENT_3D ( 'NONE', #226, #127, #124 ) ;
#287 = PRODUCT_DEFINITION_FORMATION_WITH_SPECIFIED_SOURCE ( 'ANY', '', #171, .NOT_KNOWN. ) ;
#288 = CC_DESIGN_PERSON_AND_ORGANIZATION_ASSIGNMENT ( #182, #70, ( #111 ) ) ;
#289 = DIRECTION ( 'NONE',  ( 3.491481338843133355E-15, -1.224646799147353207E-16, 1.000000000000000000 ) ) ;
#290 = MANIFOLD_SOLID_BREP ( 'Corps-Déplacer/Copier1[1]', #44 ) ;
#291 = PERSON_AND_ORGANIZATION_ROLE ( 'design_owner' ) ;
#292 = APPROVAL_STATUS ( 'not_yet_approved' ) ;
#293 = ADVANCED_FACE ( 'NONE', ( #63 ), #201, .F. ) ;
#294 = CONICAL_SURFACE ( 'NONE', #286, 1.200000000000001732, 0.7853981633974453924 ) ;
#295 = VERTEX_POINT ( 'NONE', #230 ) ;
#296 = LOCAL_TIME ( 15, 3, 58.00000000000000000, #18 ) ;
#297 = APPROVAL_DATE_TIME ( #251, #198 ) ;
#298 = CALENDAR_DATE ( 2021, 1, 12 ) ;
#299 = APPROVAL_DATE_TIME ( #275, #238 ) ;
#300 = ADVANCED_FACE ( 'NONE', ( #203, #285 ), #239, .T. ) ;
#301 = PERSON_AND_ORGANIZATION ( #35, #75 ) ;
#302 = CARTESIAN_POINT ( 'NONE',  ( -1.626232174731117039E-31, 5.704054623745417453E-33, -4.657714067204358490E-17 ) ) ;
#303 = PERSON_AND_ORGANIZATION_ROLE ( 'creator' ) ;
ENDSEC;
END-ISO-10303-21;
