ISO-10303-21;
HEADER;
FILE_DESCRIPTION (( 'STEP AP203' ),
    '1' );
FILE_NAME ('327047.step',
    '2021-12-01T14:03:58',
    ( '' ),
    ( '' ),
    'SwSTEP 2.0',
    'SolidWorks 2019',
    '' );
FILE_SCHEMA (( 'CONFIG_CONTROL_DESIGN' ));
ENDSEC;

DATA;
#1 = CIRCLE ( 'NONE', #138, 0.8900000000000000133 ) ;
#2 = VERTEX_POINT ( 'NONE', #142 ) ;
#3 = CARTESIAN_POINT ( 'NONE',  ( 5.935518276033326704E-14, 0.7899999999999981481, 17.00000000000000000 ) ) ;
#4 = VERTEX_POINT ( 'NONE', #103 ) ;
#5 = APPLICATION_PROTOCOL_DEFINITION ( 'international standard', 'config_control_design', 1994, #121 ) ;
#6 = ADVANCED_BREP_SHAPE_REPRESENTATION ( '327047', ( #290, #94, #188 ), #75 ) ;
#7 = CIRCLE ( 'NONE', #285, 1.200000000000001732 ) ;
#8 = FACE_OUTER_BOUND ( 'NONE', #88, .T. ) ;
#9 =( LENGTH_UNIT ( ) NAMED_UNIT ( * ) SI_UNIT ( .MILLI., .METRE. ) );
#10 = ADVANCED_FACE ( 'NONE', ( #46, #17 ), #263, .T. ) ;
#11 = AXIS2_PLACEMENT_3D ( 'NONE', #297, #288, #207 ) ;
#12 = DIRECTION ( 'NONE',  ( 0.0000000000000000000, 1.000000000000000000, 0.0000000000000000000 ) ) ;
#13 = ORIENTED_EDGE ( 'NONE', *, *, #198, .T. ) ;
#14 = FACE_OUTER_BOUND ( 'NONE', #177, .T. ) ;
#15 = EDGE_LOOP ( 'NONE', ( #61 ) ) ;
#16 = CIRCLE ( 'NONE', #51, 0.7900000000000002576 ) ;
#17 = FACE_BOUND ( 'NONE', #270, .T. ) ;
#18 = EDGE_LOOP ( 'NONE', ( #13 ) ) ;
#19 = FACE_BOUND ( 'NONE', #15, .T. ) ;
#20 = COORDINATED_UNIVERSAL_TIME_OFFSET ( 1, 0, .AHEAD. ) ;
#21 = DIRECTION ( 'NONE',  ( -4.275831445896958607E-31, -1.000000000000000000, -1.224646799147353207E-16 ) ) ;
#22 = DIRECTION ( 'NONE',  ( 1.000000000000000000, 0.0000000000000000000, 0.0000000000000000000 ) ) ;
#23 = CARTESIAN_POINT ( 'NONE',  ( 0.0000000000000000000, 0.7456624327025946908, 0.0000000000000000000 ) ) ;
#24 = AXIS2_PLACEMENT_3D ( 'NONE', #200, #282, #62 ) ;
#25 = DATE_AND_TIME ( #71, #221 ) ;
#26 = CARTESIAN_POINT ( 'NONE',  ( 8.728703347107833388E-16, 0.8899999999999992362, 0.2500000000000000000 ) ) ;
#27 = DIRECTION ( 'NONE',  ( 3.491481338843133355E-15, -1.224646799147353207E-16, 1.000000000000000000 ) ) ;
#28 = EDGE_CURVE ( 'NONE', #2, #2, #1, .T. ) ;
#29 = CLOSED_SHELL ( 'NONE', ( #127, #83, #275, #132, #214, #85, #10, #174 ) ) ;
#30 = AXIS2_PLACEMENT_3D ( 'NONE', #262, #107, #192 ) ;
#31 = PLANE ( 'NONE',  #36 ) ;
#32 = AXIS2_PLACEMENT_3D ( 'NONE', #219, #56, #151 ) ;
#33 = DIRECTION ( 'NONE',  ( 4.327932459297162812E-31, 1.000000000000000000, 1.218204688185961049E-16 ) ) ;
#34 = EDGE_LOOP ( 'NONE', ( #106 ) ) ;
#35 = ADVANCED_FACE ( 'NONE', ( #264 ), #31, .T. ) ;
#36 = AXIS2_PLACEMENT_3D ( 'NONE', #180, #143, #21 ) ;
#37 = FACE_OUTER_BOUND ( 'NONE', #202, .T. ) ;
#38 = FACE_OUTER_BOUND ( 'NONE', #159, .T. ) ;
#39 = DIRECTION ( 'NONE',  ( -3.491481338843133355E-15, 1.224646799147353207E-16, -1.000000000000000000 ) ) ;
#40 = DIRECTION ( 'NONE',  ( -3.491481338843133355E-15, 1.224646799147353207E-16, -1.000000000000000000 ) ) ;
#41 = DIRECTION ( 'NONE',  ( -3.491481338843133355E-15, 1.224646799147353207E-16, -1.000000000000000000 ) ) ;
#42 = CARTESIAN_POINT ( 'NONE',  ( 8.728703347107829444E-16, -3.061616997868381785E-17, 0.2499999999999998890 ) ) ;
#43 = CARTESIAN_POINT ( 'NONE',  ( 0.0000000000000000000, 0.0000000000000000000, 0.0000000000000000000 ) ) ;
#44 = ORIENTED_EDGE ( 'NONE', *, *, #119, .F. ) ;
#45 = CIRCLE ( 'NONE', #215, 0.7899999999999988143 ) ;
#46 = FACE_OUTER_BOUND ( 'NONE', #227, .T. ) ;
#47 = EDGE_CURVE ( 'NONE', #52, #52, #7, .T. ) ;
#48 = DIRECTION ( 'NONE',  ( -4.275831445896958607E-31, -1.000000000000000000, -1.224646799147353207E-16 ) ) ;
#49 = CALENDAR_DATE ( 2021, 1, 12 ) ;
#50 = DIRECTION ( 'NONE',  ( 3.491481338843133355E-15, -1.224646799147353207E-16, 1.000000000000000000 ) ) ;
#51 = AXIS2_PLACEMENT_3D ( 'NONE', #176, #39, #108 ) ;
#52 = VERTEX_POINT ( 'NONE', #220 ) ;
#53 = COORDINATED_UNIVERSAL_TIME_OFFSET ( 1, 0, .AHEAD. ) ;
#54 = ORGANIZATION ( 'UNSPECIFIED', 'UNSPECIFIED', '' ) ;
#55 = MECHANICAL_CONTEXT ( 'NONE', #121, 'mechanical' ) ;
#56 = DIRECTION ( 'NONE',  ( -3.491481338843133355E-15, 1.224646799147353207E-16, -1.000000000000000000 ) ) ;
#57 = APPROVAL_STATUS ( 'not_yet_approved' ) ;
#58 = LOCAL_TIME ( 15, 3, 58.00000000000000000, #228 ) ;
#59 = PRODUCT_DEFINITION_SHAPE ( 'NONE', 'NONE',  #128 ) ;
#60 = DIRECTION ( 'NONE',  ( -3.491481338843133355E-15, 1.224646799147353207E-16, -1.000000000000000000 ) ) ;
#61 = ORIENTED_EDGE ( 'NONE', *, *, #147, .F. ) ;
#62 = DIRECTION ( 'NONE',  ( 0.0000000000000000000, 1.000000000000000000, 0.0000000000000000000 ) ) ;
#63 = CYLINDRICAL_SURFACE ( 'NONE', #193, 0.8899999999999995692 ) ;
#64 = EDGE_LOOP ( 'NONE', ( #249 ) ) ;
#65 = DIRECTION ( 'NONE',  ( -3.491481338843133355E-15, 1.224646799147353207E-16, -1.000000000000000000 ) ) ;
#66 = FACE_BOUND ( 'NONE', #197, .T. ) ;
#67 = ORIENTED_EDGE ( 'NONE', *, *, #198, .F. ) ;
#68 = DATE_AND_TIME ( #255, #167 ) ;
#69 = CONICAL_SURFACE ( 'NONE', #245, 0.8899999999999992362, 0.5235987755982930425 ) ;
#70 = APPROVAL_ROLE ( '' ) ;
#71 = CALENDAR_DATE ( 2021, 1, 12 ) ;
#72 = CARTESIAN_POINT ( 'NONE',  ( 2.504511167915743751E-14, 0.7899999999999979261, 7.173205080756892116 ) ) ;
#73 = DIRECTION ( 'NONE',  ( 0.0000000000000000000, 1.000000000000000000, 0.0000000000000000000 ) ) ;
#74 = PERSON_AND_ORGANIZATION_ROLE ( 'design_supplier' ) ;
#75 =( GEOMETRIC_REPRESENTATION_CONTEXT ( 3 ) GLOBAL_UNCERTAINTY_ASSIGNED_CONTEXT ( ( #110 ) ) GLOBAL_UNIT_ASSIGNED_CONTEXT ( ( #9, #224, #280 ) ) REPRESENTATION_CONTEXT ( 'NONE', 'WORKASPACE' ) );
#76 = APPROVAL ( #57, 'UNSPECIFIED' ) ;
#77 = AXIS2_PLACEMENT_3D ( 'NONE', #153, #134, #12 ) ;
#78 = APPLICATION_CONTEXT ( 'configuration controlled 3d designs of mechanical parts and assemblies' ) ;
#79 = DIRECTION ( 'NONE',  ( 4.275831445896958607E-31, 1.000000000000000000, 1.224646799147353454E-16 ) ) ;
#80 = PERSON ( 'UNSPECIFIED', 'UNSPECIFIED', 'UNSPECIFIED', ('UNSPECIFIED'), ('UNSPECIFIED'), ('UNSPECIFIED') ) ;
#81 = CC_DESIGN_PERSON_AND_ORGANIZATION_ASSIGNMENT ( #181, #74, ( #131 ) ) ;
#82 = ADVANCED_FACE ( 'NONE', ( #185 ), #165, .F. ) ;
#83 = ADVANCED_FACE ( 'NONE', ( #287, #226 ), #259, .T. ) ;
#84 = AXIS2_PLACEMENT_3D ( 'NONE', #42, #65, #33 ) ;
#85 = ADVANCED_FACE ( 'NONE', ( #191, #277 ), #150, .T. ) ;
#86 = ORIENTED_EDGE ( 'NONE', *, *, #247, .F. ) ;
#87 = DIRECTION ( 'NONE',  ( 4.275831445896958607E-31, 1.000000000000000000, 1.224646799147353207E-16 ) ) ;
#88 = EDGE_LOOP ( 'NONE', ( #199 ) ) ;
#89 = ORIENTED_EDGE ( 'NONE', *, *, #47, .F. ) ;
#90 = CC_DESIGN_DATE_AND_TIME_ASSIGNMENT ( #25, #209, ( #128 ) ) ;
#91 = COORDINATED_UNIVERSAL_TIME_OFFSET ( 1, 0, .AHEAD. ) ;
#92 = CC_DESIGN_APPROVAL ( #76, ( #128 ) ) ;
#93 = DIRECTION ( 'NONE',  ( 0.0000000000000000000, 1.000000000000000000, 0.0000000000000000000 ) ) ;
#94 = MANIFOLD_SOLID_BREP ( 'Corps-Déplacer/Copier1[2]', #171 ) ;
#95 = APPROVAL_STATUS ( 'not_yet_approved' ) ;
#96 = CALENDAR_DATE ( 2021, 1, 12 ) ;
#97 = PERSON_AND_ORGANIZATION_ROLE ( 'classification_officer' ) ;
#98 = PERSON_AND_ORGANIZATION_ROLE ( 'design_owner' ) ;
#99 = AXIS2_PLACEMENT_3D ( 'NONE', #218, #274, #257 ) ;
#100 = CARTESIAN_POINT ( 'NONE',  ( 2.444036937190193349E-14, 0.8899999999999992362, 7.000000000000000000 ) ) ;
#101 = DIRECTION ( 'NONE',  ( 3.491481338843133355E-15, -1.224646799147353207E-16, 1.000000000000000000 ) ) ;
#102 = CARTESIAN_POINT ( 'NONE',  ( 0.0000000000000000000, 0.0000000000000000000, 0.0000000000000000000 ) ) ;
#103 = CARTESIAN_POINT ( 'NONE',  ( 6.056776150402963091E-14, 0.8203844939755791099, 17.34729635533384595 ) ) ;
#104 = SECURITY_CLASSIFICATION ( '', '', #302 ) ;
#105 = DIRECTION ( 'NONE',  ( -3.491481338843133355E-15, 1.224646799147353207E-16, -1.000000000000000000 ) ) ;
#106 = ORIENTED_EDGE ( 'NONE', *, *, #272, .T. ) ;
#107 = DIRECTION ( 'NONE',  ( -3.491481338843133355E-15, 1.224646799147353207E-16, -1.000000000000000000 ) ) ;
#108 = DIRECTION ( 'NONE',  ( 0.0000000000000000000, 1.000000000000000000, 0.0000000000000000000 ) ) ;
#109 = FACE_OUTER_BOUND ( 'NONE', #286, .T. ) ;
#110 = UNCERTAINTY_MEASURE_WITH_UNIT (LENGTH_MEASURE( 1.000000000000000082E-05 ), #9, 'distance_accuracy_value', 'NONE');
#111 = CYLINDRICAL_SURFACE ( 'NONE', #170, 0.7899999999999994804 ) ;
#112 = EDGE_LOOP ( 'NONE', ( #250 ) ) ;
#113 = CIRCLE ( 'NONE', #32, 0.7456624327025946908 ) ;
#114 = DIRECTION ( 'NONE',  ( -3.491481338843133355E-15, 1.224646799147353207E-16, -1.000000000000000000 ) ) ;
#115 = PRODUCT ( '327047', '327047', '', ( #55 ) ) ;
#116 = ORIENTED_EDGE ( 'NONE', *, *, #119, .T. ) ;
#117 = DIRECTION ( 'NONE',  ( 0.0000000000000000000, 1.000000000000000000, 0.0000000000000000000 ) ) ;
#118 = DIRECTION ( 'NONE',  ( -3.491481338843133355E-15, 1.224646799147353207E-16, -1.000000000000000000 ) ) ;
#119 = EDGE_CURVE ( 'NONE', #217, #217, #271, .T. ) ;
#120 = APPROVAL_DATE_TIME ( #68, #248 ) ;
#121 = APPLICATION_CONTEXT ( 'configuration controlled 3d designs of mechanical parts and assemblies' ) ;
#122 = PERSON_AND_ORGANIZATION ( #80, #54 ) ;
#123 = APPROVAL_DATE_TIME ( #238, #173 ) ;
#124 = DIRECTION ( 'NONE',  ( -3.491481338843133355E-15, 1.224646799147353207E-16, -1.000000000000000000 ) ) ;
#125 = DIRECTION ( 'NONE',  ( -4.275831445896958607E-31, -1.000000000000000000, -1.224646799147353207E-16 ) ) ;
#126 = VERTEX_POINT ( 'NONE', #26 ) ;
#127 = ADVANCED_FACE ( 'NONE', ( #8 ), #213, .F. ) ;
#128 = PRODUCT_DEFINITION ( 'UNKNOWN', '', #131, #135 ) ;
#129 = LOCAL_TIME ( 15, 3, 58.00000000000000000, #91 ) ;
#130 = DIRECTION ( 'NONE',  ( 4.275831445896958607E-31, 1.000000000000000000, 1.224646799147353207E-16 ) ) ;
#131 = PRODUCT_DEFINITION_FORMATION_WITH_SPECIFIED_SOURCE ( 'ANY', '', #115, .NOT_KNOWN. ) ;
#132 = ADVANCED_FACE ( 'NONE', ( #299, #38 ), #252, .F. ) ;
#133 = PLANE ( 'NONE',  #160 ) ;
#134 = DIRECTION ( 'NONE',  ( -3.491481338843133355E-15, 1.224646799147353207E-16, -1.000000000000000000 ) ) ;
#135 = DESIGN_CONTEXT ( 'detailed design', #78, 'design' ) ;
#136 = CARTESIAN_POINT ( 'NONE',  ( 0.0000000000000000000, 0.0000000000000000000, 0.0000000000000000000 ) ) ;
#137 = EDGE_LOOP ( 'NONE', ( #44 ) ) ;
#138 = AXIS2_PLACEMENT_3D ( 'NONE', #222, #105, #154 ) ;
#139 = CARTESIAN_POINT ( 'NONE',  ( 1.745740669421566678E-13, -6.123233995736766085E-15, 50.00000000000000000 ) ) ;
#140 = CALENDAR_DATE ( 2021, 1, 12 ) ;
#141 = DIRECTION ( 'NONE',  ( 0.0000000000000000000, 0.0000000000000000000, 1.000000000000000000 ) ) ;
#142 = CARTESIAN_POINT ( 'NONE',  ( 2.444036937190193349E-14, 0.8899999999999992362, 7.000000000000000000 ) ) ;
#143 = DIRECTION ( 'NONE',  ( 3.491481338843133355E-15, -1.224646799147353207E-16, 1.000000000000000000 ) ) ;
#144 = COORDINATED_UNIVERSAL_TIME_OFFSET ( 1, 0, .AHEAD. ) ;
#145 = CIRCLE ( 'NONE', #11, 0.8203844939755813304 ) ;
#146 = CARTESIAN_POINT ( 'NONE',  ( 2.444036937190193349E-14, 6.673931032845254860E-33, 7.000000000000000000 ) ) ;
#147 = EDGE_CURVE ( 'NONE', #4, #4, #145, .T. ) ;
#148 = PERSON_AND_ORGANIZATION_ROLE ( 'creator' ) ;
#150 = CYLINDRICAL_SURFACE ( 'NONE', #261, 1.499999999999999112 ) ;
#149 = VERTEX_POINT ( 'NONE', #279 ) ;
#151 = DIRECTION ( 'NONE',  ( 4.275831445896958607E-31, 1.000000000000000000, 1.224646799147353207E-16 ) ) ;
#152 = PRODUCT_RELATED_PRODUCT_CATEGORY ( 'detail', '', ( #115 ) ) ;
#153 = CARTESIAN_POINT ( 'NONE',  ( 7.402494682722196376E-14, -2.596445616949733050E-15, 21.20158741898055510 ) ) ;
#154 = DIRECTION ( 'NONE',  ( 0.0000000000000000000, 1.000000000000000000, 0.0000000000000000000 ) ) ;
#155 = LOCAL_TIME ( 15, 3, 58.00000000000000000, #53 ) ;
#156 = EDGE_LOOP ( 'NONE', ( #204 ) ) ;
#157 = CARTESIAN_POINT ( 'NONE',  ( 5.935518276033326704E-14, -2.168404344971008868E-15, 17.00000000000000000 ) ) ;
#158 = FACE_OUTER_BOUND ( 'NONE', #34, .T. ) ;
#159 = EDGE_LOOP ( 'NONE', ( #284 ) ) ;
#160 = AXIS2_PLACEMENT_3D ( 'NONE', #201, #114, #87 ) ;
#161 = ADVANCED_FACE ( 'NONE', ( #109, #230 ), #63, .T. ) ;
#162 = CARTESIAN_POINT ( 'NONE',  ( 2.504511167915743751E-14, -8.784642641776459355E-16, 7.173205080756892116 ) ) ;
#163 = VERTEX_POINT ( 'NONE', #3 ) ;
#164 = CC_DESIGN_PERSON_AND_ORGANIZATION_ASSIGNMENT ( #122, #148, ( #131 ) ) ;
#165 = PLANE ( 'NONE',  #172 ) ;
#166 = APPROVAL_STATUS ( 'not_yet_approved' ) ;
#167 = LOCAL_TIME ( 15, 3, 58.00000000000000000, #20 ) ;
#168 = VERTEX_POINT ( 'NONE', #100 ) ;
#169 = APPLICATION_PROTOCOL_DEFINITION ( 'international standard', 'config_control_design', 1994, #78 ) ;
#170 = AXIS2_PLACEMENT_3D ( 'NONE', #136, #291, #216 ) ;
#171 = CLOSED_SHELL ( 'NONE', ( #82, #190, #161, #35 ) ) ;
#172 = AXIS2_PLACEMENT_3D ( 'NONE', #241, #50, #48 ) ;
#173 = APPROVAL ( #95, 'UNSPECIFIED' ) ;
#174 = ADVANCED_FACE ( 'NONE', ( #37 ), #133, .F. ) ;
#175 = CONICAL_SURFACE ( 'NONE', #99, 1.499999999999996669, 0.1745329251994261754 ) ;
#176 = CARTESIAN_POINT ( 'NONE',  ( 5.935518276033326704E-14, -2.081899558550500280E-15, 17.00000000000000000 ) ) ;
#177 = EDGE_LOOP ( 'NONE', ( #231 ) ) ;
#178 = EDGE_LOOP ( 'NONE', ( #289 ) ) ;
#179 = EDGE_LOOP ( 'NONE', ( #67 ) ) ;
#180 = CARTESIAN_POINT ( 'NONE',  ( 2.444036937190193349E-14, 6.673931032845254860E-33, 7.000000000000000000 ) ) ;
#181 = PERSON_AND_ORGANIZATION ( #80, #54 ) ;
#182 = PERSON_AND_ORGANIZATION ( #80, #54 ) ;
#183 = VERTEX_POINT ( 'NONE', #23 ) ;
#184 = CARTESIAN_POINT ( 'NONE',  ( 8.728703347107829444E-16, -3.061616997868381785E-17, 0.2499999999999998890 ) ) ;
#185 = FACE_OUTER_BOUND ( 'NONE', #178, .T. ) ;
#186 = CC_DESIGN_SECURITY_CLASSIFICATION ( #104, ( #131 ) ) ;
#187 = APPROVAL_ROLE ( '' ) ;
#188 = AXIS2_PLACEMENT_3D ( 'NONE', #211, #141, #22 ) ;
#189 = CC_DESIGN_PERSON_AND_ORGANIZATION_ASSIGNMENT ( #237, #97, ( #104 ) ) ;
#190 = ADVANCED_FACE ( 'NONE', ( #66, #158 ), #69, .T. ) ;
#191 = FACE_OUTER_BOUND ( 'NONE', #137, .T. ) ;
#192 = DIRECTION ( 'NONE',  ( 0.0000000000000000000, 1.000000000000000000, 0.0000000000000000000 ) ) ;
#193 = AXIS2_PLACEMENT_3D ( 'NONE', #43, #60, #244 ) ;
#194 = CC_DESIGN_DATE_AND_TIME_ASSIGNMENT ( #268, #273, ( #104 ) ) ;
#195 = CC_DESIGN_PERSON_AND_ORGANIZATION_ASSIGNMENT ( #203, #98, ( #115 ) ) ;
#196 = CIRCLE ( 'NONE', #276, 0.8900000000000000133 ) ;
#197 = EDGE_LOOP ( 'NONE', ( #265 ) ) ;
#198 = EDGE_CURVE ( 'NONE', #260, #260, #45, .T. ) ;
#199 = ORIENTED_EDGE ( 'NONE', *, *, #301, .T. ) ;
#200 = CARTESIAN_POINT ( 'NONE',  ( 2.504511167915743751E-14, -8.784642641776459355E-16, 7.173205080756892116 ) ) ;
#201 = CARTESIAN_POINT ( 'NONE',  ( 1.745740669421566678E-13, 8.998558695971067645E-33, 50.00000000000000000 ) ) ;
#202 = EDGE_LOOP ( 'NONE', ( #89 ) ) ;
#203 = PERSON_AND_ORGANIZATION ( #80, #54 ) ;
#204 = ORIENTED_EDGE ( 'NONE', *, *, #269, .F. ) ;
#205 = CC_DESIGN_APPROVAL ( #248, ( #104 ) ) ;
#206 = ORIENTED_EDGE ( 'NONE', *, *, #28, .T. ) ;
#207 = DIRECTION ( 'NONE',  ( 0.0000000000000000000, 1.000000000000000000, 0.0000000000000000000 ) ) ;
#208 = AXIS2_PLACEMENT_3D ( 'NONE', #157, #41, #130 ) ;
#209 = DATE_TIME_ROLE ( 'creation_date' ) ;
#210 = CARTESIAN_POINT ( 'NONE',  ( 1.745740669421566678E-13, -6.123233995736766085E-15, 50.00000000000000000 ) ) ;
#211 = CARTESIAN_POINT ( 'NONE',  ( 0.0000000000000000000, 0.0000000000000000000, 0.0000000000000000000 ) ) ;
#212 = CARTESIAN_POINT ( 'NONE',  ( 7.402494682722196376E-14, 1.499999999999994005, 21.20158741898055510 ) ) ;
#213 = PLANE ( 'NONE',  #242 ) ;
#214 = ADVANCED_FACE ( 'NONE', ( #19, #283 ), #175, .T. ) ;
#215 = AXIS2_PLACEMENT_3D ( 'NONE', #162, #118, #258 ) ;
#216 = DIRECTION ( 'NONE',  ( 4.275831445896958607E-31, 1.000000000000000000, 1.224646799147353207E-16 ) ) ;
#217 = VERTEX_POINT ( 'NONE', #212 ) ;
#218 = CARTESIAN_POINT ( 'NONE',  ( 7.402494682722196376E-14, -2.596445616949733050E-15, 21.20158741898055510 ) ) ;
#219 = CARTESIAN_POINT ( 'NONE',  ( -3.188326877773779060E-31, 1.118314528009155462E-32, -9.131731114536613173E-17 ) ) ;
#220 = CARTESIAN_POINT ( 'NONE',  ( 1.745740669421566678E-13, 1.199999999999995515, 50.00000000000000000 ) ) ;
#221 = LOCAL_TIME ( 15, 3, 58.00000000000000000, #144 ) ;
#222 = CARTESIAN_POINT ( 'NONE',  ( 2.444036937190193349E-14, -8.572527594031473190E-16, 7.000000000000000000 ) ) ;
#223 = PERSON_AND_ORGANIZATION ( #80, #54 ) ;
#224 =( NAMED_UNIT ( * ) PLANE_ANGLE_UNIT ( ) SI_UNIT ( $, .RADIAN. ) );
#225 = APPROVAL_PERSON_ORGANIZATION ( #223, #76, #235 ) ;
#226 = FACE_BOUND ( 'NONE', #18, .T. ) ;
#227 = EDGE_LOOP ( 'NONE', ( #86 ) ) ;
#228 = COORDINATED_UNIVERSAL_TIME_OFFSET ( 1, 0, .AHEAD. ) ;
#229 = FACE_OUTER_BOUND ( 'NONE', #179, .T. ) ;
#230 = FACE_OUTER_BOUND ( 'NONE', #246, .T. ) ;
#231 = ORIENTED_EDGE ( 'NONE', *, *, #269, .T. ) ;
#232 = EDGE_CURVE ( 'NONE', #183, #183, #113, .T. ) ;
#233 = ORIENTED_EDGE ( 'NONE', *, *, #47, .T. ) ;
#234 = CIRCLE ( 'NONE', #84, 0.8899999999999992362 ) ;
#235 = APPROVAL_ROLE ( '' ) ;
#236 = DIRECTION ( 'NONE',  ( -3.491481338843133355E-15, 1.224646799147353207E-16, -1.000000000000000000 ) ) ;
#237 = PERSON_AND_ORGANIZATION ( #80, #54 ) ;
#238 = DATE_AND_TIME ( #140, #155 ) ;
#239 = CC_DESIGN_APPROVAL ( #173, ( #131 ) ) ;
#240 = PERSON_AND_ORGANIZATION ( #80, #54 ) ;
#241 = CARTESIAN_POINT ( 'NONE',  ( -1.594163438886889530E-31, 5.591572640045777312E-33, -4.565865557268306586E-17 ) ) ;
#242 = AXIS2_PLACEMENT_3D ( 'NONE', #146, #27, #125 ) ;
#243 = DATE_AND_TIME ( #96, #58 ) ;
#244 = DIRECTION ( 'NONE',  ( 4.275831445896958607E-31, 1.000000000000000000, 1.224646799147353207E-16 ) ) ;
#245 = AXIS2_PLACEMENT_3D ( 'NONE', #184, #101, #278 ) ;
#246 = EDGE_LOOP ( 'NONE', ( #206 ) ) ;
#247 = EDGE_CURVE ( 'NONE', #149, #149, #254, .T. ) ;
#248 = APPROVAL ( #166, 'UNSPECIFIED' ) ;
#249 = ORIENTED_EDGE ( 'NONE', *, *, #28, .F. ) ;
#250 = ORIENTED_EDGE ( 'NONE', *, *, #247, .T. ) ;
#251 = CARTESIAN_POINT ( 'NONE',  ( 2.444036937190193349E-14, -8.572527594031473190E-16, 7.000000000000000000 ) ) ;
#252 = TOROIDAL_SURFACE ( 'NONE', #208, 2.790000000000000480, 2.000000000000000000 ) ;
#253 = SHAPE_DEFINITION_REPRESENTATION ( #59, #6 ) ;
#254 = CIRCLE ( 'NONE', #30, 1.500000000000001554 ) ;
#255 = CALENDAR_DATE ( 2021, 1, 12 ) ;
#256 = PERSON_AND_ORGANIZATION_ROLE ( 'creator' ) ;
#257 = DIRECTION ( 'NONE',  ( 0.0000000000000000000, -1.000000000000000000, 0.0000000000000000000 ) ) ;
#258 = DIRECTION ( 'NONE',  ( 0.0000000000000000000, 1.000000000000000000, 0.0000000000000000000 ) ) ;
#259 = CONICAL_SURFACE ( 'NONE', #24, 0.7899999999999988143, 0.5235987755982943748 ) ;
#260 = VERTEX_POINT ( 'NONE', #72 ) ;
#261 = AXIS2_PLACEMENT_3D ( 'NONE', #102, #40, #79 ) ;
#262 = CARTESIAN_POINT ( 'NONE',  ( 1.735266225405037467E-13, -6.086494591762345225E-15, 49.70000000000000284 ) ) ;
#263 = CONICAL_SURFACE ( 'NONE', #281, 1.200000000000001732, 0.7853981633974453924 ) ;
#264 = FACE_OUTER_BOUND ( 'NONE', #64, .T. ) ;
#265 = ORIENTED_EDGE ( 'NONE', *, *, #232, .F. ) ;
#266 = APPROVAL_DATE_TIME ( #243, #76 ) ;
#267 = EDGE_LOOP ( 'NONE', ( #293 ) ) ;
#268 = DATE_AND_TIME ( #49, #129 ) ;
#269 = EDGE_CURVE ( 'NONE', #163, #163, #16, .T. ) ;
#270 = EDGE_LOOP ( 'NONE', ( #233 ) ) ;
#271 = CIRCLE ( 'NONE', #77, 1.499999999999996669 ) ;
#272 = EDGE_CURVE ( 'NONE', #126, #126, #234, .T. ) ;
#273 = DATE_TIME_ROLE ( 'classification_date' ) ;
#274 = DIRECTION ( 'NONE',  ( 3.491481338843133355E-15, -1.224646799147353207E-16, 1.000000000000000000 ) ) ;
#275 = ADVANCED_FACE ( 'NONE', ( #229, #14 ), #111, .T. ) ;
#276 = AXIS2_PLACEMENT_3D ( 'NONE', #251, #303, #93 ) ;
#277 = FACE_OUTER_BOUND ( 'NONE', #112, .T. ) ;
#278 = DIRECTION ( 'NONE',  ( -4.327932459297162812E-31, -1.000000000000000000, -1.218204688185961049E-16 ) ) ;
#279 = CARTESIAN_POINT ( 'NONE',  ( 1.735266225405037467E-13, 1.499999999999995559, 49.70000000000000284 ) ) ;
#280 =( NAMED_UNIT ( * ) SI_UNIT ( $, .STERADIAN. ) SOLID_ANGLE_UNIT ( ) );
#281 = AXIS2_PLACEMENT_3D ( 'NONE', #139, #236, #117 ) ;
#282 = DIRECTION ( 'NONE',  ( -3.491481338843133355E-15, 1.224646799147353207E-16, -1.000000000000000000 ) ) ;
#283 = FACE_OUTER_BOUND ( 'NONE', #294, .T. ) ;
#284 = ORIENTED_EDGE ( 'NONE', *, *, #147, .T. ) ;
#285 = AXIS2_PLACEMENT_3D ( 'NONE', #210, #124, #73 ) ;
#286 = EDGE_LOOP ( 'NONE', ( #298 ) ) ;
#287 = FACE_OUTER_BOUND ( 'NONE', #267, .T. ) ;
#288 = DIRECTION ( 'NONE',  ( -3.491481338843133355E-15, 1.224646799147353207E-16, -1.000000000000000000 ) ) ;
#289 = ORIENTED_EDGE ( 'NONE', *, *, #232, .T. ) ;
#290 = MANIFOLD_SOLID_BREP ( 'Corps-Déplacer/Copier1[1]', #29 ) ;
#291 = DIRECTION ( 'NONE',  ( -3.491481338843133355E-15, 1.224646799147353207E-16, -1.000000000000000000 ) ) ;
#292 = APPROVAL_PERSON_ORGANIZATION ( #182, #248, #70 ) ;
#293 = ORIENTED_EDGE ( 'NONE', *, *, #301, .F. ) ;
#294 = EDGE_LOOP ( 'NONE', ( #116 ) ) ;
#295 = CC_DESIGN_PERSON_AND_ORGANIZATION_ASSIGNMENT ( #296, #256, ( #128 ) ) ;
#296 = PERSON_AND_ORGANIZATION ( #80, #54 ) ;
#297 = CARTESIAN_POINT ( 'NONE',  ( 6.056776150402963091E-14, -2.124431095542013992E-15, 17.34729635533384595 ) ) ;
#298 = ORIENTED_EDGE ( 'NONE', *, *, #272, .F. ) ;
#299 = FACE_OUTER_BOUND ( 'NONE', #156, .T. ) ;
#300 = APPROVAL_PERSON_ORGANIZATION ( #240, #173, #187 ) ;
#301 = EDGE_CURVE ( 'NONE', #168, #168, #196, .T. ) ;
#302 = SECURITY_CLASSIFICATION_LEVEL ( 'unclassified' ) ;
#303 = DIRECTION ( 'NONE',  ( -3.491481338843133355E-15, 1.224646799147353207E-16, -1.000000000000000000 ) ) ;
ENDSEC;
END-ISO-10303-21;
