ISO-10303-21;
HEADER;
FILE_DESCRIPTION (( 'STEP AP203' ),
    '1' );
FILE_NAME ('327046.step',
    '2021-12-01T14:03:57',
    ( '' ),
    ( '' ),
    'SwSTEP 2.0',
    'SolidWorks 2019',
    '' );
FILE_SCHEMA (( 'CONFIG_CONTROL_DESIGN' ));
ENDSEC;

DATA;
#1 = CLOSED_SHELL ( 'NONE', ( #279, #90, #126, #93 ) ) ;
#2 = ORIENTED_EDGE ( 'NONE', *, *, #43, .T. ) ;
#3 = APPROVAL_PERSON_ORGANIZATION ( #207, #197, #248 ) ;
#4 = MANIFOLD_SOLID_BREP ( 'Corps-Déplacer/Copier1[2]', #1 ) ;
#5 = ORIENTED_EDGE ( 'NONE', *, *, #217, .F. ) ;
#6 = EDGE_LOOP ( 'NONE', ( #262 ) ) ;
#7 = DIRECTION ( 'NONE',  ( -3.491481338843133355E-15, 1.224646799147353207E-16, -1.000000000000000000 ) ) ;
#8 = AXIS2_PLACEMENT_3D ( 'NONE', #15, #110, #288 ) ;
#9 = CARTESIAN_POINT ( 'NONE',  ( 0.0000000000000000000, 0.0000000000000000000, 0.0000000000000000000 ) ) ;
#10 = DIRECTION ( 'NONE',  ( 3.491481338843133355E-15, -1.224646799147353207E-16, 1.000000000000000000 ) ) ;
#11 = DIRECTION ( 'NONE',  ( -3.491481338843133355E-15, 1.224646799147353207E-16, -1.000000000000000000 ) ) ;
#12 = CIRCLE ( 'NONE', #109, 0.8850000000000000089 ) ;
#13 = CC_DESIGN_SECURITY_CLASSIFICATION ( #194, ( #281 ) ) ;
#14 = CYLINDRICAL_SURFACE ( 'NONE', #218, 0.8849999999999995648 ) ;
#15 = CARTESIAN_POINT ( 'NONE',  ( 7.412395270042457333E-14, -2.599918275513463022E-15, 21.22994382807865321 ) ) ;
#16 = APPROVAL_STATUS ( 'not_yet_approved' ) ;
#17 = VERTEX_POINT ( 'NONE', #165 ) ;
#18 = AXIS2_PLACEMENT_3D ( 'NONE', #138, #116, #203 ) ;
#19 = CIRCLE ( 'NONE', #190, 0.7406624327025949084 ) ;
#20 = VERTEX_POINT ( 'NONE', #271 ) ;
#21 = VERTEX_POINT ( 'NONE', #253 ) ;
#22 = PERSON_AND_ORGANIZATION ( #26, #72 ) ;
#23 = APPLICATION_CONTEXT ( 'configuration controlled 3d designs of mechanical parts and assemblies' ) ;
#24 = CIRCLE ( 'NONE', #122, 1.500000000000001554 ) ;
#25 = AXIS2_PLACEMENT_3D ( 'NONE', #128, #193, #241 ) ;
#26 = PERSON ( 'UNSPECIFIED', 'UNSPECIFIED', 'UNSPECIFIED', ('UNSPECIFIED'), ('UNSPECIFIED'), ('UNSPECIFIED') ) ;
#27 = ORIENTED_EDGE ( 'NONE', *, *, #170, .F. ) ;
#28 = CC_DESIGN_PERSON_AND_ORGANIZATION_ASSIGNMENT ( #191, #282, ( #281 ) ) ;
#29 = ADVANCED_FACE ( 'NONE', ( #85, #174 ), #244, .F. ) ;
#30 = AXIS2_PLACEMENT_3D ( 'NONE', #88, #11, #290 ) ;
#31 = ORIENTED_EDGE ( 'NONE', *, *, #303, .F. ) ;
#32 = AXIS2_PLACEMENT_3D ( 'NONE', #168, #186, #100 ) ;
#33 = DIRECTION ( 'NONE',  ( -3.491481338843133355E-15, 1.224646799147353207E-16, -1.000000000000000000 ) ) ;
#34 = DIRECTION ( 'NONE',  ( 4.275831445896958607E-31, 1.000000000000000000, 1.224646799147353207E-16 ) ) ;
#35 = APPROVAL ( #16, 'UNSPECIFIED' ) ;
#36 = ORIENTED_EDGE ( 'NONE', *, *, #53, .T. ) ;
#37 = AXIS2_PLACEMENT_3D ( 'NONE', #208, #295, #94 ) ;
#38 = FACE_BOUND ( 'NONE', #158, .T. ) ;
#39 = DIRECTION ( 'NONE',  ( -4.275831445896958607E-31, -1.000000000000000000, -1.224646799147353207E-16 ) ) ;
#40 = ADVANCED_BREP_SHAPE_REPRESENTATION ( '327046', ( #212, #4, #25 ), #169 ) ;
#41 = COORDINATED_UNIVERSAL_TIME_OFFSET ( 1, 0, .AHEAD. ) ;
#42 = DIRECTION ( 'NONE',  ( -3.491481338843133355E-15, 1.224646799147353207E-16, -1.000000000000000000 ) ) ;
#43 = EDGE_CURVE ( 'NONE', #231, #231, #24, .T. ) ;
#44 = PERSON_AND_ORGANIZATION ( #26, #72 ) ;
#45 = DIRECTION ( 'NONE',  ( 4.275831445896958607E-31, 1.000000000000000000, 1.224646799147353454E-16 ) ) ;
#46 = DATE_TIME_ROLE ( 'classification_date' ) ;
#47 = DIRECTION ( 'NONE',  ( 0.0000000000000000000, 1.000000000000000000, 0.0000000000000000000 ) ) ;
#48 = COORDINATED_UNIVERSAL_TIME_OFFSET ( 1, 0, .AHEAD. ) ;
#49 = DATE_AND_TIME ( #230, #302 ) ;
#50 = VERTEX_POINT ( 'NONE', #123 ) ;
#51 = EDGE_CURVE ( 'NONE', #20, #20, #19, .T. ) ;
#52 = DIRECTION ( 'NONE',  ( -4.275831445896958607E-31, -1.000000000000000000, -1.224646799147353207E-16 ) ) ;
#53 = EDGE_CURVE ( 'NONE', #17, #17, #114, .T. ) ;
#54 =( LENGTH_UNIT ( ) NAMED_UNIT ( * ) SI_UNIT ( .MILLI., .METRE. ) );
#55 = AXIS2_PLACEMENT_3D ( 'NONE', #76, #272, #52 ) ;
#56 = EDGE_LOOP ( 'NONE', ( #223 ) ) ;
#57 = EDGE_LOOP ( 'NONE', ( #31 ) ) ;
#58 = AXIS2_PLACEMENT_3D ( 'NONE', #64, #68, #247 ) ;
#59 = CARTESIAN_POINT ( 'NONE',  ( 1.735266225405037467E-13, -6.086494591762345225E-15, 49.70000000000000284 ) ) ;
#60 = AXIS2_PLACEMENT_3D ( 'NONE', #209, #300, #124 ) ;
#61 = ORIENTED_EDGE ( 'NONE', *, *, #149, .F. ) ;
#62 = CC_DESIGN_DATE_AND_TIME_ASSIGNMENT ( #289, #221, ( #202 ) ) ;
#63 = ORIENTED_EDGE ( 'NONE', *, *, #97, .T. ) ;
#64 = CARTESIAN_POINT ( 'NONE',  ( 1.745740669421566678E-13, 8.998558695971067645E-33, 50.00000000000000000 ) ) ;
#65 = COORDINATED_UNIVERSAL_TIME_OFFSET ( 1, 0, .AHEAD. ) ;
#66 = APPROVAL_PERSON_ORGANIZATION ( #278, #250, #222 ) ;
#67 = FACE_OUTER_BOUND ( 'NONE', #259, .T. ) ;
#68 = DIRECTION ( 'NONE',  ( -3.491481338843133355E-15, 1.224646799147353207E-16, -1.000000000000000000 ) ) ;
#69 = APPLICATION_PROTOCOL_DEFINITION ( 'international standard', 'config_control_design', 1994, #23 ) ;
#70 = DIRECTION ( 'NONE',  ( -4.352384055112401065E-31, -1.000000000000000000, -1.225087200548593610E-16 ) ) ;
#71 = CONICAL_SURFACE ( 'NONE', #159, 0.8849999999999992317, 0.5235987755982922653 ) ;
#72 = ORGANIZATION ( 'UNSPECIFIED', 'UNSPECIFIED', '' ) ;
#73 =( NAMED_UNIT ( * ) SI_UNIT ( $, .STERADIAN. ) SOLID_ANGLE_UNIT ( ) );
#74 = DIRECTION ( 'NONE',  ( 4.275831445896958607E-31, 1.000000000000000000, 1.224646799147353207E-16 ) ) ;
#75 = PERSON_AND_ORGANIZATION_ROLE ( 'design_owner' ) ;
#76 = CARTESIAN_POINT ( 'NONE',  ( 2.444036937190193349E-14, 6.636437038278708146E-33, 7.000000000000000000 ) ) ;
#77 = DATE_AND_TIME ( #185, #286 ) ;
#78 = APPROVAL_DATE_TIME ( #49, #197 ) ;
#79 = APPLICATION_CONTEXT ( 'configuration controlled 3d designs of mechanical parts and assemblies' ) ;
#80 = PLANE ( 'NONE',  #55 ) ;
#81 = CIRCLE ( 'NONE', #261, 1.200000000000001732 ) ;
#82 = CARTESIAN_POINT ( 'NONE',  ( 1.745740669421566678E-13, 1.199999999999995515, 50.00000000000000000 ) ) ;
#83 = CARTESIAN_POINT ( 'NONE',  ( -5.059683546927455921E-31, 1.774698089177336189E-32, -1.449150963700676782E-16 ) ) ;
#84 = EDGE_LOOP ( 'NONE', ( #63 ) ) ;
#85 = FACE_OUTER_BOUND ( 'NONE', #173, .T. ) ;
#86 = EDGE_LOOP ( 'NONE', ( #27 ) ) ;
#87 = CARTESIAN_POINT ( 'NONE',  ( 0.0000000000000000000, 0.0000000000000000000, 0.0000000000000000000 ) ) ;
#88 = CARTESIAN_POINT ( 'NONE',  ( 8.728703347107829444E-16, -3.061616997868381785E-17, 0.2499999999999998890 ) ) ;
#89 = CC_DESIGN_APPROVAL ( #250, ( #281 ) ) ;
#90 = ADVANCED_FACE ( 'NONE', ( #38, #92 ), #71, .T. ) ;
#91 = CARTESIAN_POINT ( 'NONE',  ( 7.412395270042457333E-14, -2.599918275513463022E-15, 21.22994382807865321 ) ) ;
#92 = FACE_OUTER_BOUND ( 'NONE', #106, .T. ) ;
#93 = ADVANCED_FACE ( 'NONE', ( #67 ), #111, .T. ) ;
#94 = DIRECTION ( 'NONE',  ( 0.0000000000000000000, 1.000000000000000000, 0.0000000000000000000 ) ) ;
#95 = CIRCLE ( 'NONE', #214, 0.8850000000000000089 ) ;
#96 = CC_DESIGN_APPROVAL ( #197, ( #202 ) ) ;
#97 = EDGE_CURVE ( 'NONE', #150, #150, #104, .T. ) ;
#98 = FACE_OUTER_BOUND ( 'NONE', #195, .T. ) ;
#99 = APPROVAL_STATUS ( 'not_yet_approved' ) ;
#100 = DIRECTION ( 'NONE',  ( -4.275831445896958607E-31, -1.000000000000000000, -1.224646799147353207E-16 ) ) ;
#101 = PLANE ( 'NONE',  #32 ) ;
#102 = APPROVAL_PERSON_ORGANIZATION ( #229, #35, #296 ) ;
#103 = EDGE_LOOP ( 'NONE', ( #36 ) ) ;
#104 = CIRCLE ( 'NONE', #18, 0.7850000000000000311 ) ;
#105 = PERSON_AND_ORGANIZATION ( #26, #72 ) ;
#106 = EDGE_LOOP ( 'NONE', ( #285 ) ) ;
#107 = ORIENTED_EDGE ( 'NONE', *, *, #51, .F. ) ;
#108 = ORIENTED_EDGE ( 'NONE', *, *, #170, .T. ) ;
#109 = AXIS2_PLACEMENT_3D ( 'NONE', #201, #160, #113 ) ;
#110 = DIRECTION ( 'NONE',  ( 3.491481338843133355E-15, -1.224646799147353207E-16, 1.000000000000000000 ) ) ;
#111 = PLANE ( 'NONE',  #291 ) ;
#112 = CALENDAR_DATE ( 2021, 1, 12 ) ;
#113 = DIRECTION ( 'NONE',  ( 0.0000000000000000000, 1.000000000000000000, 0.0000000000000000000 ) ) ;
#114 = CIRCLE ( 'NONE', #233, 0.8153844939755806598 ) ;
#115 = CALENDAR_DATE ( 2021, 1, 12 ) ;
#116 = DIRECTION ( 'NONE',  ( -3.491481338843133355E-15, 1.224646799147353207E-16, -1.000000000000000000 ) ) ;
#117 = MECHANICAL_CONTEXT ( 'NONE', #79, 'mechanical' ) ;
#118 = DIRECTION ( 'NONE',  ( -3.491481338843133355E-15, 1.224646799147353207E-16, -1.000000000000000000 ) ) ;
#119 = CC_DESIGN_PERSON_AND_ORGANIZATION_ASSIGNMENT ( #167, #211, ( #202 ) ) ;
#120 = DATE_AND_TIME ( #115, #136 ) ;
#121 = CARTESIAN_POINT ( 'NONE',  ( 5.935518276033326704E-14, 0.7849999999999979217, 17.00000000000000000 ) ) ;
#122 = AXIS2_PLACEMENT_3D ( 'NONE', #59, #33, #280 ) ;
#123 = CARTESIAN_POINT ( 'NONE',  ( 2.444036937190193349E-14, 0.8849999999999992317, 7.000000000000000000 ) ) ;
#124 = DIRECTION ( 'NONE',  ( 0.0000000000000000000, 1.000000000000000000, 0.0000000000000000000 ) ) ;
#125 = PERSON_AND_ORGANIZATION_ROLE ( 'classification_officer' ) ;
#126 = ADVANCED_FACE ( 'NONE', ( #184, #179 ), #14, .T. ) ;
#127 = PRODUCT ( '327046', '327046', '', ( #117 ) ) ;
#128 = CARTESIAN_POINT ( 'NONE',  ( 0.0000000000000000000, 0.0000000000000000000, 0.0000000000000000000 ) ) ;
#129 = EDGE_LOOP ( 'NONE', ( #2 ) ) ;
#130 = CLOSED_SHELL ( 'NONE', ( #276, #205, #188, #29, #183, #232, #237, #215 ) ) ;
#131 = LOCAL_TIME ( 15, 3, 57.00000000000000000, #299 ) ;
#132 = ORIENTED_EDGE ( 'NONE', *, *, #43, .F. ) ;
#133 = CC_DESIGN_PERSON_AND_ORGANIZATION_ASSIGNMENT ( #44, #75, ( #127 ) ) ;
#134 = CC_DESIGN_PERSON_AND_ORGANIZATION_ASSIGNMENT ( #22, #125, ( #194 ) ) ;
#135 = CONICAL_SURFACE ( 'NONE', #37, 1.200000000000001732, 0.7853981633974453924 ) ;
#136 = LOCAL_TIME ( 15, 3, 57.00000000000000000, #41 ) ;
#137 = CALENDAR_DATE ( 2021, 1, 12 ) ;
#138 = CARTESIAN_POINT ( 'NONE',  ( 5.935518276033326704E-14, -2.081899558550500280E-15, 17.00000000000000000 ) ) ;
#139 = CARTESIAN_POINT ( 'NONE',  ( 2.444036937190193349E-14, 6.636437038278708146E-33, 7.000000000000000000 ) ) ;
#140 = CARTESIAN_POINT ( 'NONE',  ( 2.444036937190193349E-14, -8.572527594031473190E-16, 7.000000000000000000 ) ) ;
#141 = AXIS2_PLACEMENT_3D ( 'NONE', #91, #265, #161 ) ;
#142 = COORDINATED_UNIVERSAL_TIME_OFFSET ( 1, 0, .AHEAD. ) ;
#143 = FACE_OUTER_BOUND ( 'NONE', #284, .T. ) ;
#144 = FACE_OUTER_BOUND ( 'NONE', #238, .T. ) ;
#145 = DESIGN_CONTEXT ( 'detailed design', #23, 'design' ) ;
#146 = APPROVAL_DATE_TIME ( #120, #35 ) ;
#147 = VERTEX_POINT ( 'NONE', #235 ) ;
#148 = CC_DESIGN_PERSON_AND_ORGANIZATION_ASSIGNMENT ( #105, #171, ( #281 ) ) ;
#149 = EDGE_CURVE ( 'NONE', #187, #187, #198, .T. ) ;
#150 = VERTEX_POINT ( 'NONE', #121 ) ;
#151 = PRODUCT_DEFINITION_SHAPE ( 'NONE', 'NONE',  #202 ) ;
#152 = APPLICATION_PROTOCOL_DEFINITION ( 'international standard', 'config_control_design', 1994, #79 ) ;
#153 = EDGE_CURVE ( 'NONE', #147, #147, #236, .T. ) ;
#154 = ORIENTED_EDGE ( 'NONE', *, *, #274, .T. ) ;
#155 = ORIENTED_EDGE ( 'NONE', *, *, #153, .F. ) ;
#156 = ORIENTED_EDGE ( 'NONE', *, *, #97, .F. ) ;
#157 = DATE_AND_TIME ( #112, #175 ) ;
#158 = EDGE_LOOP ( 'NONE', ( #107 ) ) ;
#159 = AXIS2_PLACEMENT_3D ( 'NONE', #227, #10, #70 ) ;
#160 = DIRECTION ( 'NONE',  ( -3.491481338843133355E-15, 1.224646799147353207E-16, -1.000000000000000000 ) ) ;
#161 = DIRECTION ( 'NONE',  ( 0.0000000000000000000, 1.000000000000000000, 0.0000000000000000000 ) ) ;
#162 = DIRECTION ( 'NONE',  ( -3.491481338843133355E-15, 1.224646799147353207E-16, -1.000000000000000000 ) ) ;
#163 = FACE_OUTER_BOUND ( 'NONE', #84, .T. ) ;
#164 = DIRECTION ( 'NONE',  ( 3.491481338843133355E-15, -1.224646799147353207E-16, 1.000000000000000000 ) ) ;
#165 = CARTESIAN_POINT ( 'NONE',  ( 6.056776150402961829E-14, 0.8153844939755784393, 17.34729635533384240 ) ) ;
#166 = CC_DESIGN_DATE_AND_TIME_ASSIGNMENT ( #77, #46, ( #194 ) ) ;
#167 = PERSON_AND_ORGANIZATION ( #26, #72 ) ;
#168 = CARTESIAN_POINT ( 'NONE',  ( -2.529841773463727961E-31, 8.873490445886680944E-33, -7.245754818503383909E-17 ) ) ;
#169 =( GEOMETRIC_REPRESENTATION_CONTEXT ( 3 ) GLOBAL_UNCERTAINTY_ASSIGNED_CONTEXT ( ( #252 ) ) GLOBAL_UNIT_ASSIGNED_CONTEXT ( ( #54, #293, #73 ) ) REPRESENTATION_CONTEXT ( 'NONE', 'WORKASPACE' ) );
#170 = EDGE_CURVE ( 'NONE', #21, #21, #12, .T. ) ;
#171 = PERSON_AND_ORGANIZATION_ROLE ( 'creator' ) ;
#172 = CARTESIAN_POINT ( 'NONE',  ( 6.056776150402961829E-14, -2.124431095542013598E-15, 17.34729635533384240 ) ) ;
#173 = EDGE_LOOP ( 'NONE', ( #156 ) ) ;
#174 = FACE_OUTER_BOUND ( 'NONE', #103, .T. ) ;
#175 = LOCAL_TIME ( 15, 3, 57.00000000000000000, #65 ) ;
#176 = ORIENTED_EDGE ( 'NONE', *, *, #217, .T. ) ;
#177 = FACE_OUTER_BOUND ( 'NONE', #57, .T. ) ;
#178 = AXIS2_PLACEMENT_3D ( 'NONE', #243, #196, #240 ) ;
#179 = FACE_OUTER_BOUND ( 'NONE', #263, .T. ) ;
#180 = PLANE ( 'NONE',  #58 ) ;
#181 = VERTEX_POINT ( 'NONE', #82 ) ;
#182 = FACE_OUTER_BOUND ( 'NONE', #129, .T. ) ;
#183 = ADVANCED_FACE ( 'NONE', ( #294, #204 ), #239, .T. ) ;
#184 = FACE_OUTER_BOUND ( 'NONE', #256, .T. ) ;
#185 = CALENDAR_DATE ( 2021, 1, 12 ) ;
#186 = DIRECTION ( 'NONE',  ( 3.491481338843133355E-15, -1.224646799147353207E-16, 1.000000000000000000 ) ) ;
#187 = VERTEX_POINT ( 'NONE', #254 ) ;
#188 = ADVANCED_FACE ( 'NONE', ( #270, #163 ), #224, .T. ) ;
#189 = DIRECTION ( 'NONE',  ( -3.491481338843133355E-15, 1.224646799147353207E-16, -1.000000000000000000 ) ) ;
#190 = AXIS2_PLACEMENT_3D ( 'NONE', #83, #242, #34 ) ;
#191 = PERSON_AND_ORGANIZATION ( #26, #72 ) ;
#192 = EDGE_LOOP ( 'NONE', ( #283 ) ) ;
#193 = DIRECTION ( 'NONE',  ( 0.0000000000000000000, 0.0000000000000000000, 1.000000000000000000 ) ) ;
#194 = SECURITY_CLASSIFICATION ( '', '', #258 ) ;
#195 = EDGE_LOOP ( 'NONE', ( #287 ) ) ;
#196 = DIRECTION ( 'NONE',  ( -3.491481338843133355E-15, 1.224646799147353207E-16, -1.000000000000000000 ) ) ;
#197 = APPROVAL ( #99, 'UNSPECIFIED' ) ;
#198 = CIRCLE ( 'NONE', #30, 0.8849999999999992317 ) ;
#199 = CC_DESIGN_APPROVAL ( #35, ( #194 ) ) ;
#200 = ORIENTED_EDGE ( 'NONE', *, *, #153, .T. ) ;
#201 = CARTESIAN_POINT ( 'NONE',  ( 2.444036937190193349E-14, -8.572527594031473190E-16, 7.000000000000000000 ) ) ;
#202 = PRODUCT_DEFINITION ( 'UNKNOWN', '', #281, #145 ) ;
#203 = DIRECTION ( 'NONE',  ( 0.0000000000000000000, 1.000000000000000000, 0.0000000000000000000 ) ) ;
#204 = FACE_OUTER_BOUND ( 'NONE', #260, .T. ) ;
#205 = ADVANCED_FACE ( 'NONE', ( #267, #292 ), #226, .T. ) ;
#206 = DIRECTION ( 'NONE',  ( -3.491481338843133355E-15, 1.224646799147353207E-16, -1.000000000000000000 ) ) ;
#207 = PERSON_AND_ORGANIZATION ( #26, #72 ) ;
#208 = CARTESIAN_POINT ( 'NONE',  ( 1.745740669421566678E-13, -6.123233995736766085E-15, 50.00000000000000000 ) ) ;
#209 = CARTESIAN_POINT ( 'NONE',  ( 2.504511167915743751E-14, -8.784642641776459355E-16, 7.173205080756892116 ) ) ;
#210 = VERTEX_POINT ( 'NONE', #298 ) ;
#211 = PERSON_AND_ORGANIZATION_ROLE ( 'creator' ) ;
#212 = MANIFOLD_SOLID_BREP ( 'Corps-Déplacer/Copier1[1]', #130 ) ;
#213 = DIRECTION ( 'NONE',  ( 0.0000000000000000000, 1.000000000000000000, 0.0000000000000000000 ) ) ;
#214 = AXIS2_PLACEMENT_3D ( 'NONE', #140, #206, #47 ) ;
#215 = ADVANCED_FACE ( 'NONE', ( #177 ), #180, .F. ) ;
#216 = EDGE_LOOP ( 'NONE', ( #108 ) ) ;
#217 = EDGE_CURVE ( 'NONE', #50, #50, #95, .T. ) ;
#218 = AXIS2_PLACEMENT_3D ( 'NONE', #245, #162, #225 ) ;
#219 = SHAPE_DEFINITION_REPRESENTATION ( #151, #40 ) ;
#220 = EDGE_LOOP ( 'NONE', ( #154 ) ) ;
#221 = DATE_TIME_ROLE ( 'creation_date' ) ;
#222 = APPROVAL_ROLE ( '' ) ;
#223 = ORIENTED_EDGE ( 'NONE', *, *, #303, .T. ) ;
#224 = CYLINDRICAL_SURFACE ( 'NONE', #273, 0.7849999999999994760 ) ;
#225 = DIRECTION ( 'NONE',  ( 4.275831445896958607E-31, 1.000000000000000000, 1.224646799147353207E-16 ) ) ;
#226 = CONICAL_SURFACE ( 'NONE', #301, 0.7849999999999988098, 0.5235987755982943748 ) ;
#227 = CARTESIAN_POINT ( 'NONE',  ( 8.728703347107829444E-16, -3.061616997868381785E-17, 0.2499999999999998890 ) ) ;
#228 = FACE_BOUND ( 'NONE', #56, .T. ) ;
#229 = PERSON_AND_ORGANIZATION ( #26, #72 ) ;
#230 = CALENDAR_DATE ( 2021, 1, 12 ) ;
#231 = VERTEX_POINT ( 'NONE', #275 ) ;
#232 = ADVANCED_FACE ( 'NONE', ( #144, #182 ), #268, .T. ) ;
#233 = AXIS2_PLACEMENT_3D ( 'NONE', #172, #7, #246 ) ;
#234 = CARTESIAN_POINT ( 'NONE',  ( 1.745740669421566678E-13, -6.123233995736766085E-15, 50.00000000000000000 ) ) ;
#235 = CARTESIAN_POINT ( 'NONE',  ( 7.412395270042457333E-14, 1.499999999999994005, 21.22994382807865321 ) ) ;
#236 = CIRCLE ( 'NONE', #141, 1.499999999999996669 ) ;
#237 = ADVANCED_FACE ( 'NONE', ( #143, #228 ), #135, .T. ) ;
#238 = EDGE_LOOP ( 'NONE', ( #155 ) ) ;
#239 = CONICAL_SURFACE ( 'NONE', #8, 1.499999999999996669, 0.1745329251994259256 ) ;
#240 = DIRECTION ( 'NONE',  ( 4.275831445896958607E-31, 1.000000000000000000, 1.224646799147353207E-16 ) ) ;
#241 = DIRECTION ( 'NONE',  ( 1.000000000000000000, 0.0000000000000000000, 0.0000000000000000000 ) ) ;
#242 = DIRECTION ( 'NONE',  ( -3.491481338843133355E-15, 1.224646799147353207E-16, -1.000000000000000000 ) ) ;
#243 = CARTESIAN_POINT ( 'NONE',  ( 5.935518276033326704E-14, -2.168404344971008868E-15, 17.00000000000000000 ) ) ;
#244 = TOROIDAL_SURFACE ( 'NONE', #178, 2.785000000000000142, 2.000000000000000000 ) ;
#245 = CARTESIAN_POINT ( 'NONE',  ( 0.0000000000000000000, 0.0000000000000000000, 0.0000000000000000000 ) ) ;
#246 = DIRECTION ( 'NONE',  ( 0.0000000000000000000, 1.000000000000000000, 0.0000000000000000000 ) ) ;
#247 = DIRECTION ( 'NONE',  ( 4.275831445896958607E-31, 1.000000000000000000, 1.224646799147353207E-16 ) ) ;
#248 = APPROVAL_ROLE ( '' ) ;
#249 = DIRECTION ( 'NONE',  ( -3.491481338843133355E-15, 1.224646799147353207E-16, -1.000000000000000000 ) ) ;
#250 = APPROVAL ( #257, 'UNSPECIFIED' ) ;
#251 = CARTESIAN_POINT ( 'NONE',  ( 2.504511167915743751E-14, -8.784642641776459355E-16, 7.173205080756892116 ) ) ;
#252 = UNCERTAINTY_MEASURE_WITH_UNIT (LENGTH_MEASURE( 1.000000000000000082E-05 ), #54, 'distance_accuracy_value', 'NONE');
#253 = CARTESIAN_POINT ( 'NONE',  ( 2.444036937190193349E-14, 0.8849999999999992317, 7.000000000000000000 ) ) ;
#254 = CARTESIAN_POINT ( 'NONE',  ( 8.728703347107833388E-16, 0.8849999999999992317, 0.2500000000000000000 ) ) ;
#255 = CIRCLE ( 'NONE', #60, 0.7849999999999988098 ) ;
#256 = EDGE_LOOP ( 'NONE', ( #61 ) ) ;
#257 = APPROVAL_STATUS ( 'not_yet_approved' ) ;
#258 = SECURITY_CLASSIFICATION_LEVEL ( 'unclassified' ) ;
#259 = EDGE_LOOP ( 'NONE', ( #5 ) ) ;
#260 = EDGE_LOOP ( 'NONE', ( #200 ) ) ;
#261 = AXIS2_PLACEMENT_3D ( 'NONE', #234, #189, #213 ) ;
#262 = ORIENTED_EDGE ( 'NONE', *, *, #53, .F. ) ;
#263 = EDGE_LOOP ( 'NONE', ( #176 ) ) ;
#264 = DIRECTION ( 'NONE',  ( 0.0000000000000000000, 1.000000000000000000, 0.0000000000000000000 ) ) ;
#265 = DIRECTION ( 'NONE',  ( -3.491481338843133355E-15, 1.224646799147353207E-16, -1.000000000000000000 ) ) ;
#266 = APPROVAL_DATE_TIME ( #157, #250 ) ;
#267 = FACE_OUTER_BOUND ( 'NONE', #86, .T. ) ;
#268 = CYLINDRICAL_SURFACE ( 'NONE', #269, 1.499999999999999112 ) ;
#269 = AXIS2_PLACEMENT_3D ( 'NONE', #9, #249, #45 ) ;
#270 = FACE_OUTER_BOUND ( 'NONE', #192, .T. ) ;
#271 = CARTESIAN_POINT ( 'NONE',  ( -1.892735826383160919E-31, 0.7406624327025949084, -5.421010862427520937E-17 ) ) ;
#272 = DIRECTION ( 'NONE',  ( 3.491481338843133355E-15, -1.224646799147353207E-16, 1.000000000000000000 ) ) ;
#273 = AXIS2_PLACEMENT_3D ( 'NONE', #87, #42, #74 ) ;
#274 = EDGE_CURVE ( 'NONE', #210, #210, #255, .T. ) ;
#275 = CARTESIAN_POINT ( 'NONE',  ( 1.735266225405037467E-13, 1.499999999999995559, 49.70000000000000284 ) ) ;
#276 = ADVANCED_FACE ( 'NONE', ( #297 ), #80, .F. ) ;
#277 = PRODUCT_RELATED_PRODUCT_CATEGORY ( 'detail', '', ( #127 ) ) ;
#278 = PERSON_AND_ORGANIZATION ( #26, #72 ) ;
#279 = ADVANCED_FACE ( 'NONE', ( #98 ), #101, .F. ) ;
#280 = DIRECTION ( 'NONE',  ( 0.0000000000000000000, 1.000000000000000000, 0.0000000000000000000 ) ) ;
#281 = PRODUCT_DEFINITION_FORMATION_WITH_SPECIFIED_SOURCE ( 'ANY', '', #127, .NOT_KNOWN. ) ;
#282 = PERSON_AND_ORGANIZATION_ROLE ( 'design_supplier' ) ;
#283 = ORIENTED_EDGE ( 'NONE', *, *, #274, .F. ) ;
#284 = EDGE_LOOP ( 'NONE', ( #132 ) ) ;
#285 = ORIENTED_EDGE ( 'NONE', *, *, #149, .T. ) ;
#286 = LOCAL_TIME ( 15, 3, 57.00000000000000000, #48 ) ;
#287 = ORIENTED_EDGE ( 'NONE', *, *, #51, .T. ) ;
#288 = DIRECTION ( 'NONE',  ( 0.0000000000000000000, -1.000000000000000000, 0.0000000000000000000 ) ) ;
#289 = DATE_AND_TIME ( #137, #131 ) ;
#290 = DIRECTION ( 'NONE',  ( 4.352384055112401065E-31, 1.000000000000000000, 1.225087200548593610E-16 ) ) ;
#291 = AXIS2_PLACEMENT_3D ( 'NONE', #139, #164, #39 ) ;
#292 = FACE_BOUND ( 'NONE', #220, .T. ) ;
#293 =( NAMED_UNIT ( * ) PLANE_ANGLE_UNIT ( ) SI_UNIT ( $, .RADIAN. ) );
#294 = FACE_BOUND ( 'NONE', #6, .T. ) ;
#295 = DIRECTION ( 'NONE',  ( -3.491481338843133355E-15, 1.224646799147353207E-16, -1.000000000000000000 ) ) ;
#296 = APPROVAL_ROLE ( '' ) ;
#297 = FACE_OUTER_BOUND ( 'NONE', #216, .T. ) ;
#298 = CARTESIAN_POINT ( 'NONE',  ( 2.504511167915743751E-14, 0.7849999999999979217, 7.173205080756892116 ) ) ;
#299 = COORDINATED_UNIVERSAL_TIME_OFFSET ( 1, 0, .AHEAD. ) ;
#300 = DIRECTION ( 'NONE',  ( -3.491481338843133355E-15, 1.224646799147353207E-16, -1.000000000000000000 ) ) ;
#301 = AXIS2_PLACEMENT_3D ( 'NONE', #251, #118, #264 ) ;
#302 = LOCAL_TIME ( 15, 3, 57.00000000000000000, #142 ) ;
#303 = EDGE_CURVE ( 'NONE', #181, #181, #81, .T. ) ;
ENDSEC;
END-ISO-10303-21;
