ISO-10303-21;
HEADER;
FILE_DESCRIPTION (( 'STEP AP203' ),
    '1' );
FILE_NAME ('327045.step',
    '2021-12-01T14:03:56',
    ( '' ),
    ( '' ),
    'SwSTEP 2.0',
    'SolidWorks 2019',
    '' );
FILE_SCHEMA (( 'CONFIG_CONTROL_DESIGN' ));
ENDSEC;

DATA;
#1 = AXIS2_PLACEMENT_3D ( 'NONE', #186, #39, #166 ) ;
#2 = CIRCLE ( 'NONE', #14, 1.200000000000001732 ) ;
#3 = DIRECTION ( 'NONE',  ( 3.491481338843133355E-15, -1.224646799147353207E-16, 1.000000000000000000 ) ) ;
#4 = EDGE_CURVE ( 'NONE', #75, #75, #161, .T. ) ;
#5 = FACE_OUTER_BOUND ( 'NONE', #274, .T. ) ;
#6 = PLANE ( 'NONE',  #299 ) ;
#7 = DIRECTION ( 'NONE',  ( -3.491481338843133355E-15, 1.224646799147353207E-16, -1.000000000000000000 ) ) ;
#8 = AXIS2_PLACEMENT_3D ( 'NONE', #168, #44, #143 ) ;
#9 = APPLICATION_PROTOCOL_DEFINITION ( 'international standard', 'config_control_design', 1994, #266 ) ;
#10 = CARTESIAN_POINT ( 'NONE',  ( 0.0000000000000000000, 0.0000000000000000000, 0.0000000000000000000 ) ) ;
#11 = PERSON ( 'UNSPECIFIED', 'UNSPECIFIED', 'UNSPECIFIED', ('UNSPECIFIED'), ('UNSPECIFIED'), ('UNSPECIFIED') ) ;
#12 = ADVANCED_FACE ( 'NONE', ( #212 ), #19, .F. ) ;
#13 = DATE_AND_TIME ( #290, #18 ) ;
#14 = AXIS2_PLACEMENT_3D ( 'NONE', #115, #142, #93 ) ;
#15 = APPROVAL_STATUS ( 'not_yet_approved' ) ;
#16 = COORDINATED_UNIVERSAL_TIME_OFFSET ( 1, 0, .AHEAD. ) ;
#17 = EDGE_LOOP ( 'NONE', ( #126 ) ) ;
#18 = LOCAL_TIME ( 15, 3, 56.00000000000000000, #273 ) ;
#19 = PLANE ( 'NONE',  #232 ) ;
#20 = DIRECTION ( 'NONE',  ( -3.491481338843133355E-15, 1.224646799147353207E-16, -1.000000000000000000 ) ) ;
#21 = EDGE_LOOP ( 'NONE', ( #220 ) ) ;
#22 = LOCAL_TIME ( 15, 3, 56.00000000000000000, #178 ) ;
#23 = FACE_OUTER_BOUND ( 'NONE', #84, .T. ) ;
#24 = DIRECTION ( 'NONE',  ( -3.491481338843133355E-15, 1.224646799147353207E-16, -1.000000000000000000 ) ) ;
#25 = CARTESIAN_POINT ( 'NONE',  ( 7.422295857362715766E-14, 1.499999999999994005, 21.25830023717674422 ) ) ;
#26 = EDGE_CURVE ( 'NONE', #267, #267, #188, .T. ) ;
#27 = ADVANCED_FACE ( 'NONE', ( #276, #165 ), #223, .T. ) ;
#28 = DIRECTION ( 'NONE',  ( 0.0000000000000000000, 1.000000000000000000, 0.0000000000000000000 ) ) ;
#29 = DIRECTION ( 'NONE',  ( -3.491481338843133355E-15, 1.224646799147353207E-16, -1.000000000000000000 ) ) ;
#30 = CARTESIAN_POINT ( 'NONE',  ( 8.728703347107833388E-16, 0.8799999999999991163, 0.2500000000000000000 ) ) ;
#31 = APPROVAL_PERSON_ORGANIZATION ( #202, #41, #162 ) ;
#32 = ORIENTED_EDGE ( 'NONE', *, *, #43, .T. ) ;
#33 = EDGE_LOOP ( 'NONE', ( #90 ) ) ;
#34 = CLOSED_SHELL ( 'NONE', ( #167, #119, #89, #228 ) ) ;
#35 = AXIS2_PLACEMENT_3D ( 'NONE', #264, #29, #28 ) ;
#36 = PERSON_AND_ORGANIZATION ( #11, #201 ) ;
#37 = EDGE_LOOP ( 'NONE', ( #110 ) ) ;
#38 = EDGE_LOOP ( 'NONE', ( #135 ) ) ;
#39 = DIRECTION ( 'NONE',  ( -3.491481338843133355E-15, 1.224646799147353207E-16, -1.000000000000000000 ) ) ;
#40 = AXIS2_PLACEMENT_3D ( 'NONE', #10, #56, #83 ) ;
#41 = APPROVAL ( #102, 'UNSPECIFIED' ) ;
#42 = DIRECTION ( 'NONE',  ( 4.275831445896958607E-31, 1.000000000000000000, 1.224646799147353207E-16 ) ) ;
#43 = EDGE_CURVE ( 'NONE', #53, #53, #258, .T. ) ;
#44 = DIRECTION ( 'NONE',  ( 3.491481338843133355E-15, -1.224646799147353207E-16, 1.000000000000000000 ) ) ;
#45 = DIRECTION ( 'NONE',  ( -3.491481338843133355E-15, 1.224646799147353207E-16, -1.000000000000000000 ) ) ;
#46 = CC_DESIGN_PERSON_AND_ORGANIZATION_ASSIGNMENT ( #125, #246, ( #154 ) ) ;
#47 = AXIS2_PLACEMENT_3D ( 'NONE', #172, #175, #49 ) ;
#48 = DIRECTION ( 'NONE',  ( 4.275831445896958607E-31, 1.000000000000000000, 1.224646799147353207E-16 ) ) ;
#49 = DIRECTION ( 'NONE',  ( 4.275831445896958607E-31, 1.000000000000000000, 1.224646799147353207E-16 ) ) ;
#50 = VERTEX_POINT ( 'NONE', #30 ) ;
#51 = CIRCLE ( 'NONE', #278, 0.8800000000000000044 ) ;
#52 = DIRECTION ( 'NONE',  ( -4.275831445896958607E-31, -1.000000000000000000, -1.224646799147353207E-16 ) ) ;
#53 = VERTEX_POINT ( 'NONE', #288 ) ;
#54 = EDGE_CURVE ( 'NONE', #240, #240, #247, .T. ) ;
#55 = VERTEX_POINT ( 'NONE', #153 ) ;
#56 = DIRECTION ( 'NONE',  ( 0.0000000000000000000, 0.0000000000000000000, 1.000000000000000000 ) ) ;
#57 = AXIS2_PLACEMENT_3D ( 'NONE', #94, #296, #192 ) ;
#58 = EDGE_LOOP ( 'NONE', ( #87 ) ) ;
#59 = DATE_AND_TIME ( #219, #74 ) ;
#60 = EDGE_LOOP ( 'NONE', ( #146 ) ) ;
#61 = PERSON_AND_ORGANIZATION_ROLE ( 'creator' ) ;
#62 = ORIENTED_EDGE ( 'NONE', *, *, #261, .F. ) ;
#63 = APPROVAL_DATE_TIME ( #182, #210 ) ;
#64 = EDGE_LOOP ( 'NONE', ( #231 ) ) ;
#65 = DIRECTION ( 'NONE',  ( 0.0000000000000000000, 1.000000000000000000, 0.0000000000000000000 ) ) ;
#66 = DIRECTION ( 'NONE',  ( 0.0000000000000000000, 1.000000000000000000, 0.0000000000000000000 ) ) ;
#67 = DIRECTION ( 'NONE',  ( -3.491481338843133355E-15, 1.224646799147353207E-16, -1.000000000000000000 ) ) ;
#68 = DIRECTION ( 'NONE',  ( 3.491481338843133355E-15, -1.224646799147353207E-16, 1.000000000000000000 ) ) ;
#69 = VERTEX_POINT ( 'NONE', #286 ) ;
#70 = PLANE ( 'NONE',  #295 ) ;
#71 = MANIFOLD_SOLID_BREP ( 'Corps-Déplacer/Copier1[1]', #270 ) ;
#72 = CARTESIAN_POINT ( 'NONE',  ( -1.572784281657405035E-31, 5.516584650912685937E-33, -4.504633217310939678E-17 ) ) ;
#73 = AXIS2_PLACEMENT_3D ( 'NONE', #254, #207, #65 ) ;
#74 = LOCAL_TIME ( 15, 3, 56.00000000000000000, #81 ) ;
#75 = VERTEX_POINT ( 'NONE', #174 ) ;
#76 = MANIFOLD_SOLID_BREP ( 'Corps-Déplacer/Copier1[2]', #34 ) ;
#77 = DIRECTION ( 'NONE',  ( -3.491481338843133355E-15, 1.224646799147353207E-16, -1.000000000000000000 ) ) ;
#78 = DATE_AND_TIME ( #197, #130 ) ;
#79 = CONICAL_SURFACE ( 'NONE', #217, 0.7799999999999988054, 0.5235987755982943748 ) ;
#80 = ORIENTED_EDGE ( 'NONE', *, *, #4, .F. ) ;
#81 = COORDINATED_UNIVERSAL_TIME_OFFSET ( 1, 0, .AHEAD. ) ;
#82 = ORIENTED_EDGE ( 'NONE', *, *, #54, .F. ) ;
#83 = DIRECTION ( 'NONE',  ( 1.000000000000000000, 0.0000000000000000000, 0.0000000000000000000 ) ) ;
#84 = EDGE_LOOP ( 'NONE', ( #259 ) ) ;
#85 = ADVANCED_FACE ( 'NONE', ( #281 ), #230, .F. ) ;
#86 = CALENDAR_DATE ( 2021, 1, 12 ) ;
#87 = ORIENTED_EDGE ( 'NONE', *, *, #155, .F. ) ;
#88 = TOROIDAL_SURFACE ( 'NONE', #47, 2.779999999999999805, 2.000000000000000888 ) ;
#89 = ADVANCED_FACE ( 'NONE', ( #23, #138 ), #255, .T. ) ;
#90 = ORIENTED_EDGE ( 'NONE', *, *, #203, .T. ) ;
#91 = EDGE_LOOP ( 'NONE', ( #225 ) ) ;
#92 = AXIS2_PLACEMENT_3D ( 'NONE', #164, #280, #109 ) ;
#93 = DIRECTION ( 'NONE',  ( 0.0000000000000000000, 1.000000000000000000, 0.0000000000000000000 ) ) ;
#94 = CARTESIAN_POINT ( 'NONE',  ( 0.0000000000000000000, 0.0000000000000000000, 0.0000000000000000000 ) ) ;
#95 = CARTESIAN_POINT ( 'NONE',  ( 2.444036937190193349E-14, 0.8799999999999991163, 7.000000000000000000 ) ) ;
#96 = FACE_OUTER_BOUND ( 'NONE', #21, .T. ) ;
#97 = DIRECTION ( 'NONE',  ( -3.491481338843133355E-15, 1.224646799147353207E-16, -1.000000000000000000 ) ) ;
#98 = CARTESIAN_POINT ( 'NONE',  ( 0.0000000000000000000, 0.0000000000000000000, 0.0000000000000000000 ) ) ;
#99 = AXIS2_PLACEMENT_3D ( 'NONE', #214, #123, #218 ) ;
#100 = FACE_OUTER_BOUND ( 'NONE', #204, .T. ) ;
#101 = COORDINATED_UNIVERSAL_TIME_OFFSET ( 1, 0, .AHEAD. ) ;
#102 = APPROVAL_STATUS ( 'not_yet_approved' ) ;
#103 = AXIS2_PLACEMENT_3D ( 'NONE', #216, #7, #215 ) ;
#104 = PERSON_AND_ORGANIZATION ( #11, #201 ) ;
#105 =( NAMED_UNIT ( * ) SI_UNIT ( $, .STERADIAN. ) SOLID_ANGLE_UNIT ( ) );
#106 = EDGE_LOOP ( 'NONE', ( #82 ) ) ;
#107 = ADVANCED_FACE ( 'NONE', ( #208, #253 ), #300, .T. ) ;
#108 = DIRECTION ( 'NONE',  ( 4.275831445896958607E-31, 1.000000000000000000, 1.224646799147353207E-16 ) ) ;
#109 = DIRECTION ( 'NONE',  ( 0.0000000000000000000, -1.000000000000000000, 0.0000000000000000000 ) ) ;
#110 = ORIENTED_EDGE ( 'NONE', *, *, #203, .F. ) ;
#111 = AXIS2_PLACEMENT_3D ( 'NONE', #298, #20, #66 ) ;
#112 = CIRCLE ( 'NONE', #275, 0.7356624327025949039 ) ;
#113 = CC_DESIGN_PERSON_AND_ORGANIZATION_ASSIGNMENT ( #104, #134, ( #137 ) ) ;
#114 = CARTESIAN_POINT ( 'NONE',  ( 1.745740669421566678E-13, 8.998558695971067645E-33, 50.00000000000000000 ) ) ;
#115 = CARTESIAN_POINT ( 'NONE',  ( 1.745740669421566678E-13, -6.123233995736766085E-15, 50.00000000000000000 ) ) ;
#116 = CARTESIAN_POINT ( 'NONE',  ( 1.735266225405037467E-13, 1.499999999999995559, 49.70000000000000284 ) ) ;
#117 = AXIS2_PLACEMENT_3D ( 'NONE', #98, #77, #151 ) ;
#118 = CARTESIAN_POINT ( 'NONE',  ( 1.745740669421566678E-13, -6.123233995736766085E-15, 50.00000000000000000 ) ) ;
#119 = ADVANCED_FACE ( 'NONE', ( #283, #189 ), #139, .T. ) ;
#120 = CC_DESIGN_PERSON_AND_ORGANIZATION_ASSIGNMENT ( #129, #127, ( #183 ) ) ;
#121 = FACE_OUTER_BOUND ( 'NONE', #157, .T. ) ;
#122 = CC_DESIGN_SECURITY_CLASSIFICATION ( #154, ( #183 ) ) ;
#123 = DIRECTION ( 'NONE',  ( -3.491481338843133355E-15, 1.224646799147353207E-16, -1.000000000000000000 ) ) ;
#124 = PRODUCT_DEFINITION_SHAPE ( 'NONE', 'NONE',  #187 ) ;
#125 = PERSON_AND_ORGANIZATION ( #11, #201 ) ;
#126 = ORIENTED_EDGE ( 'NONE', *, *, #131, .F. ) ;
#127 = PERSON_AND_ORGANIZATION_ROLE ( 'design_supplier' ) ;
#128 = EDGE_LOOP ( 'NONE', ( #133 ) ) ;
#129 = PERSON_AND_ORGANIZATION ( #11, #201 ) ;
#130 = LOCAL_TIME ( 15, 3, 56.00000000000000000, #101 ) ;
#131 = EDGE_CURVE ( 'NONE', #55, #55, #2, .T. ) ;
#132 = APPROVAL_STATUS ( 'not_yet_approved' ) ;
#133 = ORIENTED_EDGE ( 'NONE', *, *, #261, .T. ) ;
#134 = PERSON_AND_ORGANIZATION_ROLE ( 'design_owner' ) ;
#135 = ORIENTED_EDGE ( 'NONE', *, *, #43, .F. ) ;
#136 = DESIGN_CONTEXT ( 'detailed design', #266, 'design' ) ;
#137 = PRODUCT ( '327045', '327045', '', ( #249 ) ) ;
#138 = FACE_OUTER_BOUND ( 'NONE', #128, .T. ) ;
#139 = CONICAL_SURFACE ( 'NONE', #8, 0.8799999999999991163, 0.5235987755982923764 ) ;
#140 = ADVANCED_FACE ( 'NONE', ( #303, #229 ), #79, .T. ) ;
#141 = CC_DESIGN_DATE_AND_TIME_ASSIGNMENT ( #293, #289, ( #187 ) ) ;
#142 = DIRECTION ( 'NONE',  ( -3.491481338843133355E-15, 1.224646799147353207E-16, -1.000000000000000000 ) ) ;
#143 = DIRECTION ( 'NONE',  ( -4.377113509970994556E-31, -1.000000000000000000, -1.232047923278983432E-16 ) ) ;
#144 = FACE_OUTER_BOUND ( 'NONE', #60, .T. ) ;
#145 = CIRCLE ( 'NONE', #99, 0.8800000000000000044 ) ;
#146 = ORIENTED_EDGE ( 'NONE', *, *, #155, .T. ) ;
#147 = PRODUCT_RELATED_PRODUCT_CATEGORY ( 'detail', '', ( #137 ) ) ;
#148 = CARTESIAN_POINT ( 'NONE',  ( 2.444036937190193349E-14, -8.572527594031473190E-16, 7.000000000000000000 ) ) ;
#149 = VERTEX_POINT ( 'NONE', #95 ) ;
#150 = AXIS2_PLACEMENT_3D ( 'NONE', #118, #97, #287 ) ;
#151 = DIRECTION ( 'NONE',  ( 4.275831445896958607E-31, 1.000000000000000000, 1.224646799147353207E-16 ) ) ;
#152 = CARTESIAN_POINT ( 'NONE',  ( 6.056776150402963091E-14, 0.8103844939755769916, 17.34729635533384595 ) ) ;
#153 = CARTESIAN_POINT ( 'NONE',  ( 1.745740669421566678E-13, 1.199999999999995515, 50.00000000000000000 ) ) ;
#154 = SECURITY_CLASSIFICATION ( '', '', #251 ) ;
#155 = EDGE_CURVE ( 'NONE', #69, #69, #112, .T. ) ;
#156 = APPROVAL_DATE_TIME ( #13, #41 ) ;
#157 = EDGE_LOOP ( 'NONE', ( #62 ) ) ;
#158 = ORIENTED_EDGE ( 'NONE', *, *, #131, .T. ) ;
#159 = CALENDAR_DATE ( 2021, 1, 12 ) ;
#160 = ORIENTED_EDGE ( 'NONE', *, *, #4, .T. ) ;
#161 = CIRCLE ( 'NONE', #1, 0.7799999999999998046 ) ;
#162 = APPROVAL_ROLE ( '' ) ;
#163 = PERSON_AND_ORGANIZATION ( #11, #201 ) ;
#164 = CARTESIAN_POINT ( 'NONE',  ( 7.422295857362715766E-14, -2.603390934077191811E-15, 21.25830023717674422 ) ) ;
#165 = FACE_OUTER_BOUND ( 'NONE', #91, .T. ) ;
#166 = DIRECTION ( 'NONE',  ( 0.0000000000000000000, 1.000000000000000000, 0.0000000000000000000 ) ) ;
#167 = ADVANCED_FACE ( 'NONE', ( #144 ), #70, .F. ) ;
#168 = CARTESIAN_POINT ( 'NONE',  ( 8.728703347107829444E-16, -3.061616997868381785E-17, 0.2499999999999998890 ) ) ;
#169 = CARTESIAN_POINT ( 'NONE',  ( 2.444036937190193349E-14, 6.598943043712161432E-33, 7.000000000000000000 ) ) ;
#170 = CYLINDRICAL_SURFACE ( 'NONE', #117, 0.7799999999999992495 ) ;
#171 = DIRECTION ( 'NONE',  ( -3.491481338843133355E-15, 1.224646799147353207E-16, -1.000000000000000000 ) ) ;
#172 = CARTESIAN_POINT ( 'NONE',  ( 5.935518276033326704E-14, -2.168404344971008868E-15, 17.00000000000000000 ) ) ;
#173 =( GEOMETRIC_REPRESENTATION_CONTEXT ( 3 ) GLOBAL_UNCERTAINTY_ASSIGNED_CONTEXT ( ( #252 ) ) GLOBAL_UNIT_ASSIGNED_CONTEXT ( ( #238, #194, #105 ) ) REPRESENTATION_CONTEXT ( 'NONE', 'WORKASPACE' ) );
#174 = CARTESIAN_POINT ( 'NONE',  ( 5.935518276033326704E-14, 0.7799999999999976952, 17.00000000000000000 ) ) ;
#175 = DIRECTION ( 'NONE',  ( -3.491481338843133355E-15, 1.224646799147353207E-16, -1.000000000000000000 ) ) ;
#176 = ADVANCED_BREP_SHAPE_REPRESENTATION ( '327045', ( #71, #76, #40 ), #173 ) ;
#177 = LOCAL_TIME ( 15, 3, 56.00000000000000000, #16 ) ;
#178 = COORDINATED_UNIVERSAL_TIME_OFFSET ( 1, 0, .AHEAD. ) ;
#179 = PERSON_AND_ORGANIZATION ( #11, #201 ) ;
#180 = ORIENTED_EDGE ( 'NONE', *, *, #297, .F. ) ;
#181 = AXIS2_PLACEMENT_3D ( 'NONE', #234, #24, #42 ) ;
#182 = DATE_AND_TIME ( #86, #177 ) ;
#183 = PRODUCT_DEFINITION_FORMATION_WITH_SPECIFIED_SOURCE ( 'ANY', '', #137, .NOT_KNOWN. ) ;
#184 = EDGE_LOOP ( 'NONE', ( #245 ) ) ;
#185 = CARTESIAN_POINT ( 'NONE',  ( -3.145568563314810070E-31, 1.103316930182537187E-32, -9.009266434621879356E-17 ) ) ;
#186 = CARTESIAN_POINT ( 'NONE',  ( 5.935518276033326704E-14, -2.081899558550500280E-15, 17.00000000000000000 ) ) ;
#187 = PRODUCT_DEFINITION ( 'UNKNOWN', '', #183, #136 ) ;
#188 = CIRCLE ( 'NONE', #200, 1.499999999999996669 ) ;
#189 = FACE_OUTER_BOUND ( 'NONE', #64, .T. ) ;
#190 = CIRCLE ( 'NONE', #35, 1.500000000000001554 ) ;
#191 = CARTESIAN_POINT ( 'NONE',  ( 2.504511167915743751E-14, -8.784642641776459355E-16, 7.173205080756892116 ) ) ;
#192 = DIRECTION ( 'NONE',  ( 4.275831445896958607E-31, 1.000000000000000000, 1.224646799147353454E-16 ) ) ;
#193 = FACE_BOUND ( 'NONE', #294, .T. ) ;
#194 =( NAMED_UNIT ( * ) PLANE_ANGLE_UNIT ( ) SI_UNIT ( $, .RADIAN. ) );
#195 = CARTESIAN_POINT ( 'NONE',  ( 2.444036937190193349E-14, 6.598943043712161432E-33, 7.000000000000000000 ) ) ;
#196 = AXIS2_PLACEMENT_3D ( 'NONE', #114, #206, #108 ) ;
#197 = CALENDAR_DATE ( 2021, 1, 12 ) ;
#198 = CC_DESIGN_PERSON_AND_ORGANIZATION_ASSIGNMENT ( #163, #244, ( #183 ) ) ;
#199 = APPROVAL_DATE_TIME ( #59, #279 ) ;
#200 = AXIS2_PLACEMENT_3D ( 'NONE', #277, #211, #233 ) ;
#201 = ORGANIZATION ( 'UNSPECIFIED', 'UNSPECIFIED', '' ) ;
#202 = PERSON_AND_ORGANIZATION ( #11, #201 ) ;
#203 = EDGE_CURVE ( 'NONE', #241, #241, #190, .T. ) ;
#204 = EDGE_LOOP ( 'NONE', ( #80 ) ) ;
#205 = CC_DESIGN_APPROVAL ( #210, ( #183 ) ) ;
#206 = DIRECTION ( 'NONE',  ( -3.491481338843133355E-15, 1.224646799147353207E-16, -1.000000000000000000 ) ) ;
#207 = DIRECTION ( 'NONE',  ( -3.491481338843133355E-15, 1.224646799147353207E-16, -1.000000000000000000 ) ) ;
#208 = FACE_OUTER_BOUND ( 'NONE', #222, .T. ) ;
#209 = APPROVAL_PERSON_ORGANIZATION ( #36, #210, #226 ) ;
#210 = APPROVAL ( #132, 'UNSPECIFIED' ) ;
#211 = DIRECTION ( 'NONE',  ( -3.491481338843133355E-15, 1.224646799147353207E-16, -1.000000000000000000 ) ) ;
#212 = FACE_OUTER_BOUND ( 'NONE', #184, .T. ) ;
#213 = CARTESIAN_POINT ( 'NONE',  ( 2.444036937190193349E-14, 0.8799999999999991163, 7.000000000000000000 ) ) ;
#214 = CARTESIAN_POINT ( 'NONE',  ( 2.444036937190193349E-14, -8.572527594031473190E-16, 7.000000000000000000 ) ) ;
#215 = DIRECTION ( 'NONE',  ( 4.377113509970994556E-31, 1.000000000000000000, 1.232047923278983432E-16 ) ) ;
#216 = CARTESIAN_POINT ( 'NONE',  ( 8.728703347107829444E-16, -3.061616997868381785E-17, 0.2499999999999998890 ) ) ;
#217 = AXIS2_PLACEMENT_3D ( 'NONE', #191, #67, #256 ) ;
#218 = DIRECTION ( 'NONE',  ( 0.0000000000000000000, 1.000000000000000000, 0.0000000000000000000 ) ) ;
#219 = CALENDAR_DATE ( 2021, 1, 12 ) ;
#220 = ORIENTED_EDGE ( 'NONE', *, *, #54, .T. ) ;
#221 = APPLICATION_PROTOCOL_DEFINITION ( 'international standard', 'config_control_design', 1994, #257 ) ;
#222 = EDGE_LOOP ( 'NONE', ( #227 ) ) ;
#223 = CONICAL_SURFACE ( 'NONE', #92, 1.499999999999996669, 0.1745329251994263420 ) ;
#224 = DATE_TIME_ROLE ( 'classification_date' ) ;
#225 = ORIENTED_EDGE ( 'NONE', *, *, #26, .T. ) ;
#226 = APPROVAL_ROLE ( '' ) ;
#227 = ORIENTED_EDGE ( 'NONE', *, *, #26, .F. ) ;
#228 = ADVANCED_FACE ( 'NONE', ( #121 ), #6, .T. ) ;
#229 = FACE_BOUND ( 'NONE', #272, .T. ) ;
#230 = PLANE ( 'NONE',  #196 ) ;
#231 = ORIENTED_EDGE ( 'NONE', *, *, #250, .T. ) ;
#232 = AXIS2_PLACEMENT_3D ( 'NONE', #169, #68, #302 ) ;
#233 = DIRECTION ( 'NONE',  ( 0.0000000000000000000, 1.000000000000000000, 0.0000000000000000000 ) ) ;
#234 = CARTESIAN_POINT ( 'NONE',  ( 0.0000000000000000000, 0.0000000000000000000, 0.0000000000000000000 ) ) ;
#235 = FACE_OUTER_BOUND ( 'NONE', #38, .T. ) ;
#236 = CC_DESIGN_DATE_AND_TIME_ASSIGNMENT ( #78, #224, ( #154 ) ) ;
#237 = CC_DESIGN_PERSON_AND_ORGANIZATION_ASSIGNMENT ( #179, #61, ( #187 ) ) ;
#238 =( LENGTH_UNIT ( ) NAMED_UNIT ( * ) SI_UNIT ( .MILLI., .METRE. ) );
#239 = FACE_OUTER_BOUND ( 'NONE', #37, .T. ) ;
#240 = VERTEX_POINT ( 'NONE', #152 ) ;
#241 = VERTEX_POINT ( 'NONE', #116 ) ;
#242 = CIRCLE ( 'NONE', #103, 0.8799999999999991163 ) ;
#243 = APPROVAL_ROLE ( '' ) ;
#244 = PERSON_AND_ORGANIZATION_ROLE ( 'creator' ) ;
#245 = ORIENTED_EDGE ( 'NONE', *, *, #297, .T. ) ;
#246 = PERSON_AND_ORGANIZATION_ROLE ( 'classification_officer' ) ;
#247 = CIRCLE ( 'NONE', #111, 0.8103844939755791010 ) ;
#248 = CONICAL_SURFACE ( 'NONE', #150, 1.200000000000001732, 0.7853981633974453924 ) ;
#249 = MECHANICAL_CONTEXT ( 'NONE', #257, 'mechanical' ) ;
#250 = EDGE_CURVE ( 'NONE', #50, #50, #242, .T. ) ;
#251 = SECURITY_CLASSIFICATION_LEVEL ( 'unclassified' ) ;
#252 = UNCERTAINTY_MEASURE_WITH_UNIT (LENGTH_MEASURE( 1.000000000000000082E-05 ), #238, 'distance_accuracy_value', 'NONE');
#253 = FACE_OUTER_BOUND ( 'NONE', #33, .T. ) ;
#254 = CARTESIAN_POINT ( 'NONE',  ( 2.504511167915743751E-14, -8.784642641776459355E-16, 7.173205080756892116 ) ) ;
#255 = CYLINDRICAL_SURFACE ( 'NONE', #181, 0.8799999999999995604 ) ;
#256 = DIRECTION ( 'NONE',  ( 0.0000000000000000000, 1.000000000000000000, 0.0000000000000000000 ) ) ;
#257 = APPLICATION_CONTEXT ( 'configuration controlled 3d designs of mechanical parts and assemblies' ) ;
#258 = CIRCLE ( 'NONE', #73, 0.7799999999999988054 ) ;
#259 = ORIENTED_EDGE ( 'NONE', *, *, #250, .F. ) ;
#260 = CC_DESIGN_APPROVAL ( #279, ( #154 ) ) ;
#261 = EDGE_CURVE ( 'NONE', #285, #285, #145, .T. ) ;
#262 = DIRECTION ( 'NONE',  ( -4.275831445896958607E-31, -1.000000000000000000, -1.224646799147353207E-16 ) ) ;
#263 = DIRECTION ( 'NONE',  ( 0.0000000000000000000, 1.000000000000000000, 0.0000000000000000000 ) ) ;
#264 = CARTESIAN_POINT ( 'NONE',  ( 1.735266225405037467E-13, -6.086494591762345225E-15, 49.70000000000000284 ) ) ;
#265 = CC_DESIGN_APPROVAL ( #41, ( #187 ) ) ;
#266 = APPLICATION_CONTEXT ( 'configuration controlled 3d designs of mechanical parts and assemblies' ) ;
#267 = VERTEX_POINT ( 'NONE', #25 ) ;
#268 = DIRECTION ( 'NONE',  ( 3.491481338843133355E-15, -1.224646799147353207E-16, 1.000000000000000000 ) ) ;
#269 = PERSON_AND_ORGANIZATION ( #11, #201 ) ;
#270 = CLOSED_SHELL ( 'NONE', ( #12, #140, #282, #284, #27, #107, #301, #85 ) ) ;
#271 = SHAPE_DEFINITION_REPRESENTATION ( #124, #176 ) ;
#272 = EDGE_LOOP ( 'NONE', ( #32 ) ) ;
#273 = COORDINATED_UNIVERSAL_TIME_OFFSET ( 1, 0, .AHEAD. ) ;
#274 = EDGE_LOOP ( 'NONE', ( #160 ) ) ;
#275 = AXIS2_PLACEMENT_3D ( 'NONE', #185, #45, #48 ) ;
#276 = FACE_BOUND ( 'NONE', #106, .T. ) ;
#277 = CARTESIAN_POINT ( 'NONE',  ( 7.422295857362715766E-14, -2.603390934077191811E-15, 21.25830023717674422 ) ) ;
#278 = AXIS2_PLACEMENT_3D ( 'NONE', #148, #171, #263 ) ;
#279 = APPROVAL ( #15, 'UNSPECIFIED' ) ;
#280 = DIRECTION ( 'NONE',  ( 3.491481338843133355E-15, -1.224646799147353207E-16, 1.000000000000000000 ) ) ;
#281 = FACE_OUTER_BOUND ( 'NONE', #17, .T. ) ;
#282 = ADVANCED_FACE ( 'NONE', ( #235, #5 ), #170, .T. ) ;
#283 = FACE_BOUND ( 'NONE', #58, .T. ) ;
#284 = ADVANCED_FACE ( 'NONE', ( #100, #96 ), #88, .F. ) ;
#285 = VERTEX_POINT ( 'NONE', #213 ) ;
#286 = CARTESIAN_POINT ( 'NONE',  ( 4.276423536147513034E-47, 0.7356624327025949039, 0.0000000000000000000 ) ) ;
#287 = DIRECTION ( 'NONE',  ( 0.0000000000000000000, 1.000000000000000000, 0.0000000000000000000 ) ) ;
#288 = CARTESIAN_POINT ( 'NONE',  ( 2.504511167915743751E-14, 0.7799999999999979172, 7.173205080756892116 ) ) ;
#289 = DATE_TIME_ROLE ( 'creation_date' ) ;
#290 = CALENDAR_DATE ( 2021, 1, 12 ) ;
#291 = EDGE_LOOP ( 'NONE', ( #180 ) ) ;
#292 = APPROVAL_PERSON_ORGANIZATION ( #269, #279, #243 ) ;
#293 = DATE_AND_TIME ( #159, #22 ) ;
#294 = EDGE_LOOP ( 'NONE', ( #158 ) ) ;
#295 = AXIS2_PLACEMENT_3D ( 'NONE', #72, #268, #52 ) ;
#296 = DIRECTION ( 'NONE',  ( -3.491481338843133355E-15, 1.224646799147353207E-16, -1.000000000000000000 ) ) ;
#297 = EDGE_CURVE ( 'NONE', #149, #149, #51, .T. ) ;
#298 = CARTESIAN_POINT ( 'NONE',  ( 6.056776150402963091E-14, -2.124431095542013992E-15, 17.34729635533384595 ) ) ;
#299 = AXIS2_PLACEMENT_3D ( 'NONE', #195, #3, #262 ) ;
#300 = CYLINDRICAL_SURFACE ( 'NONE', #57, 1.499999999999999112 ) ;
#301 = ADVANCED_FACE ( 'NONE', ( #239, #193 ), #248, .T. ) ;
#302 = DIRECTION ( 'NONE',  ( -4.275831445896958607E-31, -1.000000000000000000, -1.224646799147353207E-16 ) ) ;
#303 = FACE_OUTER_BOUND ( 'NONE', #291, .T. ) ;
ENDSEC;
END-ISO-10303-21;
