ISO-10303-21;
HEADER;
FILE_DESCRIPTION (( 'STEP AP203' ),
    '1' );
FILE_NAME ('327044.step',
    '2021-12-01T14:03:56',
    ( '' ),
    ( '' ),
    'SwSTEP 2.0',
    'SolidWorks 2019',
    '' );
FILE_SCHEMA (( 'CONFIG_CONTROL_DESIGN' ));
ENDSEC;

DATA;
#1 = CYLINDRICAL_SURFACE ( 'NONE', #223, 1.499999999999999112 ) ;
#2 = APPROVAL_STATUS ( 'not_yet_approved' ) ;
#3 = DIRECTION ( 'NONE',  ( -3.491481338843133355E-15, 1.224646799147353207E-16, -1.000000000000000000 ) ) ;
#4 = DIRECTION ( 'NONE',  ( -3.491481338843133355E-15, 1.224646799147353207E-16, -1.000000000000000000 ) ) ;
#5 = LOCAL_TIME ( 15, 3, 56.00000000000000000, #300 ) ;
#6 = ORIENTED_EDGE ( 'NONE', *, *, #134, .T. ) ;
#7 = CARTESIAN_POINT ( 'NONE',  ( 7.442097032003230108E-14, -2.610336251204648599E-15, 21.31501305537291557 ) ) ;
#8 = FACE_OUTER_BOUND ( 'NONE', #18, .T. ) ;
#9 = EDGE_CURVE ( 'NONE', #292, #292, #294, .T. ) ;
#10 = MANIFOLD_SOLID_BREP ( 'Corps-Déplacer/Copier1[2]', #77 ) ;
#11 = VERTEX_POINT ( 'NONE', #225 ) ;
#12 = AXIS2_PLACEMENT_3D ( 'NONE', #7, #153, #216 ) ;
#13 = DIRECTION ( 'NONE',  ( 0.0000000000000000000, 1.000000000000000000, 0.0000000000000000000 ) ) ;
#14 = PLANE ( 'NONE',  #205 ) ;
#15 = VERTEX_POINT ( 'NONE', #155 ) ;
#16 = AXIS2_PLACEMENT_3D ( 'NONE', #249, #113, #135 ) ;
#17 = CARTESIAN_POINT ( 'NONE',  ( 1.745740669421566678E-13, 1.199999999999995515, 50.00000000000000000 ) ) ;
#18 = EDGE_LOOP ( 'NONE', ( #142 ) ) ;
#19 = DATE_AND_TIME ( #231, #150 ) ;
#20 = CC_DESIGN_DATE_AND_TIME_ASSIGNMENT ( #19, #207, ( #179 ) ) ;
#21 = APPROVAL_ROLE ( '' ) ;
#22 = AXIS2_PLACEMENT_3D ( 'NONE', #222, #269, #38 ) ;
#23 = CARTESIAN_POINT ( 'NONE',  ( 1.735266225405037467E-13, 1.499999999999995559, 49.70000000000000284 ) ) ;
#24 = VERTEX_POINT ( 'NONE', #23 ) ;
#25 = ORIENTED_EDGE ( 'NONE', *, *, #9, .T. ) ;
#26 = CARTESIAN_POINT ( 'NONE',  ( 8.728703347107829444E-16, -3.061616997868381785E-17, 0.2499999999999998890 ) ) ;
#27 = CC_DESIGN_PERSON_AND_ORGANIZATION_ASSIGNMENT ( #210, #276, ( #281 ) ) ;
#28 = AXIS2_PLACEMENT_3D ( 'NONE', #83, #246, #62 ) ;
#29 = DIRECTION ( 'NONE',  ( -3.491481338843133355E-15, 1.224646799147353207E-16, -1.000000000000000000 ) ) ;
#30 = SHAPE_DEFINITION_REPRESENTATION ( #169, #268 ) ;
#31 = EDGE_LOOP ( 'NONE', ( #215 ) ) ;
#32 = DIRECTION ( 'NONE',  ( -4.275831445896958607E-31, -1.000000000000000000, -1.224646799147353207E-16 ) ) ;
#33 = CONICAL_SURFACE ( 'NONE', #82, 1.200000000000001732, 0.7853981633974453924 ) ;
#34 = DIRECTION ( 'NONE',  ( 0.0000000000000000000, 1.000000000000000000, 0.0000000000000000000 ) ) ;
#35 = CARTESIAN_POINT ( 'NONE',  ( 2.444036937190193349E-14, 0.8699999999999991074, 7.000000000000000000 ) ) ;
#36 = DIRECTION ( 'NONE',  ( 0.0000000000000000000, 1.000000000000000000, 0.0000000000000000000 ) ) ;
#37 = ADVANCED_FACE ( 'NONE', ( #54 ), #96, .F. ) ;
#38 = DIRECTION ( 'NONE',  ( 0.0000000000000000000, -1.000000000000000000, 0.0000000000000000000 ) ) ;
#39 = AXIS2_PLACEMENT_3D ( 'NONE', #288, #284, #76 ) ;
#40 = DIRECTION ( 'NONE',  ( -4.275831445896958607E-31, -1.000000000000000000, -1.224646799147353207E-16 ) ) ;
#41 = UNCERTAINTY_MEASURE_WITH_UNIT (LENGTH_MEASURE( 1.000000000000000082E-05 ), #114, 'distance_accuracy_value', 'NONE');
#42 = CARTESIAN_POINT ( 'NONE',  ( 2.444036937190193349E-14, 6.523955054579068004E-33, 7.000000000000000000 ) ) ;
#43 = CIRCLE ( 'NONE', #102, 1.200000000000001732 ) ;
#44 = COORDINATED_UNIVERSAL_TIME_OFFSET ( 1, 0, .AHEAD. ) ;
#45 = EDGE_CURVE ( 'NONE', #133, #133, #219, .T. ) ;
#46 = APPLICATION_PROTOCOL_DEFINITION ( 'international standard', 'config_control_design', 1994, #80 ) ;
#47 = EDGE_LOOP ( 'NONE', ( #260 ) ) ;
#48 = ADVANCED_FACE ( 'NONE', ( #75, #238 ), #1, .T. ) ;
#49 = CALENDAR_DATE ( 2021, 1, 12 ) ;
#50 = LOCAL_TIME ( 15, 3, 56.00000000000000000, #302 ) ;
#51 = APPROVAL ( #257, 'UNSPECIFIED' ) ;
#52 = APPROVAL_ROLE ( '' ) ;
#53 = ORIENTED_EDGE ( 'NONE', *, *, #110, .F. ) ;
#54 = FACE_OUTER_BOUND ( 'NONE', #147, .T. ) ;
#55 = AXIS2_PLACEMENT_3D ( 'NONE', #242, #3, #193 ) ;
#56 = DIRECTION ( 'NONE',  ( -4.427425159510891478E-31, -1.000000000000000000, -1.246209393661500605E-16 ) ) ;
#57 = APPROVAL ( #166, 'UNSPECIFIED' ) ;
#58 = ORIENTED_EDGE ( 'NONE', *, *, #86, .F. ) ;
#59 = ADVANCED_FACE ( 'NONE', ( #241 ), #283, .F. ) ;
#60 = ORIENTED_EDGE ( 'NONE', *, *, #164, .F. ) ;
#61 = CYLINDRICAL_SURFACE ( 'NONE', #16, 0.7699999999999995737 ) ;
#62 = DIRECTION ( 'NONE',  ( 4.427425159510891478E-31, 1.000000000000000000, 1.246209393661500605E-16 ) ) ;
#63 = DIRECTION ( 'NONE',  ( -4.275831445896958607E-31, -1.000000000000000000, -1.224646799147353207E-16 ) ) ;
#64 = CARTESIAN_POINT ( 'NONE',  ( 2.504511167915743751E-14, -8.784642641776459355E-16, 7.173205080756892116 ) ) ;
#65 = CIRCLE ( 'NONE', #94, 0.7699999999999989075 ) ;
#66 = DIRECTION ( 'NONE',  ( -3.491481338843133355E-15, 1.224646799147353207E-16, -1.000000000000000000 ) ) ;
#67 = PERSON_AND_ORGANIZATION ( #186, #158 ) ;
#68 = PERSON_AND_ORGANIZATION ( #186, #158 ) ;
#69 = CIRCLE ( 'NONE', #253, 1.500000000000001554 ) ;
#70 = DIRECTION ( 'NONE',  ( 0.0000000000000000000, 0.0000000000000000000, 1.000000000000000000 ) ) ;
#71 = ORIENTED_EDGE ( 'NONE', *, *, #45, .T. ) ;
#72 = PERSON_AND_ORGANIZATION ( #186, #158 ) ;
#73 = CIRCLE ( 'NONE', #39, 0.8699999999999999956 ) ;
#74 = CC_DESIGN_APPROVAL ( #140, ( #179 ) ) ;
#75 = FACE_OUTER_BOUND ( 'NONE', #256, .T. ) ;
#76 = DIRECTION ( 'NONE',  ( 0.0000000000000000000, 1.000000000000000000, 0.0000000000000000000 ) ) ;
#77 = CLOSED_SHELL ( 'NONE', ( #59, #125, #89, #250 ) ) ;
#78 = CARTESIAN_POINT ( 'NONE',  ( 0.0000000000000000000, 0.0000000000000000000, 0.0000000000000000000 ) ) ;
#79 = DIRECTION ( 'NONE',  ( 0.0000000000000000000, 1.000000000000000000, 0.0000000000000000000 ) ) ;
#80 = APPLICATION_CONTEXT ( 'configuration controlled 3d designs of mechanical parts and assemblies' ) ;
#81 = DIRECTION ( 'NONE',  ( -3.491481338843133355E-15, 1.224646799147353207E-16, -1.000000000000000000 ) ) ;
#82 = AXIS2_PLACEMENT_3D ( 'NONE', #176, #90, #13 ) ;
#83 = CARTESIAN_POINT ( 'NONE',  ( 8.728703347107829444E-16, -3.061616997868381785E-17, 0.2499999999999998890 ) ) ;
#84 = FACE_OUTER_BOUND ( 'NONE', #121, .T. ) ;
#85 = CARTESIAN_POINT ( 'NONE',  ( 7.442097032003230108E-14, 1.499999999999994005, 21.31501305537291557 ) ) ;
#86 = EDGE_CURVE ( 'NONE', #11, #11, #65, .T. ) ;
#87 = DIRECTION ( 'NONE',  ( -3.491481338843133355E-15, 1.224646799147353207E-16, -1.000000000000000000 ) ) ;
#88 = AXIS2_PLACEMENT_3D ( 'NONE', #26, #122, #56 ) ;
#89 = ADVANCED_FACE ( 'NONE', ( #190, #286 ), #129, .T. ) ;
#90 = DIRECTION ( 'NONE',  ( -3.491481338843133355E-15, 1.224646799147353207E-16, -1.000000000000000000 ) ) ;
#91 = SECURITY_CLASSIFICATION_LEVEL ( 'unclassified' ) ;
#92 = EDGE_LOOP ( 'NONE', ( #148 ) ) ;
#93 = PERSON_AND_ORGANIZATION ( #186, #158 ) ;
#94 = AXIS2_PLACEMENT_3D ( 'NONE', #195, #127, #34 ) ;
#95 = CALENDAR_DATE ( 2021, 1, 12 ) ;
#96 = PLANE ( 'NONE',  #55 ) ;
#97 = CC_DESIGN_PERSON_AND_ORGANIZATION_ASSIGNMENT ( #138, #229, ( #258 ) ) ;
#98 = APPROVAL_DATE_TIME ( #103, #140 ) ;
#99 = DIRECTION ( 'NONE',  ( 3.491481338843133355E-15, -1.224646799147353207E-16, 1.000000000000000000 ) ) ;
#100 = EDGE_CURVE ( 'NONE', #109, #109, #73, .T. ) ;
#101 = DIRECTION ( 'NONE',  ( 0.0000000000000000000, 1.000000000000000000, 0.0000000000000000000 ) ) ;
#102 = AXIS2_PLACEMENT_3D ( 'NONE', #272, #66, #36 ) ;
#103 = DATE_AND_TIME ( #95, #145 ) ;
#104 = DIRECTION ( 'NONE',  ( 4.275831445896958607E-31, 1.000000000000000000, 1.224646799147353207E-16 ) ) ;
#105 = VERTEX_POINT ( 'NONE', #17 ) ;
#106 = CIRCLE ( 'NONE', #189, 0.7256624327025948951 ) ;
#107 = FACE_BOUND ( 'NONE', #303, .T. ) ;
#108 = DIRECTION ( 'NONE',  ( 0.0000000000000000000, 1.000000000000000000, 0.0000000000000000000 ) ) ;
#109 = VERTEX_POINT ( 'NONE', #226 ) ;
#110 = EDGE_CURVE ( 'NONE', #15, #15, #106, .T. ) ;
#111 = DESIGN_CONTEXT ( 'detailed design', #80, 'design' ) ;
#112 = AXIS2_PLACEMENT_3D ( 'NONE', #240, #4, #101 ) ;
#113 = DIRECTION ( 'NONE',  ( -3.491481338843133355E-15, 1.224646799147353207E-16, -1.000000000000000000 ) ) ;
#114 =( LENGTH_UNIT ( ) NAMED_UNIT ( * ) SI_UNIT ( .MILLI., .METRE. ) );
#115 = ORIENTED_EDGE ( 'NONE', *, *, #164, .T. ) ;
#116 = PERSON_AND_ORGANIZATION ( #186, #158 ) ;
#117 = EDGE_LOOP ( 'NONE', ( #173 ) ) ;
#118 = LOCAL_TIME ( 15, 3, 56.00000000000000000, #161 ) ;
#119 = MECHANICAL_CONTEXT ( 'NONE', #201, 'mechanical' ) ;
#120 = APPLICATION_PROTOCOL_DEFINITION ( 'international standard', 'config_control_design', 1994, #201 ) ;
#121 = EDGE_LOOP ( 'NONE', ( #218 ) ) ;
#122 = DIRECTION ( 'NONE',  ( 3.491481338843133355E-15, -1.224646799147353207E-16, 1.000000000000000000 ) ) ;
#123 = EDGE_LOOP ( 'NONE', ( #60 ) ) ;
#124 = CARTESIAN_POINT ( 'NONE',  ( 0.0000000000000000000, 0.0000000000000000000, 0.0000000000000000000 ) ) ;
#125 = ADVANCED_FACE ( 'NONE', ( #174, #264 ), #132, .T. ) ;
#126 = PRODUCT_DEFINITION ( 'UNKNOWN', '', #258, #111 ) ;
#127 = DIRECTION ( 'NONE',  ( -3.491481338843133355E-15, 1.224646799147353207E-16, -1.000000000000000000 ) ) ;
#128 = APPROVAL_PERSON_ORGANIZATION ( #72, #57, #52 ) ;
#129 = CYLINDRICAL_SURFACE ( 'NONE', #261, 0.8699999999999995515 ) ;
#130 = VERTEX_POINT ( 'NONE', #221 ) ;
#131 = CARTESIAN_POINT ( 'NONE',  ( 5.935518276033326704E-14, -2.081899558550500280E-15, 17.00000000000000000 ) ) ;
#132 = CONICAL_SURFACE ( 'NONE', #88, 0.8699999999999991074, 0.5235987755982922653 ) ;
#133 = VERTEX_POINT ( 'NONE', #85 ) ;
#134 = EDGE_CURVE ( 'NONE', #245, #245, #275, .T. ) ;
#135 = DIRECTION ( 'NONE',  ( 4.275831445896958607E-31, 1.000000000000000000, 1.224646799147353207E-16 ) ) ;
#136 = FACE_OUTER_BOUND ( 'NONE', #196, .T. ) ;
#137 = ADVANCED_FACE ( 'NONE', ( #8, #270 ), #285, .F. ) ;
#138 = PERSON_AND_ORGANIZATION ( #186, #158 ) ;
#139 = ORIENTED_EDGE ( 'NONE', *, *, #100, .F. ) ;
#140 = APPROVAL ( #2, 'UNSPECIFIED' ) ;
#141 =( NAMED_UNIT ( * ) PLANE_ANGLE_UNIT ( ) SI_UNIT ( $, .RADIAN. ) );
#142 = ORIENTED_EDGE ( 'NONE', *, *, #298, .F. ) ;
#143 = DATE_AND_TIME ( #49, #5 ) ;
#144 = AXIS2_PLACEMENT_3D ( 'NONE', #232, #70, #188 ) ;
#145 = LOCAL_TIME ( 15, 3, 56.00000000000000000, #282 ) ;
#146 = EDGE_LOOP ( 'NONE', ( #115 ) ) ;
#147 = EDGE_LOOP ( 'NONE', ( #263 ) ) ;
#148 = ORIENTED_EDGE ( 'NONE', *, *, #301, .F. ) ;
#149 = CIRCLE ( 'NONE', #28, 0.8699999999999991074 ) ;
#150 = LOCAL_TIME ( 15, 3, 56.00000000000000000, #44 ) ;
#151 = ORIENTED_EDGE ( 'NONE', *, *, #9, .F. ) ;
#152 = CARTESIAN_POINT ( 'NONE',  ( 6.056776150402963091E-14, -2.124431095542013992E-15, 17.34729635533384595 ) ) ;
#153 = DIRECTION ( 'NONE',  ( -3.491481338843133355E-15, 1.224646799147353207E-16, -1.000000000000000000 ) ) ;
#154 = AXIS2_PLACEMENT_3D ( 'NONE', #217, #99, #32 ) ;
#155 = CARTESIAN_POINT ( 'NONE',  ( -1.892735826383161356E-31, 0.7256624327025948951, -5.421010862427522170E-17 ) ) ;
#156 = DIRECTION ( 'NONE',  ( -3.491481338843133355E-15, 1.224646799147353207E-16, -1.000000000000000000 ) ) ;
#157 = ADVANCED_FACE ( 'NONE', ( #265 ), #160, .F. ) ;
#158 = ORGANIZATION ( 'UNSPECIFIED', 'UNSPECIFIED', '' ) ;
#159 = DIRECTION ( 'NONE',  ( -3.491481338843133355E-15, 1.224646799147353207E-16, -1.000000000000000000 ) ) ;
#160 = PLANE ( 'NONE',  #175 ) ;
#161 = COORDINATED_UNIVERSAL_TIME_OFFSET ( 1, 0, .AHEAD. ) ;
#162 = VERTEX_POINT ( 'NONE', #255 ) ;
#163 = EDGE_LOOP ( 'NONE', ( #53 ) ) ;
#164 = EDGE_CURVE ( 'NONE', #130, #130, #149, .T. ) ;
#165 = EDGE_LOOP ( 'NONE', ( #230 ) ) ;
#166 = APPROVAL_STATUS ( 'not_yet_approved' ) ;
#167 = AXIS2_PLACEMENT_3D ( 'NONE', #152, #262, #79 ) ;
#168 = ORIENTED_EDGE ( 'NONE', *, *, #298, .T. ) ;
#169 = PRODUCT_DEFINITION_SHAPE ( 'NONE', 'NONE',  #126 ) ;
#170 = DIRECTION ( 'NONE',  ( -3.491481338843133355E-15, 1.224646799147353207E-16, -1.000000000000000000 ) ) ;
#171 = AXIS2_PLACEMENT_3D ( 'NONE', #131, #156, #108 ) ;
#172 = EDGE_LOOP ( 'NONE', ( #71 ) ) ;
#173 = ORIENTED_EDGE ( 'NONE', *, *, #86, .T. ) ;
#174 = FACE_BOUND ( 'NONE', #163, .T. ) ;
#175 = AXIS2_PLACEMENT_3D ( 'NONE', #203, #291, #40 ) ;
#176 = CARTESIAN_POINT ( 'NONE',  ( 1.745740669421566678E-13, -6.123233995736766085E-15, 50.00000000000000000 ) ) ;
#177 = FACE_OUTER_BOUND ( 'NONE', #184, .T. ) ;
#178 = DIRECTION ( 'NONE',  ( 3.491481338843133355E-15, -1.224646799147353207E-16, 1.000000000000000000 ) ) ;
#179 = SECURITY_CLASSIFICATION ( '', '', #91 ) ;
#180 = FACE_OUTER_BOUND ( 'NONE', #274, .T. ) ;
#181 = DATE_TIME_ROLE ( 'creation_date' ) ;
#182 = ADVANCED_FACE ( 'NONE', ( #107, #289 ), #299, .T. ) ;
#183 = PERSON_AND_ORGANIZATION ( #186, #158 ) ;
#184 = EDGE_LOOP ( 'NONE', ( #168 ) ) ;
#185 =( NAMED_UNIT ( * ) SI_UNIT ( $, .STERADIAN. ) SOLID_ANGLE_UNIT ( ) );
#186 = PERSON ( 'UNSPECIFIED', 'UNSPECIFIED', 'UNSPECIFIED', ('UNSPECIFIED'), ('UNSPECIFIED'), ('UNSPECIFIED') ) ;
#187 = EDGE_LOOP ( 'NONE', ( #6 ) ) ;
#188 = DIRECTION ( 'NONE',  ( 1.000000000000000000, 0.0000000000000000000, 0.0000000000000000000 ) ) ;
#189 = AXIS2_PLACEMENT_3D ( 'NONE', #220, #170, #104 ) ;
#190 = FACE_OUTER_BOUND ( 'NONE', #123, .T. ) ;
#191 = DIRECTION ( 'NONE',  ( 4.275831445896958607E-31, 1.000000000000000000, 1.224646799147353454E-16 ) ) ;
#192 = CC_DESIGN_PERSON_AND_ORGANIZATION_ASSIGNMENT ( #67, #252, ( #258 ) ) ;
#193 = DIRECTION ( 'NONE',  ( 4.275831445896958607E-31, 1.000000000000000000, 1.224646799147353207E-16 ) ) ;
#194 = CC_DESIGN_APPROVAL ( #51, ( #126 ) ) ;
#195 = CARTESIAN_POINT ( 'NONE',  ( 2.504511167915743751E-14, -8.784642641776459355E-16, 7.173205080756892116 ) ) ;
#196 = EDGE_LOOP ( 'NONE', ( #58 ) ) ;
#197 = CC_DESIGN_PERSON_AND_ORGANIZATION_ASSIGNMENT ( #68, #259, ( #126 ) ) ;
#198 = FACE_OUTER_BOUND ( 'NONE', #92, .T. ) ;
#199 = CC_DESIGN_SECURITY_CLASSIFICATION ( #179, ( #258 ) ) ;
#200 = DIRECTION ( 'NONE',  ( 0.0000000000000000000, 1.000000000000000000, 0.0000000000000000000 ) ) ;
#201 = APPLICATION_CONTEXT ( 'configuration controlled 3d designs of mechanical parts and assemblies' ) ;
#202 = ADVANCED_FACE ( 'NONE', ( #136, #177 ), #61, .T. ) ;
#203 = CARTESIAN_POINT ( 'NONE',  ( 2.444036937190193349E-14, 6.523955054579068004E-33, 7.000000000000000000 ) ) ;
#204 = DIRECTION ( 'NONE',  ( -3.491481338843133355E-15, 1.224646799147353207E-16, -1.000000000000000000 ) ) ;
#205 = AXIS2_PLACEMENT_3D ( 'NONE', #42, #178, #63 ) ;
#206 = CARTESIAN_POINT ( 'NONE',  ( 1.735266225405037467E-13, -6.086494591762345225E-15, 49.70000000000000284 ) ) ;
#207 = DATE_TIME_ROLE ( 'classification_date' ) ;
#208 = EDGE_LOOP ( 'NONE', ( #297 ) ) ;
#209 = PRODUCT_RELATED_PRODUCT_CATEGORY ( 'detail', '', ( #281 ) ) ;
#210 = PERSON_AND_ORGANIZATION ( #186, #158 ) ;
#211 = MANIFOLD_SOLID_BREP ( 'Corps-Déplacer/Copier1[1]', #233 ) ;
#212 = DATE_AND_TIME ( #278, #50 ) ;
#213 = ORIENTED_EDGE ( 'NONE', *, *, #45, .F. ) ;
#214 = APPROVAL_ROLE ( '' ) ;
#215 = ORIENTED_EDGE ( 'NONE', *, *, #110, .T. ) ;
#216 = DIRECTION ( 'NONE',  ( 0.0000000000000000000, 1.000000000000000000, 0.0000000000000000000 ) ) ;
#217 = CARTESIAN_POINT ( 'NONE',  ( -2.497773037619500889E-31, 8.761008462187042171E-33, -7.153906308567333238E-17 ) ) ;
#218 = ORIENTED_EDGE ( 'NONE', *, *, #134, .F. ) ;
#219 = CIRCLE ( 'NONE', #12, 1.499999999999996669 ) ;
#220 = CARTESIAN_POINT ( 'NONE',  ( -4.995546075239001779E-31, 1.752201692437408434E-32, -1.430781261713466648E-16 ) ) ;
#221 = CARTESIAN_POINT ( 'NONE',  ( 8.728703347107833388E-16, 0.8699999999999991074, 0.2500000000000000000 ) ) ;
#222 = CARTESIAN_POINT ( 'NONE',  ( 7.442097032003230108E-14, -2.610336251204648599E-15, 21.31501305537291557 ) ) ;
#223 = AXIS2_PLACEMENT_3D ( 'NONE', #124, #81, #191 ) ;
#224 = CARTESIAN_POINT ( 'NONE',  ( 6.056776150402963091E-14, 0.8003844939755786481, 17.34729635533384595 ) ) ;
#225 = CARTESIAN_POINT ( 'NONE',  ( 2.504511167915743751E-14, 0.7699999999999980194, 7.173205080756892116 ) ) ;
#226 = CARTESIAN_POINT ( 'NONE',  ( 2.444036937190193349E-14, 0.8699999999999991074, 7.000000000000000000 ) ) ;
#227 = ADVANCED_FACE ( 'NONE', ( #198, #295 ), #33, .T. ) ;
#228 = CIRCLE ( 'NONE', #171, 0.7700000000000001288 ) ;
#229 = PERSON_AND_ORGANIZATION_ROLE ( 'design_supplier' ) ;
#230 = ORIENTED_EDGE ( 'NONE', *, *, #100, .T. ) ;
#231 = CALENDAR_DATE ( 2021, 1, 12 ) ;
#232 = CARTESIAN_POINT ( 'NONE',  ( 0.0000000000000000000, 0.0000000000000000000, 0.0000000000000000000 ) ) ;
#233 = CLOSED_SHELL ( 'NONE', ( #157, #277, #202, #137, #182, #48, #227, #37 ) ) ;
#234 = APPROVAL_DATE_TIME ( #143, #51 ) ;
#235 = CALENDAR_DATE ( 2021, 1, 12 ) ;
#236 = EDGE_LOOP ( 'NONE', ( #25 ) ) ;
#237 = CC_DESIGN_DATE_AND_TIME_ASSIGNMENT ( #212, #181, ( #126 ) ) ;
#238 = FACE_OUTER_BOUND ( 'NONE', #47, .T. ) ;
#239 = CC_DESIGN_PERSON_AND_ORGANIZATION_ASSIGNMENT ( #183, #254, ( #179 ) ) ;
#240 = CARTESIAN_POINT ( 'NONE',  ( 2.444036937190193349E-14, -8.572527594031473190E-16, 7.000000000000000000 ) ) ;
#241 = FACE_OUTER_BOUND ( 'NONE', #31, .T. ) ;
#242 = CARTESIAN_POINT ( 'NONE',  ( 1.745740669421566678E-13, 8.998558695971067645E-33, 50.00000000000000000 ) ) ;
#243 = CONICAL_SURFACE ( 'NONE', #280, 0.7699999999999989075, 0.5235987755982938197 ) ;
#244 = APPROVAL_PERSON_ORGANIZATION ( #93, #140, #214 ) ;
#245 = VERTEX_POINT ( 'NONE', #35 ) ;
#246 = DIRECTION ( 'NONE',  ( -3.491481338843133355E-15, 1.224646799147353207E-16, -1.000000000000000000 ) ) ;
#247 = DIRECTION ( 'NONE',  ( 4.275831445896958607E-31, 1.000000000000000000, 1.224646799147353207E-16 ) ) ;
#248 = AXIS2_PLACEMENT_3D ( 'NONE', #267, #87, #247 ) ;
#249 = CARTESIAN_POINT ( 'NONE',  ( 0.0000000000000000000, 0.0000000000000000000, 0.0000000000000000000 ) ) ;
#250 = ADVANCED_FACE ( 'NONE', ( #84 ), #14, .T. ) ;
#251 = DIRECTION ( 'NONE',  ( 0.0000000000000000000, 1.000000000000000000, 0.0000000000000000000 ) ) ;
#252 = PERSON_AND_ORGANIZATION_ROLE ( 'creator' ) ;
#253 = AXIS2_PLACEMENT_3D ( 'NONE', #206, #159, #251 ) ;
#254 = PERSON_AND_ORGANIZATION_ROLE ( 'classification_officer' ) ;
#255 = CARTESIAN_POINT ( 'NONE',  ( 5.935518276033326704E-14, 0.7699999999999981304, 17.00000000000000000 ) ) ;
#256 = EDGE_LOOP ( 'NONE', ( #213 ) ) ;
#257 = APPROVAL_STATUS ( 'not_yet_approved' ) ;
#258 = PRODUCT_DEFINITION_FORMATION_WITH_SPECIFIED_SOURCE ( 'ANY', '', #281, .NOT_KNOWN. ) ;
#259 = PERSON_AND_ORGANIZATION_ROLE ( 'creator' ) ;
#260 = ORIENTED_EDGE ( 'NONE', *, *, #301, .T. ) ;
#261 = AXIS2_PLACEMENT_3D ( 'NONE', #78, #29, #287 ) ;
#262 = DIRECTION ( 'NONE',  ( -3.491481338843133355E-15, 1.224646799147353207E-16, -1.000000000000000000 ) ) ;
#263 = ORIENTED_EDGE ( 'NONE', *, *, #279, .F. ) ;
#264 = FACE_OUTER_BOUND ( 'NONE', #146, .T. ) ;
#265 = FACE_OUTER_BOUND ( 'NONE', #165, .T. ) ;
#266 = CC_DESIGN_APPROVAL ( #57, ( #258 ) ) ;
#267 = CARTESIAN_POINT ( 'NONE',  ( 5.935518276033326704E-14, -2.168404344971008868E-15, 17.00000000000000000 ) ) ;
#268 = ADVANCED_BREP_SHAPE_REPRESENTATION ( '327044', ( #211, #10, #144 ), #271 ) ;
#269 = DIRECTION ( 'NONE',  ( 3.491481338843133355E-15, -1.224646799147353207E-16, 1.000000000000000000 ) ) ;
#270 = FACE_OUTER_BOUND ( 'NONE', #236, .T. ) ;
#271 =( GEOMETRIC_REPRESENTATION_CONTEXT ( 3 ) GLOBAL_UNCERTAINTY_ASSIGNED_CONTEXT ( ( #41 ) ) GLOBAL_UNIT_ASSIGNED_CONTEXT ( ( #114, #141, #185 ) ) REPRESENTATION_CONTEXT ( 'NONE', 'WORKASPACE' ) );
#272 = CARTESIAN_POINT ( 'NONE',  ( 1.745740669421566678E-13, -6.123233995736766085E-15, 50.00000000000000000 ) ) ;
#273 = DATE_AND_TIME ( #235, #118 ) ;
#274 = EDGE_LOOP ( 'NONE', ( #139 ) ) ;
#275 = CIRCLE ( 'NONE', #112, 0.8699999999999999956 ) ;
#276 = PERSON_AND_ORGANIZATION_ROLE ( 'design_owner' ) ;
#277 = ADVANCED_FACE ( 'NONE', ( #180, #293 ), #243, .T. ) ;
#278 = CALENDAR_DATE ( 2021, 1, 12 ) ;
#279 = EDGE_CURVE ( 'NONE', #105, #105, #43, .T. ) ;
#280 = AXIS2_PLACEMENT_3D ( 'NONE', #64, #204, #200 ) ;
#281 = PRODUCT ( '327044', '327044', '', ( #119 ) ) ;
#282 = COORDINATED_UNIVERSAL_TIME_OFFSET ( 1, 0, .AHEAD. ) ;
#283 = PLANE ( 'NONE',  #154 ) ;
#284 = DIRECTION ( 'NONE',  ( -3.491481338843133355E-15, 1.224646799147353207E-16, -1.000000000000000000 ) ) ;
#285 = TOROIDAL_SURFACE ( 'NONE', #248, 2.770000000000000462, 2.000000000000000000 ) ;
#286 = FACE_OUTER_BOUND ( 'NONE', #187, .T. ) ;
#287 = DIRECTION ( 'NONE',  ( 4.275831445896958607E-31, 1.000000000000000000, 1.224646799147353207E-16 ) ) ;
#288 = CARTESIAN_POINT ( 'NONE',  ( 2.444036937190193349E-14, -8.572527594031473190E-16, 7.000000000000000000 ) ) ;
#289 = FACE_OUTER_BOUND ( 'NONE', #172, .T. ) ;
#290 = APPROVAL_PERSON_ORGANIZATION ( #116, #51, #21 ) ;
#291 = DIRECTION ( 'NONE',  ( 3.491481338843133355E-15, -1.224646799147353207E-16, 1.000000000000000000 ) ) ;
#292 = VERTEX_POINT ( 'NONE', #224 ) ;
#293 = FACE_BOUND ( 'NONE', #117, .T. ) ;
#294 = CIRCLE ( 'NONE', #167, 0.8003844939755808685 ) ;
#295 = FACE_BOUND ( 'NONE', #208, .T. ) ;
#296 = APPROVAL_DATE_TIME ( #273, #57 ) ;
#297 = ORIENTED_EDGE ( 'NONE', *, *, #279, .T. ) ;
#298 = EDGE_CURVE ( 'NONE', #162, #162, #228, .T. ) ;
#299 = CONICAL_SURFACE ( 'NONE', #22, 1.499999999999996669, 0.1745329251994262865 ) ;
#300 = COORDINATED_UNIVERSAL_TIME_OFFSET ( 1, 0, .AHEAD. ) ;
#301 = EDGE_CURVE ( 'NONE', #24, #24, #69, .T. ) ;
#302 = COORDINATED_UNIVERSAL_TIME_OFFSET ( 1, 0, .AHEAD. ) ;
#303 = EDGE_LOOP ( 'NONE', ( #151 ) ) ;
ENDSEC;
END-ISO-10303-21;
