ISO-10303-21;
HEADER;
FILE_DESCRIPTION (( 'STEP AP203' ),
    '1' );
FILE_NAME ('327043.step',
    '2021-12-01T14:03:55',
    ( '' ),
    ( '' ),
    'SwSTEP 2.0',
    'SolidWorks 2019',
    '' );
FILE_SCHEMA (( 'CONFIG_CONTROL_DESIGN' ));
ENDSEC;

DATA;
#1 = CONICAL_SURFACE ( 'NONE', #179, 0.7649999999999989031, 0.5235987755982938197 ) ;
#2 =( LENGTH_UNIT ( ) NAMED_UNIT ( * ) SI_UNIT ( .MILLI., .METRE. ) );
#3 = EDGE_LOOP ( 'NONE', ( #143 ) ) ;
#4 = ADVANCED_FACE ( 'NONE', ( #159, #92 ), #213, .T. ) ;
#5 = VERTEX_POINT ( 'NONE', #214 ) ;
#6 = EDGE_LOOP ( 'NONE', ( #87 ) ) ;
#7 = APPROVAL_ROLE ( '' ) ;
#8 = ORIENTED_EDGE ( 'NONE', *, *, #58, .F. ) ;
#9 = PERSON_AND_ORGANIZATION ( #12, #30 ) ;
#10 = EDGE_LOOP ( 'NONE', ( #157 ) ) ;
#11 = APPROVAL_ROLE ( '' ) ;
#12 = PERSON ( 'UNSPECIFIED', 'UNSPECIFIED', 'UNSPECIFIED', ('UNSPECIFIED'), ('UNSPECIFIED'), ('UNSPECIFIED') ) ;
#13 = EDGE_LOOP ( 'NONE', ( #265 ) ) ;
#14 = ADVANCED_FACE ( 'NONE', ( #184 ), #245, .F. ) ;
#15 = MANIFOLD_SOLID_BREP ( 'Corps-Déplacer/Copier1[2]', #77 ) ;
#16 = AXIS2_PLACEMENT_3D ( 'NONE', #203, #270, #166 ) ;
#17 = CALENDAR_DATE ( 2021, 1, 12 ) ;
#18 = SECURITY_CLASSIFICATION ( '', '', #195 ) ;
#19 = EDGE_LOOP ( 'NONE', ( #39 ) ) ;
#20 = PRODUCT_DEFINITION_SHAPE ( 'NONE', 'NONE',  #34 ) ;
#21 = CALENDAR_DATE ( 2021, 1, 12 ) ;
#22 = ORIENTED_EDGE ( 'NONE', *, *, #186, .F. ) ;
#23 = EDGE_LOOP ( 'NONE', ( #238 ) ) ;
#24 = CARTESIAN_POINT ( 'NONE',  ( 2.444036937190193349E-14, 6.486461060012521290E-33, 7.000000000000000000 ) ) ;
#25 = LOCAL_TIME ( 15, 3, 55.00000000000000000, #288 ) ;
#26 = CARTESIAN_POINT ( 'NONE',  ( 8.728703347107829444E-16, -3.061616997868381785E-17, 0.2499999999999998890 ) ) ;
#27 = CARTESIAN_POINT ( 'NONE',  ( 1.735266225405037467E-13, -6.086494591762345225E-15, 49.70000000000000284 ) ) ;
#28 = CARTESIAN_POINT ( 'NONE',  ( -1.540715545813177526E-31, 5.404102667213044427E-33, -4.412784707374886542E-17 ) ) ;
#29 = AXIS2_PLACEMENT_3D ( 'NONE', #67, #219, #185 ) ;
#30 = ORGANIZATION ( 'UNSPECIFIED', 'UNSPECIFIED', '' ) ;
#31 = DIRECTION ( 'NONE',  ( -4.275831445896958607E-31, -1.000000000000000000, -1.224646799147353207E-16 ) ) ;
#32 = CARTESIAN_POINT ( 'NONE',  ( -3.081431091626355051E-31, 1.080820533442608885E-32, -8.825569414749773084E-17 ) ) ;
#33 = CC_DESIGN_PERSON_AND_ORGANIZATION_ASSIGNMENT ( #9, #158, ( #260 ) ) ;
#34 = PRODUCT_DEFINITION ( 'UNKNOWN', '', #260, #116 ) ;
#35 = CIRCLE ( 'NONE', #135, 1.200000000000001732 ) ;
#36 = APPROVAL ( #142, 'UNSPECIFIED' ) ;
#37 = VERTEX_POINT ( 'NONE', #38 ) ;
#38 = CARTESIAN_POINT ( 'NONE',  ( 8.728703347107833388E-16, 0.8649999999999991029, 0.2500000000000000000 ) ) ;
#39 = ORIENTED_EDGE ( 'NONE', *, *, #182, .T. ) ;
#40 = CIRCLE ( 'NONE', #73, 0.7206624327025946686 ) ;
#41 = PERSON_AND_ORGANIZATION_ROLE ( 'design_supplier' ) ;
#42 = CYLINDRICAL_SURFACE ( 'NONE', #16, 1.499999999999999112 ) ;
#43 = CARTESIAN_POINT ( 'NONE',  ( 2.444036937190193349E-14, -8.572527594031473190E-16, 7.000000000000000000 ) ) ;
#44 = DIRECTION ( 'NONE',  ( -3.491481338843133355E-15, 1.224646799147353207E-16, -1.000000000000000000 ) ) ;
#45 = EDGE_LOOP ( 'NONE', ( #8 ) ) ;
#46 = AXIS2_PLACEMENT_3D ( 'NONE', #43, #110, #296 ) ;
#47 = CARTESIAN_POINT ( 'NONE',  ( 1.745740669421566678E-13, 8.998558695971067645E-33, 50.00000000000000000 ) ) ;
#48 = DIRECTION ( 'NONE',  ( -3.491481338843133355E-15, 1.224646799147353207E-16, -1.000000000000000000 ) ) ;
#49 = CARTESIAN_POINT ( 'NONE',  ( 2.444036937190193349E-14, 0.8649999999999991029, 7.000000000000000000 ) ) ;
#50 = EDGE_CURVE ( 'NONE', #169, #169, #35, .T. ) ;
#51 = ADVANCED_FACE ( 'NONE', ( #64 ), #205, .F. ) ;
#52 = FACE_BOUND ( 'NONE', #57, .T. ) ;
#53 = FACE_OUTER_BOUND ( 'NONE', #3, .T. ) ;
#54 = CARTESIAN_POINT ( 'NONE',  ( 7.451997619323488541E-14, 1.499999999999994005, 21.34336946447100658 ) ) ;
#55 = PERSON_AND_ORGANIZATION ( #12, #30 ) ;
#56 = DATE_TIME_ROLE ( 'creation_date' ) ;
#57 = EDGE_LOOP ( 'NONE', ( #225 ) ) ;
#58 = EDGE_CURVE ( 'NONE', #298, #298, #173, .T. ) ;
#59 = CARTESIAN_POINT ( 'NONE',  ( 1.735266225405037467E-13, 1.499999999999995559, 49.70000000000000284 ) ) ;
#60 = CONICAL_SURFACE ( 'NONE', #228, 0.8649999999999991029, 0.5235987755982930425 ) ;
#61 = LOCAL_TIME ( 15, 3, 55.00000000000000000, #237 ) ;
#62 = EDGE_LOOP ( 'NONE', ( #132 ) ) ;
#63 = ORIENTED_EDGE ( 'NONE', *, *, #137, .T. ) ;
#64 = FACE_OUTER_BOUND ( 'NONE', #23, .T. ) ;
#65 = CIRCLE ( 'NONE', #71, 1.499999999999996669 ) ;
#66 = APPROVAL_PERSON_ORGANIZATION ( #80, #154, #7 ) ;
#67 = CARTESIAN_POINT ( 'NONE',  ( 5.935518276033326704E-14, -2.081899558550500280E-15, 17.00000000000000000 ) ) ;
#68 = UNCERTAINTY_MEASURE_WITH_UNIT (LENGTH_MEASURE( 1.000000000000000082E-05 ), #2, 'distance_accuracy_value', 'NONE');
#69 = DIRECTION ( 'NONE',  ( 4.275831445896958607E-31, 1.000000000000000000, 1.224646799147353207E-16 ) ) ;
#70 = FACE_OUTER_BOUND ( 'NONE', #109, .T. ) ;
#71 = AXIS2_PLACEMENT_3D ( 'NONE', #99, #193, #275 ) ;
#72 = DIRECTION ( 'NONE',  ( 0.0000000000000000000, 1.000000000000000000, 0.0000000000000000000 ) ) ;
#73 = AXIS2_PLACEMENT_3D ( 'NONE', #32, #278, #74 ) ;
#74 = DIRECTION ( 'NONE',  ( 4.275831445896958607E-31, 1.000000000000000000, 1.224646799147352961E-16 ) ) ;
#75 = DIRECTION ( 'NONE',  ( 0.0000000000000000000, -1.000000000000000000, 0.0000000000000000000 ) ) ;
#76 = VERTEX_POINT ( 'NONE', #54 ) ;
#77 = CLOSED_SHELL ( 'NONE', ( #257, #146, #115, #299 ) ) ;
#78 = FACE_OUTER_BOUND ( 'NONE', #6, .T. ) ;
#79 = PERSON_AND_ORGANIZATION_ROLE ( 'design_owner' ) ;
#80 = PERSON_AND_ORGANIZATION ( #12, #30 ) ;
#81 = AXIS2_PLACEMENT_3D ( 'NONE', #280, #122, #233 ) ;
#82 = DATE_AND_TIME ( #108, #25 ) ;
#83 = APPROVAL_DATE_TIME ( #82, #144 ) ;
#84 = CALENDAR_DATE ( 2021, 1, 12 ) ;
#85 = AXIS2_PLACEMENT_3D ( 'NONE', #107, #128, #194 ) ;
#86 = CC_DESIGN_PERSON_AND_ORGANIZATION_ASSIGNMENT ( #216, #79, ( #252 ) ) ;
#87 = ORIENTED_EDGE ( 'NONE', *, *, #297, .T. ) ;
#88 = FACE_OUTER_BOUND ( 'NONE', #163, .T. ) ;
#89 = DIRECTION ( 'NONE',  ( 3.491481338843133355E-15, -1.224646799147353207E-16, 1.000000000000000000 ) ) ;
#90 = CLOSED_SHELL ( 'NONE', ( #51, #176, #155, #249, #222, #123, #4, #14 ) ) ;
#91 = AXIS2_PLACEMENT_3D ( 'NONE', #255, #279, #75 ) ;
#92 = FACE_BOUND ( 'NONE', #253, .T. ) ;
#93 = CC_DESIGN_PERSON_AND_ORGANIZATION_ASSIGNMENT ( #242, #41, ( #260 ) ) ;
#94 = EDGE_LOOP ( 'NONE', ( #223 ) ) ;
#95 = DIRECTION ( 'NONE',  ( -3.491481338843133355E-15, 1.224646799147353207E-16, -1.000000000000000000 ) ) ;
#96 = DIRECTION ( 'NONE',  ( 4.453017212456041231E-31, 1.000000000000000000, 1.253412916168214507E-16 ) ) ;
#97 = CIRCLE ( 'NONE', #119, 1.500000000000001554 ) ;
#98 = DIRECTION ( 'NONE',  ( -3.491481338843133355E-15, 1.224646799147353207E-16, -1.000000000000000000 ) ) ;
#99 = CARTESIAN_POINT ( 'NONE',  ( 7.451997619323488541E-14, -2.613808909768377782E-15, 21.34336946447100658 ) ) ;
#100 = CARTESIAN_POINT ( 'NONE',  ( 6.056776150402961829E-14, -2.124431095542013598E-15, 17.34729635533384240 ) ) ;
#101 = EDGE_LOOP ( 'NONE', ( #200 ) ) ;
#102 = DATE_AND_TIME ( #84, #61 ) ;
#103 = ORIENTED_EDGE ( 'NONE', *, *, #134, .T. ) ;
#104 = MECHANICAL_CONTEXT ( 'NONE', #247, 'mechanical' ) ;
#105 = CIRCLE ( 'NONE', #29, 0.7649999999999999023 ) ;
#106 = LOCAL_TIME ( 15, 3, 55.00000000000000000, #250 ) ;
#107 = CARTESIAN_POINT ( 'NONE',  ( 0.0000000000000000000, 0.0000000000000000000, 0.0000000000000000000 ) ) ;
#108 = CALENDAR_DATE ( 2021, 1, 12 ) ;
#109 = EDGE_LOOP ( 'NONE', ( #180 ) ) ;
#110 = DIRECTION ( 'NONE',  ( -3.491481338843133355E-15, 1.224646799147353207E-16, -1.000000000000000000 ) ) ;
#111 = AXIS2_PLACEMENT_3D ( 'NONE', #207, #231, #72 ) ;
#112 = ORIENTED_EDGE ( 'NONE', *, *, #297, .F. ) ;
#113 = APPROVAL_DATE_TIME ( #224, #36 ) ;
#114 = DIRECTION ( 'NONE',  ( 4.275831445896958607E-31, 1.000000000000000000, 1.224646799147353207E-16 ) ) ;
#115 = ADVANCED_FACE ( 'NONE', ( #294, #226 ), #273, .T. ) ;
#116 = DESIGN_CONTEXT ( 'detailed design', #181, 'design' ) ;
#117 = DIRECTION ( 'NONE',  ( 0.0000000000000000000, 1.000000000000000000, 0.0000000000000000000 ) ) ;
#118 = AXIS2_PLACEMENT_3D ( 'NONE', #165, #140, #114 ) ;
#119 = AXIS2_PLACEMENT_3D ( 'NONE', #27, #48, #189 ) ;
#120 = DIRECTION ( 'NONE',  ( -3.491481338843133355E-15, 1.224646799147353207E-16, -1.000000000000000000 ) ) ;
#121 = FACE_BOUND ( 'NONE', #289, .T. ) ;
#122 = DIRECTION ( 'NONE',  ( -3.491481338843133355E-15, 1.224646799147353207E-16, -1.000000000000000000 ) ) ;
#123 = ADVANCED_FACE ( 'NONE', ( #88, #268 ), #42, .T. ) ;
#124 = FACE_OUTER_BOUND ( 'NONE', #220, .T. ) ;
#125 = CC_DESIGN_DATE_AND_TIME_ASSIGNMENT ( #263, #56, ( #34 ) ) ;
#126 = DIRECTION ( 'NONE',  ( -4.275831445896958607E-31, -1.000000000000000000, -1.224646799147353207E-16 ) ) ;
#127 = VERTEX_POINT ( 'NONE', #191 ) ;
#128 = DIRECTION ( 'NONE',  ( 0.0000000000000000000, 0.0000000000000000000, 1.000000000000000000 ) ) ;
#129 = CIRCLE ( 'NONE', #167, 0.7953844939755810861 ) ;
#130 = CC_DESIGN_SECURITY_CLASSIFICATION ( #18, ( #260 ) ) ;
#131 = APPROVAL_ROLE ( '' ) ;
#132 = ORIENTED_EDGE ( 'NONE', *, *, #239, .F. ) ;
#133 =( NAMED_UNIT ( * ) SI_UNIT ( $, .STERADIAN. ) SOLID_ANGLE_UNIT ( ) );
#134 = EDGE_CURVE ( 'NONE', #127, #127, #161, .T. ) ;
#135 = AXIS2_PLACEMENT_3D ( 'NONE', #201, #292, #246 ) ;
#136 =( NAMED_UNIT ( * ) PLANE_ANGLE_UNIT ( ) SI_UNIT ( $, .RADIAN. ) );
#137 = EDGE_CURVE ( 'NONE', #211, #211, #105, .T. ) ;
#138 = DIRECTION ( 'NONE',  ( 0.0000000000000000000, 1.000000000000000000, 0.0000000000000000000 ) ) ;
#139 = CC_DESIGN_APPROVAL ( #144, ( #260 ) ) ;
#140 = DIRECTION ( 'NONE',  ( -3.491481338843133355E-15, 1.224646799147353207E-16, -1.000000000000000000 ) ) ;
#141 = EDGE_LOOP ( 'NONE', ( #291 ) ) ;
#142 = APPROVAL_STATUS ( 'not_yet_approved' ) ;
#143 = ORIENTED_EDGE ( 'NONE', *, *, #137, .F. ) ;
#144 = APPROVAL ( #198, 'UNSPECIFIED' ) ;
#145 = FACE_OUTER_BOUND ( 'NONE', #206, .T. ) ;
#146 = ADVANCED_FACE ( 'NONE', ( #274, #70 ), #60, .T. ) ;
#147 = PLANE ( 'NONE',  #286 ) ;
#148 = CARTESIAN_POINT ( 'NONE',  ( 5.935518276033326704E-14, 0.7649999999999979039, 17.00000000000000000 ) ) ;
#149 = CC_DESIGN_APPROVAL ( #36, ( #18 ) ) ;
#150 = CARTESIAN_POINT ( 'NONE',  ( 2.444036937190193349E-14, 6.486461060012521290E-33, 7.000000000000000000 ) ) ;
#151 = APPLICATION_PROTOCOL_DEFINITION ( 'international standard', 'config_control_design', 1994, #181 ) ;
#152 = AXIS2_PLACEMENT_3D ( 'NONE', #168, #98, #96 ) ;
#153 = CC_DESIGN_APPROVAL ( #154, ( #34 ) ) ;
#154 = APPROVAL ( #235, 'UNSPECIFIED' ) ;
#155 = ADVANCED_FACE ( 'NONE', ( #145, #171 ), #187, .T. ) ;
#156 = ADVANCED_BREP_SHAPE_REPRESENTATION ( '327043', ( #209, #15, #85 ), #162 ) ;
#157 = ORIENTED_EDGE ( 'NONE', *, *, #239, .T. ) ;
#158 = PERSON_AND_ORGANIZATION_ROLE ( 'creator' ) ;
#159 = FACE_OUTER_BOUND ( 'NONE', #62, .T. ) ;
#160 = EDGE_LOOP ( 'NONE', ( #63 ) ) ;
#161 = CIRCLE ( 'NONE', #281, 0.7649999999999989031 ) ;
#162 =( GEOMETRIC_REPRESENTATION_CONTEXT ( 3 ) GLOBAL_UNCERTAINTY_ASSIGNED_CONTEXT ( ( #68 ) ) GLOBAL_UNIT_ASSIGNED_CONTEXT ( ( #2, #136, #133 ) ) REPRESENTATION_CONTEXT ( 'NONE', 'WORKASPACE' ) );
#163 = EDGE_LOOP ( 'NONE', ( #22 ) ) ;
#164 = DATE_AND_TIME ( #21, #267 ) ;
#165 = CARTESIAN_POINT ( 'NONE',  ( 0.0000000000000000000, 0.0000000000000000000, 0.0000000000000000000 ) ) ;
#166 = DIRECTION ( 'NONE',  ( 4.275831445896958607E-31, 1.000000000000000000, 1.224646799147353454E-16 ) ) ;
#167 = AXIS2_PLACEMENT_3D ( 'NONE', #100, #174, #303 ) ;
#168 = CARTESIAN_POINT ( 'NONE',  ( 8.728703347107829444E-16, -3.061616997868381785E-17, 0.2499999999999998890 ) ) ;
#169 = VERTEX_POINT ( 'NONE', #256 ) ;
#170 = PRODUCT_RELATED_PRODUCT_CATEGORY ( 'detail', '', ( #252 ) ) ;
#171 = FACE_OUTER_BOUND ( 'NONE', #160, .T. ) ;
#172 = CC_DESIGN_PERSON_AND_ORGANIZATION_ASSIGNMENT ( #196, #178, ( #34 ) ) ;
#173 = CIRCLE ( 'NONE', #46, 0.8649999999999999911 ) ;
#174 = DIRECTION ( 'NONE',  ( -3.491481338843133355E-15, 1.224646799147353207E-16, -1.000000000000000000 ) ) ;
#175 = DIRECTION ( 'NONE',  ( -3.491481338843133355E-15, 1.224646799147353207E-16, -1.000000000000000000 ) ) ;
#176 = ADVANCED_FACE ( 'NONE', ( #230, #121 ), #1, .T. ) ;
#177 = COORDINATED_UNIVERSAL_TIME_OFFSET ( 1, 0, .AHEAD. ) ;
#178 = PERSON_AND_ORGANIZATION_ROLE ( 'creator' ) ;
#179 = AXIS2_PLACEMENT_3D ( 'NONE', #283, #175, #301 ) ;
#180 = ORIENTED_EDGE ( 'NONE', *, *, #202, .T. ) ;
#181 = APPLICATION_CONTEXT ( 'configuration controlled 3d designs of mechanical parts and assemblies' ) ;
#182 = EDGE_CURVE ( 'NONE', #210, #210, #129, .T. ) ;
#183 = DIRECTION ( 'NONE',  ( -4.275831445896958607E-31, -1.000000000000000000, -1.224646799147353207E-16 ) ) ;
#184 = FACE_OUTER_BOUND ( 'NONE', #141, .T. ) ;
#185 = DIRECTION ( 'NONE',  ( 0.0000000000000000000, 1.000000000000000000, 0.0000000000000000000 ) ) ;
#186 = EDGE_CURVE ( 'NONE', #76, #76, #65, .T. ) ;
#187 = CYLINDRICAL_SURFACE ( 'NONE', #254, 0.7649999999999994582 ) ;
#188 = DIRECTION ( 'NONE',  ( 3.491481338843133355E-15, -1.224646799147353207E-16, 1.000000000000000000 ) ) ;
#189 = DIRECTION ( 'NONE',  ( 0.0000000000000000000, 1.000000000000000000, 0.0000000000000000000 ) ) ;
#190 = EDGE_CURVE ( 'NONE', #215, #215, #236, .T. ) ;
#191 = CARTESIAN_POINT ( 'NONE',  ( 2.504511167915743751E-14, 0.7649999999999980149, 7.173205080756892116 ) ) ;
#192 = TOROIDAL_SURFACE ( 'NONE', #81, 2.765000000000000124, 2.000000000000000000 ) ;
#193 = DIRECTION ( 'NONE',  ( -3.491481338843133355E-15, 1.224646799147353207E-16, -1.000000000000000000 ) ) ;
#194 = DIRECTION ( 'NONE',  ( 1.000000000000000000, 0.0000000000000000000, 0.0000000000000000000 ) ) ;
#195 = SECURITY_CLASSIFICATION_LEVEL ( 'unclassified' ) ;
#196 = PERSON_AND_ORGANIZATION ( #12, #30 ) ;
#197 = APPROVAL_PERSON_ORGANIZATION ( #287, #144, #131 ) ;
#198 = APPROVAL_STATUS ( 'not_yet_approved' ) ;
#199 = COORDINATED_UNIVERSAL_TIME_OFFSET ( 1, 0, .AHEAD. ) ;
#200 = ORIENTED_EDGE ( 'NONE', *, *, #202, .F. ) ;
#201 = CARTESIAN_POINT ( 'NONE',  ( 1.745740669421566678E-13, -6.123233995736766085E-15, 50.00000000000000000 ) ) ;
#202 = EDGE_CURVE ( 'NONE', #37, #37, #276, .T. ) ;
#203 = CARTESIAN_POINT ( 'NONE',  ( 0.0000000000000000000, 0.0000000000000000000, 0.0000000000000000000 ) ) ;
#204 = PERSON_AND_ORGANIZATION ( #12, #30 ) ;
#205 = PLANE ( 'NONE',  #295 ) ;
#206 = EDGE_LOOP ( 'NONE', ( #290 ) ) ;
#207 = CARTESIAN_POINT ( 'NONE',  ( 2.444036937190193349E-14, -8.572527594031473190E-16, 7.000000000000000000 ) ) ;
#208 = DIRECTION ( 'NONE',  ( 3.491481338843133355E-15, -1.224646799147353207E-16, 1.000000000000000000 ) ) ;
#209 = MANIFOLD_SOLID_BREP ( 'Corps-Déplacer/Copier1[1]', #90 ) ;
#210 = VERTEX_POINT ( 'NONE', #302 ) ;
#211 = VERTEX_POINT ( 'NONE', #148 ) ;
#212 = FACE_OUTER_BOUND ( 'NONE', #19, .T. ) ;
#213 = CONICAL_SURFACE ( 'NONE', #259, 1.200000000000001732, 0.7853981633974453924 ) ;
#214 = CARTESIAN_POINT ( 'NONE',  ( 0.0000000000000000000, 0.7206624327025946686, 0.0000000000000000000 ) ) ;
#215 = VERTEX_POINT ( 'NONE', #264 ) ;
#216 = PERSON_AND_ORGANIZATION ( #12, #30 ) ;
#217 = CALENDAR_DATE ( 2021, 1, 12 ) ;
#218 = EDGE_LOOP ( 'NONE', ( #112 ) ) ;
#219 = DIRECTION ( 'NONE',  ( -3.491481338843133355E-15, 1.224646799147353207E-16, -1.000000000000000000 ) ) ;
#220 = EDGE_LOOP ( 'NONE', ( #241 ) ) ;
#221 = CONICAL_SURFACE ( 'NONE', #91, 1.499999999999996669, 0.1745329251994259534 ) ;
#222 = ADVANCED_FACE ( 'NONE', ( #52, #124 ), #221, .T. ) ;
#223 = ORIENTED_EDGE ( 'NONE', *, *, #190, .F. ) ;
#224 = DATE_AND_TIME ( #17, #106 ) ;
#225 = ORIENTED_EDGE ( 'NONE', *, *, #182, .F. ) ;
#226 = FACE_OUTER_BOUND ( 'NONE', #13, .T. ) ;
#227 = CC_DESIGN_DATE_AND_TIME_ASSIGNMENT ( #164, #244, ( #18 ) ) ;
#228 = AXIS2_PLACEMENT_3D ( 'NONE', #26, #208, #258 ) ;
#229 = CARTESIAN_POINT ( 'NONE',  ( 0.0000000000000000000, 0.0000000000000000000, 0.0000000000000000000 ) ) ;
#230 = FACE_OUTER_BOUND ( 'NONE', #45, .T. ) ;
#231 = DIRECTION ( 'NONE',  ( -3.491481338843133355E-15, 1.224646799147353207E-16, -1.000000000000000000 ) ) ;
#232 = AXIS2_PLACEMENT_3D ( 'NONE', #28, #188, #31 ) ;
#233 = DIRECTION ( 'NONE',  ( 4.275831445896958607E-31, 1.000000000000000000, 1.224646799147353207E-16 ) ) ;
#234 = DIRECTION ( 'NONE',  ( 3.491481338843133355E-15, -1.224646799147353207E-16, 1.000000000000000000 ) ) ;
#235 = APPROVAL_STATUS ( 'not_yet_approved' ) ;
#236 = CIRCLE ( 'NONE', #111, 0.8649999999999999911 ) ;
#237 = COORDINATED_UNIVERSAL_TIME_OFFSET ( 1, 0, .AHEAD. ) ;
#238 = ORIENTED_EDGE ( 'NONE', *, *, #58, .T. ) ;
#239 = EDGE_CURVE ( 'NONE', #240, #240, #97, .T. ) ;
#240 = VERTEX_POINT ( 'NONE', #59 ) ;
#241 = ORIENTED_EDGE ( 'NONE', *, *, #186, .T. ) ;
#242 = PERSON_AND_ORGANIZATION ( #12, #30 ) ;
#243 = AXIS2_PLACEMENT_3D ( 'NONE', #47, #269, #69 ) ;
#244 = DATE_TIME_ROLE ( 'classification_date' ) ;
#245 = PLANE ( 'NONE',  #243 ) ;
#246 = DIRECTION ( 'NONE',  ( 0.0000000000000000000, 1.000000000000000000, 0.0000000000000000000 ) ) ;
#247 = APPLICATION_CONTEXT ( 'configuration controlled 3d designs of mechanical parts and assemblies' ) ;
#248 = CARTESIAN_POINT ( 'NONE',  ( 1.745740669421566678E-13, -6.123233995736766085E-15, 50.00000000000000000 ) ) ;
#249 = ADVANCED_FACE ( 'NONE', ( #53, #212 ), #192, .F. ) ;
#250 = COORDINATED_UNIVERSAL_TIME_OFFSET ( 1, 0, .AHEAD. ) ;
#251 = CARTESIAN_POINT ( 'NONE',  ( 2.504511167915743751E-14, -8.784642641776459355E-16, 7.173205080756892116 ) ) ;
#252 = PRODUCT ( '327043', '327043', '', ( #104 ) ) ;
#253 = EDGE_LOOP ( 'NONE', ( #293 ) ) ;
#254 = AXIS2_PLACEMENT_3D ( 'NONE', #229, #95, #261 ) ;
#255 = CARTESIAN_POINT ( 'NONE',  ( 7.451997619323488541E-14, -2.613808909768377782E-15, 21.34336946447100658 ) ) ;
#256 = CARTESIAN_POINT ( 'NONE',  ( 1.745740669421566678E-13, 1.199999999999995515, 50.00000000000000000 ) ) ;
#257 = ADVANCED_FACE ( 'NONE', ( #78 ), #300, .F. ) ;
#258 = DIRECTION ( 'NONE',  ( -4.453017212456041231E-31, -1.000000000000000000, -1.253412916168214507E-16 ) ) ;
#259 = AXIS2_PLACEMENT_3D ( 'NONE', #248, #44, #117 ) ;
#260 = PRODUCT_DEFINITION_FORMATION_WITH_SPECIFIED_SOURCE ( 'ANY', '', #252, .NOT_KNOWN. ) ;
#261 = DIRECTION ( 'NONE',  ( 4.275831445896957731E-31, 1.000000000000000000, 1.224646799147353207E-16 ) ) ;
#262 = FACE_OUTER_BOUND ( 'NONE', #94, .T. ) ;
#263 = DATE_AND_TIME ( #217, #277 ) ;
#264 = CARTESIAN_POINT ( 'NONE',  ( 2.444036937190193349E-14, 0.8649999999999991029, 7.000000000000000000 ) ) ;
#265 = ORIENTED_EDGE ( 'NONE', *, *, #190, .T. ) ;
#266 = APPROVAL_DATE_TIME ( #102, #154 ) ;
#267 = LOCAL_TIME ( 15, 3, 55.00000000000000000, #199 ) ;
#268 = FACE_OUTER_BOUND ( 'NONE', #10, .T. ) ;
#269 = DIRECTION ( 'NONE',  ( -3.491481338843133355E-15, 1.224646799147353207E-16, -1.000000000000000000 ) ) ;
#270 = DIRECTION ( 'NONE',  ( -3.491481338843133355E-15, 1.224646799147353207E-16, -1.000000000000000000 ) ) ;
#271 = APPROVAL_PERSON_ORGANIZATION ( #204, #36, #11 ) ;
#272 = SHAPE_DEFINITION_REPRESENTATION ( #20, #156 ) ;
#273 = CYLINDRICAL_SURFACE ( 'NONE', #118, 0.8649999999999995470 ) ;
#274 = FACE_BOUND ( 'NONE', #218, .T. ) ;
#275 = DIRECTION ( 'NONE',  ( 0.0000000000000000000, 1.000000000000000000, 0.0000000000000000000 ) ) ;
#276 = CIRCLE ( 'NONE', #152, 0.8649999999999991029 ) ;
#277 = LOCAL_TIME ( 15, 3, 55.00000000000000000, #177 ) ;
#278 = DIRECTION ( 'NONE',  ( -3.491481338843133355E-15, 1.224646799147353207E-16, -1.000000000000000000 ) ) ;
#279 = DIRECTION ( 'NONE',  ( 3.491481338843133355E-15, -1.224646799147353207E-16, 1.000000000000000000 ) ) ;
#280 = CARTESIAN_POINT ( 'NONE',  ( 5.935518276033326704E-14, -2.168404344971008868E-15, 17.00000000000000000 ) ) ;
#281 = AXIS2_PLACEMENT_3D ( 'NONE', #251, #120, #138 ) ;
#282 = CC_DESIGN_PERSON_AND_ORGANIZATION_ASSIGNMENT ( #55, #285, ( #18 ) ) ;
#283 = CARTESIAN_POINT ( 'NONE',  ( 2.504511167915743751E-14, -8.784642641776459355E-16, 7.173205080756892116 ) ) ;
#284 = APPLICATION_PROTOCOL_DEFINITION ( 'international standard', 'config_control_design', 1994, #247 ) ;
#285 = PERSON_AND_ORGANIZATION_ROLE ( 'classification_officer' ) ;
#286 = AXIS2_PLACEMENT_3D ( 'NONE', #150, #234, #126 ) ;
#287 = PERSON_AND_ORGANIZATION ( #12, #30 ) ;
#288 = COORDINATED_UNIVERSAL_TIME_OFFSET ( 1, 0, .AHEAD. ) ;
#289 = EDGE_LOOP ( 'NONE', ( #103 ) ) ;
#290 = ORIENTED_EDGE ( 'NONE', *, *, #134, .F. ) ;
#291 = ORIENTED_EDGE ( 'NONE', *, *, #50, .F. ) ;
#292 = DIRECTION ( 'NONE',  ( -3.491481338843133355E-15, 1.224646799147353207E-16, -1.000000000000000000 ) ) ;
#293 = ORIENTED_EDGE ( 'NONE', *, *, #50, .T. ) ;
#294 = FACE_OUTER_BOUND ( 'NONE', #101, .T. ) ;
#295 = AXIS2_PLACEMENT_3D ( 'NONE', #24, #89, #183 ) ;
#296 = DIRECTION ( 'NONE',  ( 0.0000000000000000000, 1.000000000000000000, 0.0000000000000000000 ) ) ;
#297 = EDGE_CURVE ( 'NONE', #5, #5, #40, .T. ) ;
#298 = VERTEX_POINT ( 'NONE', #49 ) ;
#299 = ADVANCED_FACE ( 'NONE', ( #262 ), #147, .T. ) ;
#300 = PLANE ( 'NONE',  #232 ) ;
#301 = DIRECTION ( 'NONE',  ( 0.0000000000000000000, 1.000000000000000000, 0.0000000000000000000 ) ) ;
#302 = CARTESIAN_POINT ( 'NONE',  ( 6.056776150402961829E-14, 0.7953844939755788657, 17.34729635533384240 ) ) ;
#303 = DIRECTION ( 'NONE',  ( 0.0000000000000000000, 1.000000000000000000, 0.0000000000000000000 ) ) ;
ENDSEC;
END-ISO-10303-21;
