ISO-10303-21;
HEADER;
FILE_DESCRIPTION (( 'STEP AP203' ),
    '1' );
FILE_NAME ('327042.step',
    '2021-12-01T14:03:54',
    ( '' ),
    ( '' ),
    'SwSTEP 2.0',
    'SolidWorks 2019',
    '' );
FILE_SCHEMA (( 'CONFIG_CONTROL_DESIGN' ));
ENDSEC;

DATA;
#1 = DIRECTION ( 'NONE',  ( -3.491481338843133355E-15, 1.224646799147353207E-16, -1.000000000000000000 ) ) ;
#2 = CARTESIAN_POINT ( 'NONE',  ( 5.935518276033326704E-14, -2.081899558550500280E-15, 17.00000000000000000 ) ) ;
#3 = AXIS2_PLACEMENT_3D ( 'NONE', #280, #146, #239 ) ;
#4 = CONICAL_SURFACE ( 'NONE', #147, 1.200000000000001732, 0.7853981633974453924 ) ;
#5 = CARTESIAN_POINT ( 'NONE',  ( 0.0000000000000000000, 0.0000000000000000000, 0.0000000000000000000 ) ) ;
#6 = AXIS2_PLACEMENT_3D ( 'NONE', #57, #75, #200 ) ;
#7 = DIRECTION ( 'NONE',  ( 0.0000000000000000000, 1.000000000000000000, 0.0000000000000000000 ) ) ;
#8 = FACE_OUTER_BOUND ( 'NONE', #279, .T. ) ;
#9 = DIRECTION ( 'NONE',  ( 3.491481338843133355E-15, -1.224646799147353207E-16, 1.000000000000000000 ) ) ;
#10 = ADVANCED_BREP_SHAPE_REPRESENTATION ( '327042', ( #28, #129, #55 ), #247 ) ;
#11 = AXIS2_PLACEMENT_3D ( 'NONE', #73, #179, #198 ) ;
#12 = EDGE_CURVE ( 'NONE', #201, #201, #58, .T. ) ;
#13 = VERTEX_POINT ( 'NONE', #290 ) ;
#14 = PERSON_AND_ORGANIZATION ( #23, #192 ) ;
#15 = CIRCLE ( 'NONE', #189, 0.7903844939755804155 ) ;
#16 = DATE_AND_TIME ( #250, #152 ) ;
#17 = APPROVAL_STATUS ( 'not_yet_approved' ) ;
#18 = PRODUCT ( '327042', '327042', '', ( #83 ) ) ;
#19 = DIRECTION ( 'NONE',  ( 0.0000000000000000000, 1.000000000000000000, 0.0000000000000000000 ) ) ;
#20 = DIRECTION ( 'NONE',  ( -3.491481338843133355E-15, 1.224646799147353207E-16, -1.000000000000000000 ) ) ;
#21 = PERSON_AND_ORGANIZATION_ROLE ( 'design_supplier' ) ;
#22 = DIRECTION ( 'NONE',  ( -3.491481338843133355E-15, 1.224646799147353207E-16, -1.000000000000000000 ) ) ;
#23 = PERSON ( 'UNSPECIFIED', 'UNSPECIFIED', 'UNSPECIFIED', ('UNSPECIFIED'), ('UNSPECIFIED'), ('UNSPECIFIED') ) ;
#24 = EDGE_LOOP ( 'NONE', ( #136 ) ) ;
#25 = EDGE_CURVE ( 'NONE', #77, #77, #270, .T. ) ;
#26 = DIRECTION ( 'NONE',  ( -3.491481338843133355E-15, 1.224646799147353207E-16, -1.000000000000000000 ) ) ;
#27 = APPROVAL ( #69, 'UNSPECIFIED' ) ;
#28 = MANIFOLD_SOLID_BREP ( 'Corps-Déplacer/Copier1[1]', #196 ) ;
#29 = FACE_BOUND ( 'NONE', #234, .T. ) ;
#30 = CARTESIAN_POINT ( 'NONE',  ( 2.504511167915743751E-14, -8.784642641776459355E-16, 7.173205080756892116 ) ) ;
#31 = EDGE_CURVE ( 'NONE', #221, #221, #292, .T. ) ;
#32 = DIRECTION ( 'NONE',  ( -3.491481338843133355E-15, 1.224646799147353207E-16, -1.000000000000000000 ) ) ;
#33 = DIRECTION ( 'NONE',  ( -3.491481338843133355E-15, 1.224646799147353207E-16, -1.000000000000000000 ) ) ;
#34 = AXIS2_PLACEMENT_3D ( 'NONE', #97, #22, #19 ) ;
#35 = DIRECTION ( 'NONE',  ( -3.491481338843133355E-15, 1.224646799147353207E-16, -1.000000000000000000 ) ) ;
#36 = COORDINATED_UNIVERSAL_TIME_OFFSET ( 1, 0, .AHEAD. ) ;
#37 = PERSON_AND_ORGANIZATION ( #23, #192 ) ;
#38 = CIRCLE ( 'NONE', #11, 0.8599999999999990985 ) ;
#39 = ORIENTED_EDGE ( 'NONE', *, *, #25, .F. ) ;
#40 = APPLICATION_CONTEXT ( 'configuration controlled 3d designs of mechanical parts and assemblies' ) ;
#41 = DIRECTION ( 'NONE',  ( 0.0000000000000000000, 1.000000000000000000, 0.0000000000000000000 ) ) ;
#42 = CC_DESIGN_PERSON_AND_ORGANIZATION_ASSIGNMENT ( #63, #163, ( #168 ) ) ;
#43 = CIRCLE ( 'NONE', #214, 0.7599999999999988987 ) ;
#44 = PERSON_AND_ORGANIZATION_ROLE ( 'classification_officer' ) ;
#45 = CARTESIAN_POINT ( 'NONE',  ( -4.952787760780032350E-31, 1.737204094610790022E-32, -1.418534793721993143E-16 ) ) ;
#46 = CALENDAR_DATE ( 2021, 1, 12 ) ;
#47 = ORIENTED_EDGE ( 'NONE', *, *, #25, .T. ) ;
#48 = CC_DESIGN_PERSON_AND_ORGANIZATION_ASSIGNMENT ( #251, #60, ( #18 ) ) ;
#49 = APPROVAL ( #17, 'UNSPECIFIED' ) ;
#50 = EDGE_LOOP ( 'NONE', ( #141 ) ) ;
#51 = FACE_OUTER_BOUND ( 'NONE', #50, .T. ) ;
#52 = CIRCLE ( 'NONE', #34, 0.8599999999999999867 ) ;
#53 = DIRECTION ( 'NONE',  ( 4.275831445896958607E-31, 1.000000000000000000, 1.224646799147353207E-16 ) ) ;
#54 = CARTESIAN_POINT ( 'NONE',  ( 2.444036937190193349E-14, 6.448967065445974577E-33, 7.000000000000000000 ) ) ;
#55 = AXIS2_PLACEMENT_3D ( 'NONE', #158, #104, #248 ) ;
#56 = PLANE ( 'NONE',  #218 ) ;
#57 = CARTESIAN_POINT ( 'NONE',  ( 2.444036937190193349E-14, 6.448967065445974577E-33, 7.000000000000000000 ) ) ;
#58 = CIRCLE ( 'NONE', #231, 1.500000000000001554 ) ;
#59 = CC_DESIGN_PERSON_AND_ORGANIZATION_ASSIGNMENT ( #230, #62, ( #93 ) ) ;
#60 = PERSON_AND_ORGANIZATION_ROLE ( 'design_owner' ) ;
#61 =( NAMED_UNIT ( * ) PLANE_ANGLE_UNIT ( ) SI_UNIT ( $, .RADIAN. ) );
#62 = PERSON_AND_ORGANIZATION_ROLE ( 'creator' ) ;
#63 = PERSON_AND_ORGANIZATION ( #23, #192 ) ;
#64 = EDGE_LOOP ( 'NONE', ( #166 ) ) ;
#65 = PERSON_AND_ORGANIZATION ( #23, #192 ) ;
#66 = ORIENTED_EDGE ( 'NONE', *, *, #110, .F. ) ;
#67 = DIRECTION ( 'NONE',  ( -3.491481338843133355E-15, 1.224646799147353207E-16, -1.000000000000000000 ) ) ;
#68 = AXIS2_PLACEMENT_3D ( 'NONE', #150, #99, #199 ) ;
#69 = APPROVAL_STATUS ( 'not_yet_approved' ) ;
#70 = DIRECTION ( 'NONE',  ( 0.0000000000000000000, 1.000000000000000000, 0.0000000000000000000 ) ) ;
#71 = DIRECTION ( 'NONE',  ( 3.491481338843133355E-15, -1.224646799147353207E-16, 1.000000000000000000 ) ) ;
#72 = AXIS2_PLACEMENT_3D ( 'NONE', #98, #225, #181 ) ;
#73 = CARTESIAN_POINT ( 'NONE',  ( 8.728703347107829444E-16, -3.061616997868381785E-17, 0.2499999999999998890 ) ) ;
#74 = FACE_OUTER_BOUND ( 'NONE', #275, .T. ) ;
#75 = DIRECTION ( 'NONE',  ( 3.491481338843133355E-15, -1.224646799147353207E-16, 1.000000000000000000 ) ) ;
#76 = APPROVAL_PERSON_ORGANIZATION ( #37, #49, #111 ) ;
#77 = VERTEX_POINT ( 'NONE', #123 ) ;
#78 = CC_DESIGN_DATE_AND_TIME_ASSIGNMENT ( #114, #303, ( #193 ) ) ;
#79 = CARTESIAN_POINT ( 'NONE',  ( 6.056776150402963091E-14, 0.7903844939755781951, 17.34729635533384595 ) ) ;
#80 = CARTESIAN_POINT ( 'NONE',  ( -1.892735826383161356E-31, 0.7156624327025948862, -5.421010862427523403E-17 ) ) ;
#81 = ORIENTED_EDGE ( 'NONE', *, *, #120, .T. ) ;
#82 = APPROVAL_PERSON_ORGANIZATION ( #14, #137, #205 ) ;
#83 = MECHANICAL_CONTEXT ( 'NONE', #40, 'mechanical' ) ;
#84 = APPLICATION_CONTEXT ( 'configuration controlled 3d designs of mechanical parts and assemblies' ) ;
#85 =( LENGTH_UNIT ( ) NAMED_UNIT ( * ) SI_UNIT ( .MILLI., .METRE. ) );
#86 = ORIENTED_EDGE ( 'NONE', *, *, #31, .F. ) ;
#87 = DATE_AND_TIME ( #297, #133 ) ;
#88 = CONICAL_SURFACE ( 'NONE', #68, 1.499999999999996669, 0.1745329251994263142 ) ;
#89 = CARTESIAN_POINT ( 'NONE',  ( 1.735266225405037467E-13, -6.086494591762345225E-15, 49.70000000000000284 ) ) ;
#90 = SECURITY_CLASSIFICATION_LEVEL ( 'unclassified' ) ;
#91 = EDGE_LOOP ( 'NONE', ( #167 ) ) ;
#92 = ORIENTED_EDGE ( 'NONE', *, *, #12, .F. ) ;
#93 = PRODUCT_DEFINITION ( 'UNKNOWN', '', #168, #211 ) ;
#94 = FACE_BOUND ( 'NONE', #91, .T. ) ;
#95 = CIRCLE ( 'NONE', #295, 1.499999999999996669 ) ;
#96 = APPROVAL_ROLE ( '' ) ;
#97 = CARTESIAN_POINT ( 'NONE',  ( 2.444036937190193349E-14, -8.572527594031473190E-16, 7.000000000000000000 ) ) ;
#98 = CARTESIAN_POINT ( 'NONE',  ( 2.504511167915743751E-14, -8.784642641776459355E-16, 7.173205080756892116 ) ) ;
#99 = DIRECTION ( 'NONE',  ( 3.491481338843133355E-15, -1.224646799147353207E-16, 1.000000000000000000 ) ) ;
#100 = DIRECTION ( 'NONE',  ( -3.491481338843133355E-15, 1.224646799147353207E-16, -1.000000000000000000 ) ) ;
#101 = CYLINDRICAL_SURFACE ( 'NONE', #107, 0.8599999999999995426 ) ;
#102 = CARTESIAN_POINT ( 'NONE',  ( 7.461898206643746974E-14, -2.617281568332106571E-15, 21.37172587356909759 ) ) ;
#103 = CIRCLE ( 'NONE', #226, 0.7600000000000001199 ) ;
#104 = DIRECTION ( 'NONE',  ( 0.0000000000000000000, 0.0000000000000000000, 1.000000000000000000 ) ) ;
#105 = VERTEX_POINT ( 'NONE', #203 ) ;
#106 = VERTEX_POINT ( 'NONE', #276 ) ;
#107 = AXIS2_PLACEMENT_3D ( 'NONE', #266, #153, #151 ) ;
#108 = APPROVAL_STATUS ( 'not_yet_approved' ) ;
#109 = EDGE_LOOP ( 'NONE', ( #190 ) ) ;
#110 = EDGE_CURVE ( 'NONE', #160, #160, #15, .T. ) ;
#111 = APPROVAL_ROLE ( '' ) ;
#112 = CC_DESIGN_APPROVAL ( #27, ( #193 ) ) ;
#113 = PLANE ( 'NONE',  #243 ) ;
#114 = DATE_AND_TIME ( #46, #277 ) ;
#115 = FACE_BOUND ( 'NONE', #257, .T. ) ;
#116 = EDGE_CURVE ( 'NONE', #106, #106, #52, .T. ) ;
#117 = ADVANCED_FACE ( 'NONE', ( #122, #115 ), #4, .T. ) ;
#118 = SHAPE_DEFINITION_REPRESENTATION ( #191, #10 ) ;
#119 = DIRECTION ( 'NONE',  ( -3.491481338843133355E-15, 1.224646799147353207E-16, -1.000000000000000000 ) ) ;
#120 = EDGE_CURVE ( 'NONE', #246, #246, #288, .T. ) ;
#121 = DIRECTION ( 'NONE',  ( 0.0000000000000000000, 1.000000000000000000, 0.0000000000000000000 ) ) ;
#122 = FACE_OUTER_BOUND ( 'NONE', #219, .T. ) ;
#123 = CARTESIAN_POINT ( 'NONE',  ( 1.745740669421566678E-13, 1.199999999999995515, 50.00000000000000000 ) ) ;
#124 = ADVANCED_FACE ( 'NONE', ( #143 ), #113, .F. ) ;
#125 = CARTESIAN_POINT ( 'NONE',  ( 5.935518276033326704E-14, -2.168404344971008868E-15, 17.00000000000000000 ) ) ;
#126 = DIRECTION ( 'NONE',  ( -3.491481338843133355E-15, 1.224646799147353207E-16, -1.000000000000000000 ) ) ;
#127 = FACE_OUTER_BOUND ( 'NONE', #238, .T. ) ;
#128 = FACE_OUTER_BOUND ( 'NONE', #188, .T. ) ;
#129 = MANIFOLD_SOLID_BREP ( 'Corps-Déplacer/Copier1[2]', #155 ) ;
#130 = ORIENTED_EDGE ( 'NONE', *, *, #206, .T. ) ;
#131 = APPROVAL_DATE_TIME ( #296, #137 ) ;
#132 = DATE_TIME_ROLE ( 'creation_date' ) ;
#133 = LOCAL_TIME ( 15, 3, 54.00000000000000000, #212 ) ;
#134 = UNCERTAINTY_MEASURE_WITH_UNIT (LENGTH_MEASURE( 1.000000000000000082E-05 ), #85, 'distance_accuracy_value', 'NONE');
#135 = APPLICATION_PROTOCOL_DEFINITION ( 'international standard', 'config_control_design', 1994, #40 ) ;
#136 = ORIENTED_EDGE ( 'NONE', *, *, #249, .T. ) ;
#137 = APPROVAL ( #108, 'UNSPECIFIED' ) ;
#138 = ADVANCED_FACE ( 'NONE', ( #94, #283 ), #180, .T. ) ;
#139 = CC_DESIGN_PERSON_AND_ORGANIZATION_ASSIGNMENT ( #300, #44, ( #193 ) ) ;
#140 = CALENDAR_DATE ( 2021, 1, 12 ) ;
#141 = ORIENTED_EDGE ( 'NONE', *, *, #116, .F. ) ;
#142 = ORIENTED_EDGE ( 'NONE', *, *, #229, .T. ) ;
#143 = FACE_OUTER_BOUND ( 'NONE', #169, .T. ) ;
#144 = COORDINATED_UNIVERSAL_TIME_OFFSET ( 1, 0, .AHEAD. ) ;
#145 = CARTESIAN_POINT ( 'NONE',  ( 2.444036937190193349E-14, -8.572527594031473190E-16, 7.000000000000000000 ) ) ;
#146 = DIRECTION ( 'NONE',  ( -3.491481338843133355E-15, 1.224646799147353207E-16, -1.000000000000000000 ) ) ;
#147 = AXIS2_PLACEMENT_3D ( 'NONE', #187, #67, #255 ) ;
#148 = CARTESIAN_POINT ( 'NONE',  ( -2.476393880390016175E-31, 8.686020473053950112E-33, -7.092673968609965713E-17 ) ) ;
#149 = ADVANCED_FACE ( 'NONE', ( #173, #220 ), #285, .T. ) ;
#150 = CARTESIAN_POINT ( 'NONE',  ( 7.461898206643746974E-14, -2.617281568332106571E-15, 21.37172587356909759 ) ) ;
#151 = DIRECTION ( 'NONE',  ( 4.275831445896958607E-31, 1.000000000000000000, 1.224646799147353207E-16 ) ) ;
#152 = LOCAL_TIME ( 15, 3, 54.00000000000000000, #159 ) ;
#153 = DIRECTION ( 'NONE',  ( -3.491481338843133355E-15, 1.224646799147353207E-16, -1.000000000000000000 ) ) ;
#154 = EDGE_CURVE ( 'NONE', #274, #274, #38, .T. ) ;
#155 = CLOSED_SHELL ( 'NONE', ( #291, #138, #258, #272 ) ) ;
#156 = DIRECTION ( 'NONE',  ( 4.275831445896958607E-31, 1.000000000000000000, 1.224646799147353454E-16 ) ) ;
#157 = APPLICATION_PROTOCOL_DEFINITION ( 'international standard', 'config_control_design', 1994, #84 ) ;
#158 = CARTESIAN_POINT ( 'NONE',  ( 0.0000000000000000000, 0.0000000000000000000, 0.0000000000000000000 ) ) ;
#159 = COORDINATED_UNIVERSAL_TIME_OFFSET ( 1, 0, .AHEAD. ) ;
#160 = VERTEX_POINT ( 'NONE', #79 ) ;
#161 = EDGE_LOOP ( 'NONE', ( #299 ) ) ;
#162 = CC_DESIGN_APPROVAL ( #49, ( #168 ) ) ;
#163 = PERSON_AND_ORGANIZATION_ROLE ( 'creator' ) ;
#164 = EDGE_LOOP ( 'NONE', ( #142 ) ) ;
#165 = ADVANCED_FACE ( 'NONE', ( #177, #284 ), #281, .F. ) ;
#166 = ORIENTED_EDGE ( 'NONE', *, *, #154, .T. ) ;
#167 = ORIENTED_EDGE ( 'NONE', *, *, #120, .F. ) ;
#168 = PRODUCT_DEFINITION_FORMATION_WITH_SPECIFIED_SOURCE ( 'ANY', '', #18, .NOT_KNOWN. ) ;
#169 = EDGE_LOOP ( 'NONE', ( #39 ) ) ;
#170 = CC_DESIGN_DATE_AND_TIME_ASSIGNMENT ( #16, #132, ( #93 ) ) ;
#171 = DIRECTION ( 'NONE',  ( -3.491481338843133355E-15, 1.224646799147353207E-16, -1.000000000000000000 ) ) ;
#172 = ADVANCED_FACE ( 'NONE', ( #29, #197 ), #88, .T. ) ;
#173 = FACE_OUTER_BOUND ( 'NONE', #216, .T. ) ;
#174 = PRODUCT_RELATED_PRODUCT_CATEGORY ( 'detail', '', ( #18 ) ) ;
#175 = CYLINDRICAL_SURFACE ( 'NONE', #176, 0.7599999999999994538 ) ;
#176 = AXIS2_PLACEMENT_3D ( 'NONE', #263, #33, #178 ) ;
#177 = FACE_OUTER_BOUND ( 'NONE', #109, .T. ) ;
#178 = DIRECTION ( 'NONE',  ( 4.275831445896958607E-31, 1.000000000000000000, 1.224646799147353207E-16 ) ) ;
#179 = DIRECTION ( 'NONE',  ( -3.491481338843133355E-15, 1.224646799147353207E-16, -1.000000000000000000 ) ) ;
#180 = CONICAL_SURFACE ( 'NONE', #223, 0.8599999999999990985, 0.5235987755982922653 ) ;
#181 = DIRECTION ( 'NONE',  ( 0.0000000000000000000, 1.000000000000000000, 0.0000000000000000000 ) ) ;
#182 = VERTEX_POINT ( 'NONE', #271 ) ;
#183 = CARTESIAN_POINT ( 'NONE',  ( 2.444036937190193349E-14, 0.8599999999999990985, 7.000000000000000000 ) ) ;
#184 = AXIS2_PLACEMENT_3D ( 'NONE', #148, #9, #240 ) ;
#185 = APPROVAL_DATE_TIME ( #87, #49 ) ;
#186 = AXIS2_PLACEMENT_3D ( 'NONE', #125, #265, #53 ) ;
#187 = CARTESIAN_POINT ( 'NONE',  ( 1.745740669421566678E-13, -6.123233995736766085E-15, 50.00000000000000000 ) ) ;
#188 = EDGE_LOOP ( 'NONE', ( #86 ) ) ;
#189 = AXIS2_PLACEMENT_3D ( 'NONE', #232, #26, #121 ) ;
#190 = ORIENTED_EDGE ( 'NONE', *, *, #206, .F. ) ;
#191 = PRODUCT_DEFINITION_SHAPE ( 'NONE', 'NONE',  #93 ) ;
#192 = ORGANIZATION ( 'UNSPECIFIED', 'UNSPECIFIED', '' ) ;
#193 = SECURITY_CLASSIFICATION ( '', '', #90 ) ;
#194 = DIRECTION ( 'NONE',  ( -4.478906847412180965E-31, -1.000000000000000000, -1.260700200564541324E-16 ) ) ;
#195 = DIRECTION ( 'NONE',  ( 4.275831445896958607E-31, 1.000000000000000000, 1.224646799147353207E-16 ) ) ;
#196 = CLOSED_SHELL ( 'NONE', ( #208, #261, #264, #165, #172, #149, #117, #124 ) ) ;
#197 = FACE_OUTER_BOUND ( 'NONE', #24, .T. ) ;
#198 = DIRECTION ( 'NONE',  ( 4.478906847412180965E-31, 1.000000000000000000, 1.260700200564541324E-16 ) ) ;
#199 = DIRECTION ( 'NONE',  ( 0.0000000000000000000, -1.000000000000000000, 0.0000000000000000000 ) ) ;
#200 = DIRECTION ( 'NONE',  ( -4.275831445896958607E-31, -1.000000000000000000, -1.224646799147353207E-16 ) ) ;
#201 = VERTEX_POINT ( 'NONE', #289 ) ;
#202 = APPROVAL_PERSON_ORGANIZATION ( #256, #27, #96 ) ;
#203 = CARTESIAN_POINT ( 'NONE',  ( 2.504511167915743751E-14, 0.7599999999999980105, 7.173205080756892116 ) ) ;
#204 = AXIS2_PLACEMENT_3D ( 'NONE', #145, #20, #41 ) ;
#205 = APPROVAL_ROLE ( '' ) ;
#206 = EDGE_CURVE ( 'NONE', #182, #182, #103, .T. ) ;
#207 = AXIS2_PLACEMENT_3D ( 'NONE', #5, #35, #156 ) ;
#208 = ADVANCED_FACE ( 'NONE', ( #8 ), #56, .F. ) ;
#209 = CALENDAR_DATE ( 2021, 1, 12 ) ;
#210 = ORIENTED_EDGE ( 'NONE', *, *, #116, .T. ) ;
#211 = DESIGN_CONTEXT ( 'detailed design', #84, 'design' ) ;
#212 = COORDINATED_UNIVERSAL_TIME_OFFSET ( 1, 0, .AHEAD. ) ;
#213 = ORIENTED_EDGE ( 'NONE', *, *, #229, .F. ) ;
#214 = AXIS2_PLACEMENT_3D ( 'NONE', #30, #126, #7 ) ;
#215 = CARTESIAN_POINT ( 'NONE',  ( 8.728703347107829444E-16, -3.061616997868381785E-17, 0.2499999999999998890 ) ) ;
#216 = EDGE_LOOP ( 'NONE', ( #282 ) ) ;
#217 = ORIENTED_EDGE ( 'NONE', *, *, #154, .F. ) ;
#218 = AXIS2_PLACEMENT_3D ( 'NONE', #54, #241, #222 ) ;
#219 = EDGE_LOOP ( 'NONE', ( #92 ) ) ;
#220 = FACE_OUTER_BOUND ( 'NONE', #161, .T. ) ;
#221 = VERTEX_POINT ( 'NONE', #183 ) ;
#222 = DIRECTION ( 'NONE',  ( -4.275831445896958607E-31, -1.000000000000000000, -1.224646799147353207E-16 ) ) ;
#223 = AXIS2_PLACEMENT_3D ( 'NONE', #215, #71, #194 ) ;
#224 = FACE_OUTER_BOUND ( 'NONE', #252, .T. ) ;
#225 = DIRECTION ( 'NONE',  ( -3.491481338843133355E-15, 1.224646799147353207E-16, -1.000000000000000000 ) ) ;
#226 = AXIS2_PLACEMENT_3D ( 'NONE', #2, #32, #287 ) ;
#227 = EDGE_LOOP ( 'NONE', ( #213 ) ) ;
#228 = LOCAL_TIME ( 15, 3, 54.00000000000000000, #36 ) ;
#229 = EDGE_CURVE ( 'NONE', #105, #105, #43, .T. ) ;
#230 = PERSON_AND_ORGANIZATION ( #23, #192 ) ;
#231 = AXIS2_PLACEMENT_3D ( 'NONE', #89, #119, #70 ) ;
#232 = CARTESIAN_POINT ( 'NONE',  ( 6.056776150402963091E-14, -2.124431095542013992E-15, 17.34729635533384595 ) ) ;
#233 = LOCAL_TIME ( 15, 3, 54.00000000000000000, #144 ) ;
#234 = EDGE_LOOP ( 'NONE', ( #66 ) ) ;
#235 = APPROVAL_DATE_TIME ( #237, #27 ) ;
#236 = CARTESIAN_POINT ( 'NONE',  ( 1.745740669421566678E-13, 8.998558695971067645E-33, 50.00000000000000000 ) ) ;
#237 = DATE_AND_TIME ( #140, #233 ) ;
#238 = EDGE_LOOP ( 'NONE', ( #210 ) ) ;
#239 = DIRECTION ( 'NONE',  ( 0.0000000000000000000, 1.000000000000000000, 0.0000000000000000000 ) ) ;
#240 = DIRECTION ( 'NONE',  ( -4.275831445896958607E-31, -1.000000000000000000, -1.224646799147353207E-16 ) ) ;
#241 = DIRECTION ( 'NONE',  ( 3.491481338843133355E-15, -1.224646799147353207E-16, 1.000000000000000000 ) ) ;
#242 = PLANE ( 'NONE',  #6 ) ;
#243 = AXIS2_PLACEMENT_3D ( 'NONE', #236, #171, #195 ) ;
#244 = FACE_BOUND ( 'NONE', #164, .T. ) ;
#245 = PLANE ( 'NONE',  #184 ) ;
#246 = VERTEX_POINT ( 'NONE', #80 ) ;
#247 =( GEOMETRIC_REPRESENTATION_CONTEXT ( 3 ) GLOBAL_UNCERTAINTY_ASSIGNED_CONTEXT ( ( #134 ) ) GLOBAL_UNIT_ASSIGNED_CONTEXT ( ( #85, #61, #293 ) ) REPRESENTATION_CONTEXT ( 'NONE', 'WORKASPACE' ) );
#248 = DIRECTION ( 'NONE',  ( 1.000000000000000000, 0.0000000000000000000, 0.0000000000000000000 ) ) ;
#249 = EDGE_CURVE ( 'NONE', #13, #13, #95, .T. ) ;
#250 = CALENDAR_DATE ( 2021, 1, 12 ) ;
#251 = PERSON_AND_ORGANIZATION ( #23, #192 ) ;
#252 = EDGE_LOOP ( 'NONE', ( #217 ) ) ;
#253 = ORIENTED_EDGE ( 'NONE', *, *, #31, .T. ) ;
#254 = CC_DESIGN_APPROVAL ( #137, ( #93 ) ) ;
#255 = DIRECTION ( 'NONE',  ( 0.0000000000000000000, 1.000000000000000000, 0.0000000000000000000 ) ) ;
#256 = PERSON_AND_ORGANIZATION ( #23, #192 ) ;
#257 = EDGE_LOOP ( 'NONE', ( #47 ) ) ;
#258 = ADVANCED_FACE ( 'NONE', ( #224, #127 ), #101, .T. ) ;
#259 = COORDINATED_UNIVERSAL_TIME_OFFSET ( 1, 0, .AHEAD. ) ;
#260 = ORIENTED_EDGE ( 'NONE', *, *, #110, .T. ) ;
#261 = ADVANCED_FACE ( 'NONE', ( #128, #244 ), #262, .T. ) ;
#262 = CONICAL_SURFACE ( 'NONE', #72, 0.7599999999999988987, 0.5235987755982938197 ) ;
#263 = CARTESIAN_POINT ( 'NONE',  ( 0.0000000000000000000, 0.0000000000000000000, 0.0000000000000000000 ) ) ;
#264 = ADVANCED_FACE ( 'NONE', ( #286, #74 ), #175, .T. ) ;
#265 = DIRECTION ( 'NONE',  ( -3.491481338843133355E-15, 1.224646799147353207E-16, -1.000000000000000000 ) ) ;
#266 = CARTESIAN_POINT ( 'NONE',  ( 0.0000000000000000000, 0.0000000000000000000, 0.0000000000000000000 ) ) ;
#267 = CC_DESIGN_SECURITY_CLASSIFICATION ( #193, ( #168 ) ) ;
#268 = FACE_OUTER_BOUND ( 'NONE', #278, .T. ) ;
#269 = DIRECTION ( 'NONE',  ( 0.0000000000000000000, 1.000000000000000000, 0.0000000000000000000 ) ) ;
#270 = CIRCLE ( 'NONE', #3, 1.200000000000001732 ) ;
#271 = CARTESIAN_POINT ( 'NONE',  ( 5.935518276033326704E-14, 0.7599999999999981215, 17.00000000000000000 ) ) ;
#272 = ADVANCED_FACE ( 'NONE', ( #51 ), #242, .T. ) ;
#273 = AXIS2_PLACEMENT_3D ( 'NONE', #45, #1, #302 ) ;
#274 = VERTEX_POINT ( 'NONE', #294 ) ;
#275 = EDGE_LOOP ( 'NONE', ( #130 ) ) ;
#276 = CARTESIAN_POINT ( 'NONE',  ( 2.444036937190193349E-14, 0.8599999999999990985, 7.000000000000000000 ) ) ;
#277 = LOCAL_TIME ( 15, 3, 54.00000000000000000, #259 ) ;
#278 = EDGE_LOOP ( 'NONE', ( #81 ) ) ;
#279 = EDGE_LOOP ( 'NONE', ( #253 ) ) ;
#280 = CARTESIAN_POINT ( 'NONE',  ( 1.745740669421566678E-13, -6.123233995736766085E-15, 50.00000000000000000 ) ) ;
#281 = TOROIDAL_SURFACE ( 'NONE', #186, 2.760000000000000231, 2.000000000000000888 ) ;
#282 = ORIENTED_EDGE ( 'NONE', *, *, #249, .F. ) ;
#283 = FACE_OUTER_BOUND ( 'NONE', #64, .T. ) ;
#284 = FACE_OUTER_BOUND ( 'NONE', #301, .T. ) ;
#285 = CYLINDRICAL_SURFACE ( 'NONE', #207, 1.499999999999999112 ) ;
#286 = FACE_OUTER_BOUND ( 'NONE', #227, .T. ) ;
#287 = DIRECTION ( 'NONE',  ( 0.0000000000000000000, 1.000000000000000000, 0.0000000000000000000 ) ) ;
#288 = CIRCLE ( 'NONE', #273, 0.7156624327025948862 ) ;
#289 = CARTESIAN_POINT ( 'NONE',  ( 1.735266225405037467E-13, 1.499999999999995559, 49.70000000000000284 ) ) ;
#290 = CARTESIAN_POINT ( 'NONE',  ( 7.461898206643746974E-14, 1.499999999999994005, 21.37172587356909759 ) ) ;
#291 = ADVANCED_FACE ( 'NONE', ( #268 ), #245, .F. ) ;
#292 = CIRCLE ( 'NONE', #204, 0.8599999999999999867 ) ;
#293 =( NAMED_UNIT ( * ) SI_UNIT ( $, .STERADIAN. ) SOLID_ANGLE_UNIT ( ) );
#294 = CARTESIAN_POINT ( 'NONE',  ( 8.728703347107833388E-16, 0.8599999999999990985, 0.2500000000000000000 ) ) ;
#295 = AXIS2_PLACEMENT_3D ( 'NONE', #102, #100, #269 ) ;
#296 = DATE_AND_TIME ( #209, #228 ) ;
#297 = CALENDAR_DATE ( 2021, 1, 12 ) ;
#298 = CC_DESIGN_PERSON_AND_ORGANIZATION_ASSIGNMENT ( #65, #21, ( #168 ) ) ;
#299 = ORIENTED_EDGE ( 'NONE', *, *, #12, .T. ) ;
#300 = PERSON_AND_ORGANIZATION ( #23, #192 ) ;
#301 = EDGE_LOOP ( 'NONE', ( #260 ) ) ;
#302 = DIRECTION ( 'NONE',  ( 4.275831445896958607E-31, 1.000000000000000000, 1.224646799147352961E-16 ) ) ;
#303 = DATE_TIME_ROLE ( 'classification_date' ) ;
ENDSEC;
END-ISO-10303-21;
