ISO-10303-21;
HEADER;
FILE_DESCRIPTION (( 'STEP AP203' ),
    '1' );
FILE_NAME ('327041.step',
    '2021-12-01T14:03:54',
    ( '' ),
    ( '' ),
    'SwSTEP 2.0',
    'SolidWorks 2019',
    '' );
FILE_SCHEMA (( 'CONFIG_CONTROL_DESIGN' ));
ENDSEC;

DATA;
#1 = DIRECTION ( 'NONE',  ( 4.275831445896958607E-31, 1.000000000000000000, 1.224646799147353207E-16 ) ) ;
#2 = LOCAL_TIME ( 15, 3, 54.00000000000000000, #215 ) ;
#3 = AXIS2_PLACEMENT_3D ( 'NONE', #289, #236, #189 ) ;
#4 = CC_DESIGN_APPROVAL ( #11, ( #251 ) ) ;
#5 = CALENDAR_DATE ( 2021, 1, 12 ) ;
#6 = CARTESIAN_POINT ( 'NONE',  ( -1.519336388583692373E-31, 5.329114678079951683E-33, -4.351552367417519017E-17 ) ) ;
#7 = DATE_TIME_ROLE ( 'classification_date' ) ;
#8 = EDGE_LOOP ( 'NONE', ( #21 ) ) ;
#9 = CARTESIAN_POINT ( 'NONE',  ( 2.444036937190193349E-14, 6.411473070879429231E-33, 7.000000000000000000 ) ) ;
#10 = PERSON ( 'UNSPECIFIED', 'UNSPECIFIED', 'UNSPECIFIED', ('UNSPECIFIED'), ('UNSPECIFIED'), ('UNSPECIFIED') ) ;
#11 = APPROVAL ( #22, 'UNSPECIFIED' ) ;
#12 = FACE_BOUND ( 'NONE', #266, .T. ) ;
#13 = DIRECTION ( 'NONE',  ( 4.275831445896958607E-31, 1.000000000000000000, 1.224646799147353454E-16 ) ) ;
#14 = CARTESIAN_POINT ( 'NONE',  ( 8.728703347107829444E-16, -3.061616997868381785E-17, 0.2499999999999998890 ) ) ;
#15 = CARTESIAN_POINT ( 'NONE',  ( 0.0000000000000000000, 0.0000000000000000000, 0.0000000000000000000 ) ) ;
#16 = DIRECTION ( 'NONE',  ( -3.491481338843133355E-15, 1.224646799147353207E-16, -1.000000000000000000 ) ) ;
#17 = DIRECTION ( 'NONE',  ( -3.491481338843133355E-15, 1.224646799147353207E-16, -1.000000000000000000 ) ) ;
#18 = ADVANCED_FACE ( 'NONE', ( #29 ), #167, .F. ) ;
#19 = AXIS2_PLACEMENT_3D ( 'NONE', #300, #20, #1 ) ;
#20 = DIRECTION ( 'NONE',  ( -3.491481338843133355E-15, 1.224646799147353207E-16, -1.000000000000000000 ) ) ;
#21 = ORIENTED_EDGE ( 'NONE', *, *, #226, .T. ) ;
#22 = APPROVAL_STATUS ( 'not_yet_approved' ) ;
#23 = CC_DESIGN_PERSON_AND_ORGANIZATION_ASSIGNMENT ( #218, #245, ( #113 ) ) ;
#24 = DATE_TIME_ROLE ( 'creation_date' ) ;
#25 = DIRECTION ( 'NONE',  ( -4.275831445896958607E-31, -1.000000000000000000, -1.224646799147353207E-16 ) ) ;
#26 = APPLICATION_CONTEXT ( 'configuration controlled 3d designs of mechanical parts and assemblies' ) ;
#27 = DATE_AND_TIME ( #168, #211 ) ;
#28 = EDGE_LOOP ( 'NONE', ( #229 ) ) ;
#29 = FACE_OUTER_BOUND ( 'NONE', #274, .T. ) ;
#30 = CIRCLE ( 'NONE', #188, 0.8549999999999999822 ) ;
#31 = CC_DESIGN_PERSON_AND_ORGANIZATION_ASSIGNMENT ( #69, #204, ( #251 ) ) ;
#32 = ORGANIZATION ( 'UNSPECIFIED', 'UNSPECIFIED', '' ) ;
#33 = PRODUCT_DEFINITION_SHAPE ( 'NONE', 'NONE',  #251 ) ;
#34 = ORIENTED_EDGE ( 'NONE', *, *, #52, .F. ) ;
#35 = DIRECTION ( 'NONE',  ( -3.491481338843133355E-15, 1.224646799147353207E-16, -1.000000000000000000 ) ) ;
#36 = DIRECTION ( 'NONE',  ( 0.0000000000000000000, 1.000000000000000000, 0.0000000000000000000 ) ) ;
#37 = DIRECTION ( 'NONE',  ( 4.275831445896958607E-31, 1.000000000000000000, 1.224646799147353207E-16 ) ) ;
#38 = DIRECTION ( 'NONE',  ( -3.491481338843133355E-15, 1.224646799147353207E-16, -1.000000000000000000 ) ) ;
#39 = EDGE_CURVE ( 'NONE', #137, #137, #73, .T. ) ;
#40 = CARTESIAN_POINT ( 'NONE',  ( 2.444036937190193349E-14, -8.572527594031473190E-16, 7.000000000000000000 ) ) ;
#41 = CIRCLE ( 'NONE', #3, 0.8549999999999999822 ) ;
#42 = VERTEX_POINT ( 'NONE', #212 ) ;
#43 = ADVANCED_FACE ( 'NONE', ( #242 ), #246, .F. ) ;
#44 = VERTEX_POINT ( 'NONE', #257 ) ;
#45 = EDGE_LOOP ( 'NONE', ( #284 ) ) ;
#46 = CLOSED_SHELL ( 'NONE', ( #18, #256, #122, #302, #187, #144, #72, #134 ) ) ;
#47 = APPLICATION_PROTOCOL_DEFINITION ( 'international standard', 'config_control_design', 1994, #26 ) ;
#48 = COORDINATED_UNIVERSAL_TIME_OFFSET ( 1, 0, .AHEAD. ) ;
#49 = CONICAL_SURFACE ( 'NONE', #93, 0.7549999999999988942, 0.5235987755982933756 ) ;
#50 = ORIENTED_EDGE ( 'NONE', *, *, #152, .F. ) ;
#51 = DIRECTION ( 'NONE',  ( -3.491481338843133355E-15, 1.224646799147353207E-16, -1.000000000000000000 ) ) ;
#52 = EDGE_CURVE ( 'NONE', #88, #88, #285, .T. ) ;
#53 = PERSON_AND_ORGANIZATION_ROLE ( 'creator' ) ;
#54 = EDGE_LOOP ( 'NONE', ( #96 ) ) ;
#55 = EDGE_LOOP ( 'NONE', ( #34 ) ) ;
#56 = CIRCLE ( 'NONE', #154, 1.500000000000001554 ) ;
#57 = DIRECTION ( 'NONE',  ( 0.0000000000000000000, 1.000000000000000000, 0.0000000000000000000 ) ) ;
#58 = DIRECTION ( 'NONE',  ( -3.491481338843133355E-15, 1.224646799147353207E-16, -1.000000000000000000 ) ) ;
#59 = FACE_OUTER_BOUND ( 'NONE', #63, .T. ) ;
#60 = AXIS2_PLACEMENT_3D ( 'NONE', #9, #190, #282 ) ;
#61 = DESIGN_CONTEXT ( 'detailed design', #26, 'design' ) ;
#62 = DIRECTION ( 'NONE',  ( -3.491481338843133355E-15, 1.224646799147353207E-16, -1.000000000000000000 ) ) ;
#63 = EDGE_LOOP ( 'NONE', ( #169 ) ) ;
#64 = CARTESIAN_POINT ( 'NONE',  ( 8.728703347107829444E-16, -3.061616997868381785E-17, 0.2499999999999998890 ) ) ;
#65 =( GEOMETRIC_REPRESENTATION_CONTEXT ( 3 ) GLOBAL_UNCERTAINTY_ASSIGNED_CONTEXT ( ( #107 ) ) GLOBAL_UNIT_ASSIGNED_CONTEXT ( ( #208, #161, #234 ) ) REPRESENTATION_CONTEXT ( 'NONE', 'WORKASPACE' ) );
#66 = CARTESIAN_POINT ( 'NONE',  ( 1.735266225405037467E-13, 1.499999999999995559, 49.70000000000000284 ) ) ;
#67 = CALENDAR_DATE ( 2021, 1, 12 ) ;
#68 = AXIS2_PLACEMENT_3D ( 'NONE', #270, #35, #111 ) ;
#69 = PERSON_AND_ORGANIZATION ( #10, #32 ) ;
#70 = LOCAL_TIME ( 15, 3, 54.00000000000000000, #184 ) ;
#71 = PLANE ( 'NONE',  #115 ) ;
#72 = ADVANCED_FACE ( 'NONE', ( #121, #12 ), #178, .T. ) ;
#73 = CIRCLE ( 'NONE', #148, 0.7549999999999998934 ) ;
#74 = PERSON_AND_ORGANIZATION ( #10, #32 ) ;
#75 = ORIENTED_EDGE ( 'NONE', *, *, #243, .F. ) ;
#76 = APPROVAL_STATUS ( 'not_yet_approved' ) ;
#77 = ORIENTED_EDGE ( 'NONE', *, *, #39, .T. ) ;
#78 = PERSON_AND_ORGANIZATION ( #10, #32 ) ;
#79 = ORIENTED_EDGE ( 'NONE', *, *, #181, .T. ) ;
#80 = CC_DESIGN_APPROVAL ( #213, ( #124 ) ) ;
#81 = EDGE_LOOP ( 'NONE', ( #288 ) ) ;
#82 = CIRCLE ( 'NONE', #68, 0.7549999999999988942 ) ;
#83 = DIRECTION ( 'NONE',  ( -3.491481338843133355E-15, 1.224646799147353207E-16, -1.000000000000000000 ) ) ;
#84 = DIRECTION ( 'NONE',  ( 4.275831445896958607E-31, 1.000000000000000000, 1.224646799147353454E-16 ) ) ;
#85 = FACE_OUTER_BOUND ( 'NONE', #223, .T. ) ;
#86 = AXIS2_PLACEMENT_3D ( 'NONE', #15, #108, #109 ) ;
#87 = CYLINDRICAL_SURFACE ( 'NONE', #86, 0.8549999999999995381 ) ;
#88 = VERTEX_POINT ( 'NONE', #159 ) ;
#89 = VERTEX_POINT ( 'NONE', #66 ) ;
#90 = CIRCLE ( 'NONE', #235, 1.499999999999996669 ) ;
#91 = APPROVAL_ROLE ( '' ) ;
#92 = CARTESIAN_POINT ( 'NONE',  ( 2.444036937190193349E-14, 0.8549999999999990941, 7.000000000000000000 ) ) ;
#93 = AXIS2_PLACEMENT_3D ( 'NONE', #269, #58, #36 ) ;
#94 = SHAPE_DEFINITION_REPRESENTATION ( #33, #163 ) ;
#95 = SECURITY_CLASSIFICATION_LEVEL ( 'unclassified' ) ;
#96 = ORIENTED_EDGE ( 'NONE', *, *, #97, .F. ) ;
#97 = EDGE_CURVE ( 'NONE', #117, #117, #41, .T. ) ;
#98 = ORIENTED_EDGE ( 'NONE', *, *, #243, .T. ) ;
#99 = APPROVAL_ROLE ( '' ) ;
#100 = EDGE_LOOP ( 'NONE', ( #265 ) ) ;
#101 = EDGE_LOOP ( 'NONE', ( #216 ) ) ;
#102 = CARTESIAN_POINT ( 'NONE',  ( 1.745740669421566678E-13, -6.123233995736766085E-15, 50.00000000000000000 ) ) ;
#103 = AXIS2_PLACEMENT_3D ( 'NONE', #136, #83, #131 ) ;
#104 = CYLINDRICAL_SURFACE ( 'NONE', #272, 1.499999999999999112 ) ;
#105 = DIRECTION ( 'NONE',  ( 3.491481338843133355E-15, -1.224646799147353207E-16, 1.000000000000000000 ) ) ;
#106 = ADVANCED_FACE ( 'NONE', ( #263 ), #71, .T. ) ;
#107 = UNCERTAINTY_MEASURE_WITH_UNIT (LENGTH_MEASURE( 1.000000000000000082E-05 ), #208, 'distance_accuracy_value', 'NONE');
#108 = DIRECTION ( 'NONE',  ( -3.491481338843133355E-15, 1.224646799147353207E-16, -1.000000000000000000 ) ) ;
#109 = DIRECTION ( 'NONE',  ( 4.275831445896958607E-31, 1.000000000000000000, 1.224646799147353207E-16 ) ) ;
#110 = CIRCLE ( 'NONE', #281, 0.7853844939755818544 ) ;
#111 = DIRECTION ( 'NONE',  ( 0.0000000000000000000, 1.000000000000000000, 0.0000000000000000000 ) ) ;
#112 = EDGE_CURVE ( 'NONE', #182, #182, #90, .T. ) ;
#113 = SECURITY_CLASSIFICATION ( '', '', #95 ) ;
#114 = PERSON_AND_ORGANIZATION ( #10, #32 ) ;
#115 = AXIS2_PLACEMENT_3D ( 'NONE', #145, #233, #231 ) ;
#116 = APPROVAL ( #238, 'UNSPECIFIED' ) ;
#117 = VERTEX_POINT ( 'NONE', #92 ) ;
#118 = DIRECTION ( 'NONE',  ( 0.0000000000000000000, 1.000000000000000000, 0.0000000000000000000 ) ) ;
#119 = PERSON_AND_ORGANIZATION ( #10, #32 ) ;
#120 = DATE_AND_TIME ( #5, #2 ) ;
#121 = FACE_OUTER_BOUND ( 'NONE', #201, .T. ) ;
#122 = ADVANCED_FACE ( 'NONE', ( #153, #200 ), #155, .T. ) ;
#123 = PERSON_AND_ORGANIZATION_ROLE ( 'design_supplier' ) ;
#124 = PRODUCT_DEFINITION_FORMATION_WITH_SPECIFIED_SOURCE ( 'ANY', '', #241, .NOT_KNOWN. ) ;
#125 = ORIENTED_EDGE ( 'NONE', *, *, #128, .F. ) ;
#126 = AXIS2_PLACEMENT_3D ( 'NONE', #6, #127, #25 ) ;
#127 = DIRECTION ( 'NONE',  ( 3.491481338843133355E-15, -1.224646799147353207E-16, 1.000000000000000000 ) ) ;
#128 = EDGE_CURVE ( 'NONE', #277, #277, #30, .T. ) ;
#129 = ORIENTED_EDGE ( 'NONE', *, *, #97, .T. ) ;
#130 = DIRECTION ( 'NONE',  ( -3.491481338843133355E-15, 1.224646799147353207E-16, -1.000000000000000000 ) ) ;
#131 = DIRECTION ( 'NONE',  ( 4.275831445896958607E-31, 1.000000000000000000, 1.224646799147353207E-16 ) ) ;
#132 = DIRECTION ( 'NONE',  ( -3.491481338843133355E-15, 1.224646799147353207E-16, -1.000000000000000000 ) ) ;
#133 = CARTESIAN_POINT ( 'NONE',  ( 1.735266225405037467E-13, -6.086494591762345225E-15, 49.70000000000000284 ) ) ;
#134 = ADVANCED_FACE ( 'NONE', ( #296 ), #275, .F. ) ;
#135 = CC_DESIGN_PERSON_AND_ORGANIZATION_ASSIGNMENT ( #78, #123, ( #124 ) ) ;
#136 = CARTESIAN_POINT ( 'NONE',  ( -3.038672777167384747E-31, 1.065822935615990337E-32, -8.703104734835038034E-17 ) ) ;
#137 = VERTEX_POINT ( 'NONE', #279 ) ;
#138 = CARTESIAN_POINT ( 'NONE',  ( 6.056776150402963091E-14, 0.7853844939755797450, 17.34729635533384595 ) ) ;
#139 = AXIS2_PLACEMENT_3D ( 'NONE', #206, #260, #301 ) ;
#140 = CARTESIAN_POINT ( 'NONE',  ( 1.745740669421566678E-13, -6.123233995736766085E-15, 50.00000000000000000 ) ) ;
#141 = CARTESIAN_POINT ( 'NONE',  ( 8.728703347107833388E-16, 0.8549999999999990941, 0.2500000000000000000 ) ) ;
#142 = LOCAL_TIME ( 15, 3, 54.00000000000000000, #48 ) ;
#143 = CLOSED_SHELL ( 'NONE', ( #43, #298, #176, #106 ) ) ;
#144 = ADVANCED_FACE ( 'NONE', ( #59, #252 ), #104, .T. ) ;
#145 = CARTESIAN_POINT ( 'NONE',  ( 2.444036937190193349E-14, 6.411473070879429231E-33, 7.000000000000000000 ) ) ;
#146 = ORIENTED_EDGE ( 'NONE', *, *, #196, .F. ) ;
#147 = CARTESIAN_POINT ( 'NONE',  ( 5.935518276033326704E-14, -2.081899558550500280E-15, 17.00000000000000000 ) ) ;
#148 = AXIS2_PLACEMENT_3D ( 'NONE', #147, #51, #150 ) ;
#149 = APPROVAL_DATE_TIME ( #27, #213 ) ;
#150 = DIRECTION ( 'NONE',  ( 0.0000000000000000000, 1.000000000000000000, 0.0000000000000000000 ) ) ;
#151 = DIRECTION ( 'NONE',  ( -3.491481338843133355E-15, 1.224646799147353207E-16, -1.000000000000000000 ) ) ;
#152 = EDGE_CURVE ( 'NONE', #89, #89, #56, .T. ) ;
#153 = FACE_OUTER_BOUND ( 'NONE', #100, .T. ) ;
#154 = AXIS2_PLACEMENT_3D ( 'NONE', #133, #17, #180 ) ;
#155 = CYLINDRICAL_SURFACE ( 'NONE', #254, 0.7549999999999993383 ) ;
#156 = DIRECTION ( 'NONE',  ( 4.505099285116345730E-31, 1.000000000000000000, 1.268072716357316409E-16 ) ) ;
#157 = APPROVAL_PERSON_ORGANIZATION ( #74, #116, #99 ) ;
#158 = CC_DESIGN_PERSON_AND_ORGANIZATION_ASSIGNMENT ( #283, #53, ( #124 ) ) ;
#159 = CARTESIAN_POINT ( 'NONE',  ( 1.745740669421566678E-13, 1.199999999999995515, 50.00000000000000000 ) ) ;
#160 = VERTEX_POINT ( 'NONE', #141 ) ;
#161 =( NAMED_UNIT ( * ) PLANE_ANGLE_UNIT ( ) SI_UNIT ( $, .RADIAN. ) );
#162 = PERSON_AND_ORGANIZATION_ROLE ( 'design_owner' ) ;
#163 = ADVANCED_BREP_SHAPE_REPRESENTATION ( '327041', ( #224, #220, #139 ), #65 ) ;
#164 = APPLICATION_PROTOCOL_DEFINITION ( 'international standard', 'config_control_design', 1994, #299 ) ;
#165 = CC_DESIGN_SECURITY_CLASSIFICATION ( #113, ( #124 ) ) ;
#166 = CALENDAR_DATE ( 2021, 1, 12 ) ;
#167 = PLANE ( 'NONE',  #60 ) ;
#168 = CALENDAR_DATE ( 2021, 1, 12 ) ;
#169 = ORIENTED_EDGE ( 'NONE', *, *, #112, .F. ) ;
#170 = DATE_AND_TIME ( #166, #230 ) ;
#171 = EDGE_LOOP ( 'NONE', ( #222 ) ) ;
#172 = EDGE_LOOP ( 'NONE', ( #75 ) ) ;
#173 = CONICAL_SURFACE ( 'NONE', #261, 1.499999999999996669, 0.1745329251994257591 ) ;
#174 = DIRECTION ( 'NONE',  ( 0.0000000000000000000, 1.000000000000000000, 0.0000000000000000000 ) ) ;
#175 = FACE_BOUND ( 'NONE', #8, .T. ) ;
#176 = ADVANCED_FACE ( 'NONE', ( #195, #292 ), #87, .T. ) ;
#177 = FACE_OUTER_BOUND ( 'NONE', #101, .T. ) ;
#178 = CONICAL_SURFACE ( 'NONE', #295, 1.200000000000001732, 0.7853981633974453924 ) ;
#179 = DIRECTION ( 'NONE',  ( 3.491481338843133355E-15, -1.224646799147353207E-16, 1.000000000000000000 ) ) ;
#180 = DIRECTION ( 'NONE',  ( 0.0000000000000000000, 1.000000000000000000, 0.0000000000000000000 ) ) ;
#181 = EDGE_CURVE ( 'NONE', #160, #160, #276, .T. ) ;
#182 = VERTEX_POINT ( 'NONE', #280 ) ;
#183 = AXIS2_PLACEMENT_3D ( 'NONE', #14, #105, #293 ) ;
#184 = COORDINATED_UNIVERSAL_TIME_OFFSET ( 1, 0, .AHEAD. ) ;
#185 = MECHANICAL_CONTEXT ( 'NONE', #299, 'mechanical' ) ;
#186 = PERSON_AND_ORGANIZATION ( #10, #32 ) ;
#187 = ADVANCED_FACE ( 'NONE', ( #198, #253 ), #173, .T. ) ;
#188 = AXIS2_PLACEMENT_3D ( 'NONE', #40, #132, #228 ) ;
#189 = DIRECTION ( 'NONE',  ( 0.0000000000000000000, 1.000000000000000000, 0.0000000000000000000 ) ) ;
#190 = DIRECTION ( 'NONE',  ( 3.491481338843133355E-15, -1.224646799147353207E-16, 1.000000000000000000 ) ) ;
#191 = APPROVAL_DATE_TIME ( #120, #116 ) ;
#192 = EDGE_LOOP ( 'NONE', ( #79 ) ) ;
#193 = DIRECTION ( 'NONE',  ( 0.0000000000000000000, 1.000000000000000000, 0.0000000000000000000 ) ) ;
#194 = DIRECTION ( 'NONE',  ( -3.491481338843133355E-15, 1.224646799147353207E-16, -1.000000000000000000 ) ) ;
#195 = FACE_OUTER_BOUND ( 'NONE', #81, .T. ) ;
#196 = EDGE_CURVE ( 'NONE', #42, #42, #214, .T. ) ;
#197 = CARTESIAN_POINT ( 'NONE',  ( 0.0000000000000000000, 0.0000000000000000000, 0.0000000000000000000 ) ) ;
#198 = FACE_BOUND ( 'NONE', #172, .T. ) ;
#199 = AXIS2_PLACEMENT_3D ( 'NONE', #294, #16, #37 ) ;
#200 = FACE_OUTER_BOUND ( 'NONE', #303, .T. ) ;
#201 = EDGE_LOOP ( 'NONE', ( #50 ) ) ;
#202 = APPROVAL_PERSON_ORGANIZATION ( #186, #11, #91 ) ;
#203 = CARTESIAN_POINT ( 'NONE',  ( 6.056776150402963091E-14, -2.124431095542013992E-15, 17.34729635533384595 ) ) ;
#204 = PERSON_AND_ORGANIZATION_ROLE ( 'creator' ) ;
#205 = APPROVAL_PERSON_ORGANIZATION ( #119, #213, #240 ) ;
#206 = CARTESIAN_POINT ( 'NONE',  ( 0.0000000000000000000, 0.0000000000000000000, 0.0000000000000000000 ) ) ;
#207 = TOROIDAL_SURFACE ( 'NONE', #19, 2.754999999999999893, 2.000000000000000000 ) ;
#208 =( LENGTH_UNIT ( ) NAMED_UNIT ( * ) SI_UNIT ( .MILLI., .METRE. ) );
#209 = DIRECTION ( 'NONE',  ( -3.491481338843133355E-15, 1.224646799147353207E-16, -1.000000000000000000 ) ) ;
#210 = CALENDAR_DATE ( 2021, 1, 12 ) ;
#211 = LOCAL_TIME ( 15, 3, 54.00000000000000000, #286 ) ;
#212 = CARTESIAN_POINT ( 'NONE',  ( 0.0000000000000000000, 0.7106624327025945487, 0.0000000000000000000 ) ) ;
#213 = APPROVAL ( #76, 'UNSPECIFIED' ) ;
#214 = CIRCLE ( 'NONE', #103, 0.7106624327025945487 ) ;
#215 = COORDINATED_UNIVERSAL_TIME_OFFSET ( 1, 0, .AHEAD. ) ;
#216 = ORIENTED_EDGE ( 'NONE', *, *, #39, .F. ) ;
#217 = CC_DESIGN_APPROVAL ( #116, ( #113 ) ) ;
#218 = PERSON_AND_ORGANIZATION ( #10, #32 ) ;
#219 = EDGE_LOOP ( 'NONE', ( #98 ) ) ;
#220 = MANIFOLD_SOLID_BREP ( 'Corps-Déplacer/Copier1[2]', #143 ) ;
#221 = COORDINATED_UNIVERSAL_TIME_OFFSET ( 1, 0, .AHEAD. ) ;
#222 = ORIENTED_EDGE ( 'NONE', *, *, #196, .T. ) ;
#223 = EDGE_LOOP ( 'NONE', ( #125 ) ) ;
#224 = MANIFOLD_SOLID_BREP ( 'Corps-Déplacer/Copier1[1]', #46 ) ;
#225 = CARTESIAN_POINT ( 'NONE',  ( 0.0000000000000000000, 0.0000000000000000000, 0.0000000000000000000 ) ) ;
#226 = EDGE_CURVE ( 'NONE', #44, #44, #82, .T. ) ;
#227 = FACE_OUTER_BOUND ( 'NONE', #192, .T. ) ;
#228 = DIRECTION ( 'NONE',  ( 0.0000000000000000000, 1.000000000000000000, 0.0000000000000000000 ) ) ;
#229 = ORIENTED_EDGE ( 'NONE', *, *, #112, .T. ) ;
#230 = LOCAL_TIME ( 15, 3, 54.00000000000000000, #221 ) ;
#231 = DIRECTION ( 'NONE',  ( -4.275831445896958607E-31, -1.000000000000000000, -1.224646799147353207E-16 ) ) ;
#232 = AXIS2_PLACEMENT_3D ( 'NONE', #64, #151, #156 ) ;
#233 = DIRECTION ( 'NONE',  ( 3.491481338843133355E-15, -1.224646799147353207E-16, 1.000000000000000000 ) ) ;
#234 =( NAMED_UNIT ( * ) SI_UNIT ( $, .STERADIAN. ) SOLID_ANGLE_UNIT ( ) );
#235 = AXIS2_PLACEMENT_3D ( 'NONE', #250, #62, #57 ) ;
#236 = DIRECTION ( 'NONE',  ( -3.491481338843133355E-15, 1.224646799147353207E-16, -1.000000000000000000 ) ) ;
#237 = DATE_AND_TIME ( #67, #142 ) ;
#238 = APPROVAL_STATUS ( 'not_yet_approved' ) ;
#239 = EDGE_LOOP ( 'NONE', ( #129 ) ) ;
#240 = APPROVAL_ROLE ( '' ) ;
#241 = PRODUCT ( '327041', '327041', '', ( #185 ) ) ;
#242 = FACE_OUTER_BOUND ( 'NONE', #171, .T. ) ;
#243 = EDGE_CURVE ( 'NONE', #255, #255, #110, .T. ) ;
#244 = AXIS2_PLACEMENT_3D ( 'NONE', #140, #209, #193 ) ;
#245 = PERSON_AND_ORGANIZATION_ROLE ( 'classification_officer' ) ;
#246 = PLANE ( 'NONE',  #126 ) ;
#247 = CARTESIAN_POINT ( 'NONE',  ( 7.471798793964006670E-14, -2.620754226895835754E-15, 21.40008228266718859 ) ) ;
#248 = PRODUCT_RELATED_PRODUCT_CATEGORY ( 'detail', '', ( #241 ) ) ;
#249 = DIRECTION ( 'NONE',  ( 0.0000000000000000000, -1.000000000000000000, 0.0000000000000000000 ) ) ;
#250 = CARTESIAN_POINT ( 'NONE',  ( 7.471798793964006670E-14, -2.620754226895835754E-15, 21.40008228266718859 ) ) ;
#251 = PRODUCT_DEFINITION ( 'UNKNOWN', '', #124, #61 ) ;
#252 = FACE_OUTER_BOUND ( 'NONE', #45, .T. ) ;
#253 = FACE_OUTER_BOUND ( 'NONE', #28, .T. ) ;
#254 = AXIS2_PLACEMENT_3D ( 'NONE', #197, #38, #84 ) ;
#255 = VERTEX_POINT ( 'NONE', #138 ) ;
#256 = ADVANCED_FACE ( 'NONE', ( #85, #175 ), #49, .T. ) ;
#257 = CARTESIAN_POINT ( 'NONE',  ( 2.504511167915743751E-14, 0.7549999999999981171, 7.173205080756892116 ) ) ;
#258 = CARTESIAN_POINT ( 'NONE',  ( 2.444036937190193349E-14, 0.8549999999999990941, 7.000000000000000000 ) ) ;
#259 = ORIENTED_EDGE ( 'NONE', *, *, #128, .T. ) ;
#260 = DIRECTION ( 'NONE',  ( 0.0000000000000000000, 0.0000000000000000000, 1.000000000000000000 ) ) ;
#261 = AXIS2_PLACEMENT_3D ( 'NONE', #247, #179, #249 ) ;
#262 = DATE_AND_TIME ( #210, #70 ) ;
#263 = FACE_OUTER_BOUND ( 'NONE', #54, .T. ) ;
#264 = CC_DESIGN_PERSON_AND_ORGANIZATION_ASSIGNMENT ( #114, #162, ( #241 ) ) ;
#265 = ORIENTED_EDGE ( 'NONE', *, *, #226, .F. ) ;
#266 = EDGE_LOOP ( 'NONE', ( #267 ) ) ;
#267 = ORIENTED_EDGE ( 'NONE', *, *, #52, .T. ) ;
#268 = CC_DESIGN_DATE_AND_TIME_ASSIGNMENT ( #237, #24, ( #251 ) ) ;
#269 = CARTESIAN_POINT ( 'NONE',  ( 2.504511167915743751E-14, -8.784642641776459355E-16, 7.173205080756892116 ) ) ;
#270 = CARTESIAN_POINT ( 'NONE',  ( 2.504511167915743751E-14, -8.784642641776459355E-16, 7.173205080756892116 ) ) ;
#271 = FACE_OUTER_BOUND ( 'NONE', #219, .T. ) ;
#272 = AXIS2_PLACEMENT_3D ( 'NONE', #225, #130, #13 ) ;
#273 = FACE_BOUND ( 'NONE', #287, .T. ) ;
#274 = EDGE_LOOP ( 'NONE', ( #259 ) ) ;
#275 = PLANE ( 'NONE',  #199 ) ;
#276 = CIRCLE ( 'NONE', #232, 0.8549999999999990941 ) ;
#277 = VERTEX_POINT ( 'NONE', #258 ) ;
#278 = APPROVAL_DATE_TIME ( #262, #11 ) ;
#279 = CARTESIAN_POINT ( 'NONE',  ( 5.935518276033326704E-14, 0.7549999999999978950, 17.00000000000000000 ) ) ;
#280 = CARTESIAN_POINT ( 'NONE',  ( 7.471798793964006670E-14, 1.499999999999994005, 21.40008228266718859 ) ) ;
#281 = AXIS2_PLACEMENT_3D ( 'NONE', #203, #297, #174 ) ;
#282 = DIRECTION ( 'NONE',  ( -4.275831445896958607E-31, -1.000000000000000000, -1.224646799147353207E-16 ) ) ;
#283 = PERSON_AND_ORGANIZATION ( #10, #32 ) ;
#284 = ORIENTED_EDGE ( 'NONE', *, *, #152, .T. ) ;
#285 = CIRCLE ( 'NONE', #244, 1.200000000000001732 ) ;
#286 = COORDINATED_UNIVERSAL_TIME_OFFSET ( 1, 0, .AHEAD. ) ;
#287 = EDGE_LOOP ( 'NONE', ( #146 ) ) ;
#288 = ORIENTED_EDGE ( 'NONE', *, *, #181, .F. ) ;
#289 = CARTESIAN_POINT ( 'NONE',  ( 2.444036937190193349E-14, -8.572527594031473190E-16, 7.000000000000000000 ) ) ;
#290 = CC_DESIGN_DATE_AND_TIME_ASSIGNMENT ( #170, #7, ( #113 ) ) ;
#291 = CONICAL_SURFACE ( 'NONE', #183, 0.8549999999999990941, 0.5235987755982930425 ) ;
#292 = FACE_OUTER_BOUND ( 'NONE', #239, .T. ) ;
#293 = DIRECTION ( 'NONE',  ( -4.505099285116345730E-31, -1.000000000000000000, -1.268072716357316409E-16 ) ) ;
#294 = CARTESIAN_POINT ( 'NONE',  ( 1.745740669421566678E-13, 8.998558695971067645E-33, 50.00000000000000000 ) ) ;
#295 = AXIS2_PLACEMENT_3D ( 'NONE', #102, #194, #118 ) ;
#296 = FACE_OUTER_BOUND ( 'NONE', #55, .T. ) ;
#297 = DIRECTION ( 'NONE',  ( -3.491481338843133355E-15, 1.224646799147353207E-16, -1.000000000000000000 ) ) ;
#298 = ADVANCED_FACE ( 'NONE', ( #273, #227 ), #291, .T. ) ;
#299 = APPLICATION_CONTEXT ( 'configuration controlled 3d designs of mechanical parts and assemblies' ) ;
#300 = CARTESIAN_POINT ( 'NONE',  ( 5.935518276033326704E-14, -2.168404344971008868E-15, 17.00000000000000000 ) ) ;
#301 = DIRECTION ( 'NONE',  ( 1.000000000000000000, 0.0000000000000000000, 0.0000000000000000000 ) ) ;
#302 = ADVANCED_FACE ( 'NONE', ( #177, #271 ), #207, .F. ) ;
#303 = EDGE_LOOP ( 'NONE', ( #77 ) ) ;
ENDSEC;
END-ISO-10303-21;
