ISO-10303-21;
HEADER;
FILE_DESCRIPTION (( 'STEP AP203' ),
    '1' );
FILE_NAME ('327040.step',
    '2021-12-01T14:03:53',
    ( '' ),
    ( '' ),
    'SwSTEP 2.0',
    'SolidWorks 2019',
    '' );
FILE_SCHEMA (( 'CONFIG_CONTROL_DESIGN' ));
ENDSEC;

DATA;
#1 = CARTESIAN_POINT ( 'NONE',  ( 2.444036937190193349E-14, 6.298991087179789089E-33, 7.000000000000000000 ) ) ;
#2 = DIRECTION ( 'NONE',  ( -4.585547486636280678E-31, -1.000000000000000000, -1.290716872006554259E-16 ) ) ;
#3 = CC_DESIGN_DATE_AND_TIME_ASSIGNMENT ( #276, #103, ( #80 ) ) ;
#4 = MANIFOLD_SOLID_BREP ( 'Corps-Déplacer/Copier1[2]', #131 ) ;
#5 = CARTESIAN_POINT ( 'NONE',  ( 5.707628016518648493E-14, 0.7703844939755790655, 16.34729635533384595 ) ) ;
#6 = CARTESIAN_POINT ( 'NONE',  ( 1.735266225405037467E-13, -6.086494591762345225E-15, 49.70000000000000284 ) ) ;
#7 = APPROVAL_STATUS ( 'not_yet_approved' ) ;
#8 = DIRECTION ( 'NONE',  ( 4.275831445896959482E-31, 1.000000000000000000, 1.224646799147353207E-16 ) ) ;
#9 = DATE_AND_TIME ( #25, #45 ) ;
#10 = DIRECTION ( 'NONE',  ( -4.275831445896958607E-31, -1.000000000000000000, -1.224646799147353207E-16 ) ) ;
#11 = AXIS2_PLACEMENT_3D ( 'NONE', #61, #98, #55 ) ;
#12 = AXIS2_PLACEMENT_3D ( 'NONE', #299, #294, #115 ) ;
#13 = ORIENTED_EDGE ( 'NONE', *, *, #65, .T. ) ;
#14 = DESIGN_CONTEXT ( 'detailed design', #81, 'design' ) ;
#15 = FACE_OUTER_BOUND ( 'NONE', #269, .T. ) ;
#16 = CALENDAR_DATE ( 2021, 1, 12 ) ;
#17 = EDGE_CURVE ( 'NONE', #224, #224, #127, .T. ) ;
#18 = EDGE_LOOP ( 'NONE', ( #159 ) ) ;
#19 = CYLINDRICAL_SURFACE ( 'NONE', #94, 0.8399999999999995248 ) ;
#20 = CIRCLE ( 'NONE', #58, 0.7399999999999999911 ) ;
#21 = CARTESIAN_POINT ( 'NONE',  ( 7.152352422040464847E-14, -2.508707522672286183E-15, 20.48515150996145096 ) ) ;
#22 = EDGE_LOOP ( 'NONE', ( #13 ) ) ;
#23 = FACE_OUTER_BOUND ( 'NONE', #71, .T. ) ;
#24 = CARTESIAN_POINT ( 'NONE',  ( 0.0000000000000000000, 0.0000000000000000000, 0.0000000000000000000 ) ) ;
#25 = CALENDAR_DATE ( 2021, 1, 12 ) ;
#26 = APPROVAL ( #7, 'UNSPECIFIED' ) ;
#27 = EDGE_LOOP ( 'NONE', ( #73 ) ) ;
#28 = VERTEX_POINT ( 'NONE', #60 ) ;
#29 = CARTESIAN_POINT ( 'NONE',  ( 1.745740669421566678E-13, 1.199999999999995515, 50.00000000000000000 ) ) ;
#30 = PLANE ( 'NONE',  #104 ) ;
#31 = CIRCLE ( 'NONE', #156, 0.6956624327025947574 ) ;
#32 = CC_DESIGN_PERSON_AND_ORGANIZATION_ASSIGNMENT ( #105, #295, ( #135 ) ) ;
#33 = DIRECTION ( 'NONE',  ( -3.491481338843133355E-15, 1.224646799147353207E-16, -1.000000000000000000 ) ) ;
#34 = FACE_OUTER_BOUND ( 'NONE', #277, .T. ) ;
#35 = SECURITY_CLASSIFICATION_LEVEL ( 'unclassified' ) ;
#36 = CONICAL_SURFACE ( 'NONE', #119, 1.200000000000001732, 0.7853981633974453924 ) ;
#37 = CIRCLE ( 'NONE', #260, 0.7703844939755809529 ) ;
#38 = AXIS2_PLACEMENT_3D ( 'NONE', #281, #184, #150 ) ;
#39 = EDGE_LOOP ( 'NONE', ( #205 ) ) ;
#40 = DIRECTION ( 'NONE',  ( 0.0000000000000000000, 1.000000000000000000, 0.0000000000000000000 ) ) ;
#41 = ORIENTED_EDGE ( 'NONE', *, *, #85, .T. ) ;
#42 = EDGE_LOOP ( 'NONE', ( #132 ) ) ;
#43 = FACE_BOUND ( 'NONE', #242, .T. ) ;
#44 = CARTESIAN_POINT ( 'NONE',  ( 8.728703347107829444E-16, -3.061616997868381785E-17, 0.2499999999999998890 ) ) ;
#45 = LOCAL_TIME ( 15, 3, 53.00000000000000000, #208 ) ;
#46 = EDGE_LOOP ( 'NONE', ( #232 ) ) ;
#47 = EDGE_CURVE ( 'NONE', #237, #237, #31, .T. ) ;
#48 = EDGE_LOOP ( 'NONE', ( #68 ) ) ;
#49 = FACE_BOUND ( 'NONE', #196, .T. ) ;
#50 = CARTESIAN_POINT ( 'NONE',  ( 1.745740669421566678E-13, -6.123233995736766085E-15, 50.00000000000000000 ) ) ;
#51 = CONICAL_SURFACE ( 'NONE', #11, 0.7399999999999988809, 0.5235987755982933756 ) ;
#52 = EDGE_CURVE ( 'NONE', #247, #247, #153, .T. ) ;
#53 = EDGE_CURVE ( 'NONE', #195, #195, #20, .T. ) ;
#54 = CARTESIAN_POINT ( 'NONE',  ( 2.504511167915743751E-14, 0.7399999999999979927, 7.173205080756892116 ) ) ;
#55 = DIRECTION ( 'NONE',  ( 0.0000000000000000000, 1.000000000000000000, 0.0000000000000000000 ) ) ;
#56 = CARTESIAN_POINT ( 'NONE',  ( 2.444036937190193349E-14, 0.8399999999999990807, 7.000000000000000000 ) ) ;
#57 = APPLICATION_PROTOCOL_DEFINITION ( 'international standard', 'config_control_design', 1994, #84 ) ;
#58 = AXIS2_PLACEMENT_3D ( 'NONE', #197, #216, #112 ) ;
#59 = FACE_OUTER_BOUND ( 'NONE', #46, .T. ) ;
#60 = CARTESIAN_POINT ( 'NONE',  ( 7.152352422040464847E-14, 1.499999999999994005, 20.48515150996145096 ) ) ;
#61 = CARTESIAN_POINT ( 'NONE',  ( 2.504511167915743751E-14, -8.784642641776459355E-16, 7.173205080756892116 ) ) ;
#62 =( LENGTH_UNIT ( ) NAMED_UNIT ( * ) SI_UNIT ( .MILLI., .METRE. ) );
#63 = DIRECTION ( 'NONE',  ( -3.491481338843133355E-15, 1.224646799147353207E-16, -1.000000000000000000 ) ) ;
#64 = CARTESIAN_POINT ( 'NONE',  ( 8.728703347107833388E-16, 0.8399999999999990807, 0.2500000000000000000 ) ) ;
#65 = EDGE_CURVE ( 'NONE', #78, #78, #267, .T. ) ;
#66 = COORDINATED_UNIVERSAL_TIME_OFFSET ( 1, 0, .AHEAD. ) ;
#67 = ORIENTED_EDGE ( 'NONE', *, *, #134, .T. ) ;
#68 = ORIENTED_EDGE ( 'NONE', *, *, #85, .F. ) ;
#69 = CC_DESIGN_SECURITY_CLASSIFICATION ( #291, ( #135 ) ) ;
#70 = FACE_OUTER_BOUND ( 'NONE', #27, .T. ) ;
#71 = EDGE_LOOP ( 'NONE', ( #123 ) ) ;
#72 = FACE_OUTER_BOUND ( 'NONE', #42, .T. ) ;
#73 = ORIENTED_EDGE ( 'NONE', *, *, #52, .T. ) ;
#74 = COORDINATED_UNIVERSAL_TIME_OFFSET ( 1, 0, .AHEAD. ) ;
#75 = AXIS2_PLACEMENT_3D ( 'NONE', #206, #238, #8 ) ;
#76 =( NAMED_UNIT ( * ) SI_UNIT ( $, .STERADIAN. ) SOLID_ANGLE_UNIT ( ) );
#77 = COORDINATED_UNIVERSAL_TIME_OFFSET ( 1, 0, .AHEAD. ) ;
#78 = VERTEX_POINT ( 'NONE', #56 ) ;
#79 = ORIENTED_EDGE ( 'NONE', *, *, #96, .F. ) ;
#80 = PRODUCT_DEFINITION ( 'UNKNOWN', '', #135, #14 ) ;
#81 = APPLICATION_CONTEXT ( 'configuration controlled 3d designs of mechanical parts and assemblies' ) ;
#82 = LOCAL_TIME ( 15, 3, 53.00000000000000000, #74 ) ;
#83 = APPROVAL_STATUS ( 'not_yet_approved' ) ;
#84 = APPLICATION_CONTEXT ( 'configuration controlled 3d designs of mechanical parts and assemblies' ) ;
#85 = EDGE_CURVE ( 'NONE', #28, #28, #182, .T. ) ;
#86 = ORIENTED_EDGE ( 'NONE', *, *, #225, .T. ) ;
#87 = DIRECTION ( 'NONE',  ( 4.585547486636280678E-31, 1.000000000000000000, 1.290716872006554259E-16 ) ) ;
#88 = CC_DESIGN_PERSON_AND_ORGANIZATION_ASSIGNMENT ( #240, #213, ( #135 ) ) ;
#89 = ADVANCED_FACE ( 'NONE', ( #256, #278 ), #230, .T. ) ;
#90 = CYLINDRICAL_SURFACE ( 'NONE', #265, 1.499999999999999112 ) ;
#91 = FACE_OUTER_BOUND ( 'NONE', #22, .T. ) ;
#92 = PERSON ( 'UNSPECIFIED', 'UNSPECIFIED', 'UNSPECIFIED', ('UNSPECIFIED'), ('UNSPECIFIED'), ('UNSPECIFIED') ) ;
#93 = AXIS2_PLACEMENT_3D ( 'NONE', #21, #120, #288 ) ;
#94 = AXIS2_PLACEMENT_3D ( 'NONE', #117, #33, #178 ) ;
#95 = CARTESIAN_POINT ( 'NONE',  ( 2.444036937190193349E-14, 0.8399999999999990807, 7.000000000000000000 ) ) ;
#96 = EDGE_CURVE ( 'NONE', #257, #257, #37, .T. ) ;
#97 = FACE_OUTER_BOUND ( 'NONE', #124, .T. ) ;
#98 = DIRECTION ( 'NONE',  ( -3.491481338843133355E-15, 1.224646799147353207E-16, -1.000000000000000000 ) ) ;
#99 = VERTEX_POINT ( 'NONE', #54 ) ;
#100 = CARTESIAN_POINT ( 'NONE',  ( 1.745740669421566678E-13, -6.123233995736766085E-15, 50.00000000000000000 ) ) ;
#101 = FACE_OUTER_BOUND ( 'NONE', #18, .T. ) ;
#102 = DIRECTION ( 'NONE',  ( 0.0000000000000000000, 1.000000000000000000, 0.0000000000000000000 ) ) ;
#103 = DATE_TIME_ROLE ( 'creation_date' ) ;
#104 = AXIS2_PLACEMENT_3D ( 'NONE', #133, #227, #10 ) ;
#105 = PERSON_AND_ORGANIZATION ( #92, #259 ) ;
#106 = EDGE_LOOP ( 'NONE', ( #67 ) ) ;
#107 = DIRECTION ( 'NONE',  ( -3.491481338843133355E-15, 1.224646799147353207E-16, -1.000000000000000000 ) ) ;
#108 = VERTEX_POINT ( 'NONE', #29 ) ;
#109 = AXIS2_PLACEMENT_3D ( 'NONE', #162, #185, #102 ) ;
#110 = PERSON_AND_ORGANIZATION ( #92, #259 ) ;
#111 = DIRECTION ( 'NONE',  ( -4.275831445896958607E-31, -1.000000000000000000, -1.224646799147353207E-16 ) ) ;
#112 = DIRECTION ( 'NONE',  ( 0.0000000000000000000, 1.000000000000000000, 0.0000000000000000000 ) ) ;
#113 = CARTESIAN_POINT ( 'NONE',  ( 8.728703347107829444E-16, -3.061616997868381785E-17, 0.2499999999999998890 ) ) ;
#114 = ADVANCED_BREP_SHAPE_REPRESENTATION ( '327040', ( #203, #4, #211 ), #229 ) ;
#115 = DIRECTION ( 'NONE',  ( 0.0000000000000000000, 1.000000000000000000, 0.0000000000000000000 ) ) ;
#116 = APPROVAL_ROLE ( '' ) ;
#117 = CARTESIAN_POINT ( 'NONE',  ( 0.0000000000000000000, 0.0000000000000000000, 0.0000000000000000000 ) ) ;
#118 = DIRECTION ( 'NONE',  ( -3.491481338843133355E-15, 1.224646799147353207E-16, -1.000000000000000000 ) ) ;
#119 = AXIS2_PLACEMENT_3D ( 'NONE', #100, #170, #200 ) ;
#120 = DIRECTION ( 'NONE',  ( 3.491481338843133355E-15, -1.224646799147353207E-16, 1.000000000000000000 ) ) ;
#121 = CC_DESIGN_APPROVAL ( #161, ( #291 ) ) ;
#122 = AXIS2_PLACEMENT_3D ( 'NONE', #1, #217, #212 ) ;
#123 = ORIENTED_EDGE ( 'NONE', *, *, #53, .T. ) ;
#124 = EDGE_LOOP ( 'NONE', ( #270 ) ) ;
#125 = PLANE ( 'NONE',  #38 ) ;
#126 = APPROVAL_PERSON_ORGANIZATION ( #254, #149, #283 ) ;
#127 = CIRCLE ( 'NONE', #273, 0.8399999999999990807 ) ;
#128 = DIRECTION ( 'NONE',  ( 4.275831445896958607E-31, 1.000000000000000000, 1.224646799147353454E-16 ) ) ;
#129 = CARTESIAN_POINT ( 'NONE',  ( 2.444036937190193349E-14, 6.298991087179789089E-33, 7.000000000000000000 ) ) ;
#130 = LOCAL_TIME ( 15, 3, 53.00000000000000000, #292 ) ;
#131 = CLOSED_SHELL ( 'NONE', ( #243, #163, #140, #244 ) ) ;
#132 = ORIENTED_EDGE ( 'NONE', *, *, #225, .F. ) ;
#133 = CARTESIAN_POINT ( 'NONE',  ( -1.487267652739465740E-31, 5.216632694380313594E-33, -4.259703857481468346E-17 ) ) ;
#134 = EDGE_CURVE ( 'NONE', #99, #99, #301, .T. ) ;
#135 = PRODUCT_DEFINITION_FORMATION_WITH_SPECIFIED_SOURCE ( 'ANY', '', #228, .NOT_KNOWN. ) ;
#136 = DIRECTION ( 'NONE',  ( 4.275831445896958607E-31, 1.000000000000000000, 1.224646799147353207E-16 ) ) ;
#137 = DATE_AND_TIME ( #16, #130 ) ;
#138 = EDGE_LOOP ( 'NONE', ( #202 ) ) ;
#139 = FACE_OUTER_BOUND ( 'NONE', #300, .T. ) ;
#140 = ADVANCED_FACE ( 'NONE', ( #235, #70 ), #19, .T. ) ;
#141 = CC_DESIGN_PERSON_AND_ORGANIZATION_ASSIGNMENT ( #221, #286, ( #228 ) ) ;
#142 = APPROVAL_PERSON_ORGANIZATION ( #218, #26, #172 ) ;
#143 = AXIS2_PLACEMENT_3D ( 'NONE', #154, #63, #264 ) ;
#144 = FACE_OUTER_BOUND ( 'NONE', #138, .T. ) ;
#145 = DIRECTION ( 'NONE',  ( 0.0000000000000000000, 1.000000000000000000, 0.0000000000000000000 ) ) ;
#146 = EDGE_LOOP ( 'NONE', ( #187 ) ) ;
#147 = CC_DESIGN_APPROVAL ( #26, ( #80 ) ) ;
#148 = APPROVAL_DATE_TIME ( #169, #149 ) ;
#149 = APPROVAL ( #282, 'UNSPECIFIED' ) ;
#151 = ORIENTED_EDGE ( 'NONE', *, *, #53, .F. ) ;
#150 = DIRECTION ( 'NONE',  ( 4.275831445896958607E-31, 1.000000000000000000, 1.224646799147353207E-16 ) ) ;
#152 = APPLICATION_PROTOCOL_DEFINITION ( 'international standard', 'config_control_design', 1994, #81 ) ;
#153 = CIRCLE ( 'NONE', #12, 0.8399999999999999689 ) ;
#154 = CARTESIAN_POINT ( 'NONE',  ( 2.444036937190193349E-14, -8.572527594031473190E-16, 7.000000000000000000 ) ) ;
#155 = PERSON_AND_ORGANIZATION_ROLE ( 'creator' ) ;
#156 = AXIS2_PLACEMENT_3D ( 'NONE', #160, #250, #136 ) ;
#157 = ORIENTED_EDGE ( 'NONE', *, *, #47, .F. ) ;
#158 = PERSON_AND_ORGANIZATION_ROLE ( 'classification_officer' ) ;
#159 = ORIENTED_EDGE ( 'NONE', *, *, #134, .F. ) ;
#160 = CARTESIAN_POINT ( 'NONE',  ( -2.974535305478931480E-31, 1.043326538876062719E-32, -8.519407714962936693E-17 ) ) ;
#161 = APPROVAL ( #83, 'UNSPECIFIED' ) ;
#162 = CARTESIAN_POINT ( 'NONE',  ( 7.152352422040464847E-14, -2.508707522672286183E-15, 20.48515150996145096 ) ) ;
#163 = ADVANCED_FACE ( 'NONE', ( #43, #139 ), #302, .T. ) ;
#164 = CYLINDRICAL_SURFACE ( 'NONE', #261, 0.7399999999999994360 ) ;
#165 = ORIENTED_EDGE ( 'NONE', *, *, #17, .T. ) ;
#166 = DIRECTION ( 'NONE',  ( -3.491481338843133355E-15, 1.224646799147353207E-16, -1.000000000000000000 ) ) ;
#167 = CARTESIAN_POINT ( 'NONE',  ( 1.735266225405037467E-13, 1.499999999999995559, 49.70000000000000284 ) ) ;
#168 = CC_DESIGN_PERSON_AND_ORGANIZATION_ASSIGNMENT ( #171, #155, ( #80 ) ) ;
#169 = DATE_AND_TIME ( #189, #253 ) ;
#170 = DIRECTION ( 'NONE',  ( -3.491481338843133355E-15, 1.224646799147353207E-16, -1.000000000000000000 ) ) ;
#171 = PERSON_AND_ORGANIZATION ( #92, #259 ) ;
#172 = APPROVAL_ROLE ( '' ) ;
#173 = CIRCLE ( 'NONE', #204, 1.200000000000001732 ) ;
#174 = APPROVAL_DATE_TIME ( #9, #26 ) ;
#175 = LOCAL_TIME ( 15, 3, 53.00000000000000000, #66 ) ;
#176 = UNCERTAINTY_MEASURE_WITH_UNIT (LENGTH_MEASURE( 1.000000000000000082E-05 ), #62, 'distance_accuracy_value', 'NONE');
#177 = ADVANCED_FACE ( 'NONE', ( #72 ), #125, .F. ) ;
#178 = DIRECTION ( 'NONE',  ( 4.275831445896958607E-31, 1.000000000000000000, 1.224646799147353207E-16 ) ) ;
#179 = AXIS2_PLACEMENT_3D ( 'NONE', #194, #296, #40 ) ;
#180 = EDGE_LOOP ( 'NONE', ( #79 ) ) ;
#181 = TOROIDAL_SURFACE ( 'NONE', #75, 2.740000000000000213, 2.000000000000000000 ) ;
#182 = CIRCLE ( 'NONE', #109, 1.499999999999996669 ) ;
#183 = ADVANCED_FACE ( 'NONE', ( #101, #23 ), #164, .T. ) ;
#184 = DIRECTION ( 'NONE',  ( -3.491481338843133355E-15, 1.224646799147353207E-16, -1.000000000000000000 ) ) ;
#185 = DIRECTION ( 'NONE',  ( -3.491481338843133355E-15, 1.224646799147353207E-16, -1.000000000000000000 ) ) ;
#186 = CARTESIAN_POINT ( 'NONE',  ( 0.0000000000000000000, 0.0000000000000000000, 0.0000000000000000000 ) ) ;
#187 = ORIENTED_EDGE ( 'NONE', *, *, #219, .F. ) ;
#188 = DIRECTION ( 'NONE',  ( 4.275831445896958607E-31, 1.000000000000000000, 1.224646799147353207E-16 ) ) ;
#189 = CALENDAR_DATE ( 2021, 1, 12 ) ;
#190 = CARTESIAN_POINT ( 'NONE',  ( 5.586370142149013368E-14, 0.7399999999999979927, 16.00000000000000000 ) ) ;
#191 = MECHANICAL_CONTEXT ( 'NONE', #84, 'mechanical' ) ;
#192 = PLANE ( 'NONE',  #241 ) ;
#193 = ORIENTED_EDGE ( 'NONE', *, *, #17, .F. ) ;
#194 = CARTESIAN_POINT ( 'NONE',  ( 2.504511167915743751E-14, -8.784642641776459355E-16, 7.173205080756892116 ) ) ;
#195 = VERTEX_POINT ( 'NONE', #190 ) ;
#196 = EDGE_LOOP ( 'NONE', ( #86 ) ) ;
#197 = CARTESIAN_POINT ( 'NONE',  ( 5.586370142149013368E-14, -1.959434878635765131E-15, 16.00000000000000000 ) ) ;
#198 = ADVANCED_FACE ( 'NONE', ( #91 ), #303, .F. ) ;
#199 = CALENDAR_DATE ( 2021, 1, 12 ) ;
#200 = DIRECTION ( 'NONE',  ( 0.0000000000000000000, 1.000000000000000000, 0.0000000000000000000 ) ) ;
#201 = CLOSED_SHELL ( 'NONE', ( #198, #297, #183, #258, #89, #280, #298, #177 ) ) ;
#202 = ORIENTED_EDGE ( 'NONE', *, *, #96, .T. ) ;
#203 = MANIFOLD_SOLID_BREP ( 'Corps-Déplacer/Copier1[1]', #201 ) ;
#204 = AXIS2_PLACEMENT_3D ( 'NONE', #50, #207, #262 ) ;
#205 = ORIENTED_EDGE ( 'NONE', *, *, #47, .T. ) ;
#206 = CARTESIAN_POINT ( 'NONE',  ( 5.586370142149013368E-14, -2.168404344971008868E-15, 16.00000000000000000 ) ) ;
#207 = DIRECTION ( 'NONE',  ( -3.491481338843133355E-15, 1.224646799147353207E-16, -1.000000000000000000 ) ) ;
#208 = COORDINATED_UNIVERSAL_TIME_OFFSET ( 1, 0, .AHEAD. ) ;
#209 = DIRECTION ( 'NONE',  ( 3.491481338843133355E-15, -1.224646799147353207E-16, 1.000000000000000000 ) ) ;
#210 = CC_DESIGN_DATE_AND_TIME_ASSIGNMENT ( #249, #234, ( #291 ) ) ;
#211 = AXIS2_PLACEMENT_3D ( 'NONE', #186, #239, #263 ) ;
#212 = DIRECTION ( 'NONE',  ( -4.275831445896958607E-31, -1.000000000000000000, -1.224646799147353207E-16 ) ) ;
#213 = PERSON_AND_ORGANIZATION_ROLE ( 'creator' ) ;
#214 = CARTESIAN_POINT ( 'NONE',  ( 5.707628016518648493E-14, -2.001966415627278844E-15, 16.34729635533384595 ) ) ;
#215 = FACE_BOUND ( 'NONE', #106, .T. ) ;
#216 = DIRECTION ( 'NONE',  ( -3.491481338843133355E-15, 1.224646799147353207E-16, -1.000000000000000000 ) ) ;
#217 = DIRECTION ( 'NONE',  ( 3.491481338843133355E-15, -1.224646799147353207E-16, 1.000000000000000000 ) ) ;
#218 = PERSON_AND_ORGANIZATION ( #92, #259 ) ;
#219 = EDGE_CURVE ( 'NONE', #279, #279, #285, .T. ) ;
#220 = DIRECTION ( 'NONE',  ( -3.491481338843133355E-15, 1.224646799147353207E-16, -1.000000000000000000 ) ) ;
#221 = PERSON_AND_ORGANIZATION ( #92, #259 ) ;
#222 = APPROVAL_PERSON_ORGANIZATION ( #110, #161, #116 ) ;
#223 = APPROVAL_DATE_TIME ( #137, #161 ) ;
#224 = VERTEX_POINT ( 'NONE', #64 ) ;
#225 = EDGE_CURVE ( 'NONE', #108, #108, #173, .T. ) ;
#226 = PERSON_AND_ORGANIZATION ( #92, #259 ) ;
#227 = DIRECTION ( 'NONE',  ( 3.491481338843133355E-15, -1.224646799147353207E-16, 1.000000000000000000 ) ) ;
#228 = PRODUCT ( '327040', '327040', '', ( #191 ) ) ;
#229 =( GEOMETRIC_REPRESENTATION_CONTEXT ( 3 ) GLOBAL_UNCERTAINTY_ASSIGNED_CONTEXT ( ( #176 ) ) GLOBAL_UNIT_ASSIGNED_CONTEXT ( ( #62, #245, #76 ) ) REPRESENTATION_CONTEXT ( 'NONE', 'WORKASPACE' ) );
#230 = CONICAL_SURFACE ( 'NONE', #93, 1.499999999999996669, 0.1745329251994262865 ) ;
#231 = AXIS2_PLACEMENT_3D ( 'NONE', #6, #107, #145 ) ;
#232 = ORIENTED_EDGE ( 'NONE', *, *, #219, .T. ) ;
#233 = CARTESIAN_POINT ( 'NONE',  ( 0.0000000000000000000, 0.6956624327025947574, 0.0000000000000000000 ) ) ;
#234 = DATE_TIME_ROLE ( 'classification_date' ) ;
#235 = FACE_OUTER_BOUND ( 'NONE', #236, .T. ) ;
#236 = EDGE_LOOP ( 'NONE', ( #193 ) ) ;
#237 = VERTEX_POINT ( 'NONE', #233 ) ;
#238 = DIRECTION ( 'NONE',  ( -3.491481338843133355E-15, 1.224646799147353207E-16, -1.000000000000000000 ) ) ;
#239 = DIRECTION ( 'NONE',  ( 0.0000000000000000000, 0.0000000000000000000, 1.000000000000000000 ) ) ;
#240 = PERSON_AND_ORGANIZATION ( #92, #259 ) ;
#241 = AXIS2_PLACEMENT_3D ( 'NONE', #129, #284, #111 ) ;
#242 = EDGE_LOOP ( 'NONE', ( #157 ) ) ;
#243 = ADVANCED_FACE ( 'NONE', ( #252 ), #30, .F. ) ;
#244 = ADVANCED_FACE ( 'NONE', ( #15 ), #192, .T. ) ;
#245 =( NAMED_UNIT ( * ) PLANE_ANGLE_UNIT ( ) SI_UNIT ( $, .RADIAN. ) );
#246 = CALENDAR_DATE ( 2021, 1, 12 ) ;
#247 = VERTEX_POINT ( 'NONE', #95 ) ;
#248 = PRODUCT_DEFINITION_SHAPE ( 'NONE', 'NONE',  #80 ) ;
#249 = DATE_AND_TIME ( #199, #175 ) ;
#250 = DIRECTION ( 'NONE',  ( -3.491481338843133355E-15, 1.224646799147353207E-16, -1.000000000000000000 ) ) ;
#251 = AXIS2_PLACEMENT_3D ( 'NONE', #113, #209, #2 ) ;
#252 = FACE_OUTER_BOUND ( 'NONE', #39, .T. ) ;
#253 = LOCAL_TIME ( 15, 3, 53.00000000000000000, #77 ) ;
#254 = PERSON_AND_ORGANIZATION ( #92, #259 ) ;
#255 = DIRECTION ( 'NONE',  ( 0.0000000000000000000, 1.000000000000000000, 0.0000000000000000000 ) ) ;
#256 = FACE_BOUND ( 'NONE', #180, .T. ) ;
#257 = VERTEX_POINT ( 'NONE', #5 ) ;
#258 = ADVANCED_FACE ( 'NONE', ( #34, #144 ), #181, .F. ) ;
#259 = ORGANIZATION ( 'UNSPECIFIED', 'UNSPECIFIED', '' ) ;
#260 = AXIS2_PLACEMENT_3D ( 'NONE', #214, #275, #255 ) ;
#261 = AXIS2_PLACEMENT_3D ( 'NONE', #24, #166, #188 ) ;
#262 = DIRECTION ( 'NONE',  ( 0.0000000000000000000, 1.000000000000000000, 0.0000000000000000000 ) ) ;
#263 = DIRECTION ( 'NONE',  ( 1.000000000000000000, 0.0000000000000000000, 0.0000000000000000000 ) ) ;
#264 = DIRECTION ( 'NONE',  ( 0.0000000000000000000, 1.000000000000000000, 0.0000000000000000000 ) ) ;
#265 = AXIS2_PLACEMENT_3D ( 'NONE', #271, #220, #128 ) ;
#266 = CC_DESIGN_PERSON_AND_ORGANIZATION_ASSIGNMENT ( #226, #158, ( #291 ) ) ;
#267 = CIRCLE ( 'NONE', #143, 0.8399999999999999689 ) ;
#268 = SHAPE_DEFINITION_REPRESENTATION ( #248, #114 ) ;
#269 = EDGE_LOOP ( 'NONE', ( #293 ) ) ;
#270 = ORIENTED_EDGE ( 'NONE', *, *, #65, .F. ) ;
#271 = CARTESIAN_POINT ( 'NONE',  ( 0.0000000000000000000, 0.0000000000000000000, 0.0000000000000000000 ) ) ;
#272 = CC_DESIGN_APPROVAL ( #149, ( #135 ) ) ;
#273 = AXIS2_PLACEMENT_3D ( 'NONE', #44, #118, #87 ) ;
#274 = FACE_OUTER_BOUND ( 'NONE', #48, .T. ) ;
#275 = DIRECTION ( 'NONE',  ( -3.491481338843133355E-15, 1.224646799147353207E-16, -1.000000000000000000 ) ) ;
#276 = DATE_AND_TIME ( #246, #82 ) ;
#277 = EDGE_LOOP ( 'NONE', ( #151 ) ) ;
#278 = FACE_OUTER_BOUND ( 'NONE', #287, .T. ) ;
#279 = VERTEX_POINT ( 'NONE', #167 ) ;
#280 = ADVANCED_FACE ( 'NONE', ( #274, #59 ), #90, .T. ) ;
#281 = CARTESIAN_POINT ( 'NONE',  ( 1.745740669421566678E-13, 8.998558695971067645E-33, 50.00000000000000000 ) ) ;
#282 = APPROVAL_STATUS ( 'not_yet_approved' ) ;
#283 = APPROVAL_ROLE ( '' ) ;
#284 = DIRECTION ( 'NONE',  ( 3.491481338843133355E-15, -1.224646799147353207E-16, 1.000000000000000000 ) ) ;
#285 = CIRCLE ( 'NONE', #231, 1.500000000000001554 ) ;
#286 = PERSON_AND_ORGANIZATION_ROLE ( 'design_owner' ) ;
#287 = EDGE_LOOP ( 'NONE', ( #41 ) ) ;
#288 = DIRECTION ( 'NONE',  ( 0.0000000000000000000, -1.000000000000000000, 0.0000000000000000000 ) ) ;
#289 = FACE_OUTER_BOUND ( 'NONE', #146, .T. ) ;
#290 = PRODUCT_RELATED_PRODUCT_CATEGORY ( 'detail', '', ( #228 ) ) ;
#291 = SECURITY_CLASSIFICATION ( '', '', #35 ) ;
#292 = COORDINATED_UNIVERSAL_TIME_OFFSET ( 1, 0, .AHEAD. ) ;
#293 = ORIENTED_EDGE ( 'NONE', *, *, #52, .F. ) ;
#294 = DIRECTION ( 'NONE',  ( -3.491481338843133355E-15, 1.224646799147353207E-16, -1.000000000000000000 ) ) ;
#295 = PERSON_AND_ORGANIZATION_ROLE ( 'design_supplier' ) ;
#296 = DIRECTION ( 'NONE',  ( -3.491481338843133355E-15, 1.224646799147353207E-16, -1.000000000000000000 ) ) ;
#297 = ADVANCED_FACE ( 'NONE', ( #97, #215 ), #51, .T. ) ;
#298 = ADVANCED_FACE ( 'NONE', ( #289, #49 ), #36, .T. ) ;
#299 = CARTESIAN_POINT ( 'NONE',  ( 2.444036937190193349E-14, -8.572527594031473190E-16, 7.000000000000000000 ) ) ;
#300 = EDGE_LOOP ( 'NONE', ( #165 ) ) ;
#301 = CIRCLE ( 'NONE', #179, 0.7399999999999988809 ) ;
#302 = CONICAL_SURFACE ( 'NONE', #251, 0.8399999999999990807, 0.5235987755982923764 ) ;
#303 = PLANE ( 'NONE',  #122 ) ;
ENDSEC;
END-ISO-10303-21;
