ISO-10303-21;
HEADER;
FILE_DESCRIPTION (( 'STEP AP203' ),
    '1' );
FILE_NAME ('327039.step',
    '2021-12-01T14:03:53',
    ( '' ),
    ( '' ),
    'SwSTEP 2.0',
    'SolidWorks 2019',
    '' );
FILE_SCHEMA (( 'CONFIG_CONTROL_DESIGN' ));
ENDSEC;

DATA;
#1 = PERSON_AND_ORGANIZATION_ROLE ( 'design_owner' ) ;
#2 = FACE_OUTER_BOUND ( 'NONE', #165, .T. ) ;
#3 = AXIS2_PLACEMENT_3D ( 'NONE', #49, #245, #141 ) ;
#4 = ADVANCED_FACE ( 'NONE', ( #70, #167 ), #43, .T. ) ;
#5 = CALENDAR_DATE ( 2021, 1, 12 ) ;
#6 = APPROVAL_ROLE ( '' ) ;
#7 = AXIS2_PLACEMENT_3D ( 'NONE', #99, #281, #8 ) ;
#8 = DIRECTION ( 'NONE',  ( 0.0000000000000000000, 1.000000000000000000, 0.0000000000000000000 ) ) ;
#9 = DATE_AND_TIME ( #285, #221 ) ;
#10 = ADVANCED_FACE ( 'NONE', ( #279 ), #74, .F. ) ;
#11 = ORGANIZATION ( 'UNSPECIFIED', 'UNSPECIFIED', '' ) ;
#12 = CARTESIAN_POINT ( 'NONE',  ( 2.504511167915743751E-14, -8.784642641776459355E-16, 7.173205080756892116 ) ) ;
#13 = CARTESIAN_POINT ( 'NONE',  ( 7.162253009360725804E-14, -2.512180181236015761E-15, 20.51350791905954907 ) ) ;
#14 = DIRECTION ( 'NONE',  ( -3.491481338843133355E-15, 1.224646799147353207E-16, -1.000000000000000000 ) ) ;
#15 = FACE_BOUND ( 'NONE', #194, .T. ) ;
#16 = CIRCLE ( 'NONE', #259, 1.500000000000001554 ) ;
#17 = DIRECTION ( 'NONE',  ( 0.0000000000000000000, 1.000000000000000000, 0.0000000000000000000 ) ) ;
#18 = VERTEX_POINT ( 'NONE', #111 ) ;
#19 = PLANE ( 'NONE',  #140 ) ;
#20 = EDGE_LOOP ( 'NONE', ( #68 ) ) ;
#21 = VERTEX_POINT ( 'NONE', #212 ) ;
#22 = ORIENTED_EDGE ( 'NONE', *, *, #155, .T. ) ;
#23 = SECURITY_CLASSIFICATION_LEVEL ( 'unclassified' ) ;
#24 = CALENDAR_DATE ( 2021, 1, 12 ) ;
#25 = CONICAL_SURFACE ( 'NONE', #125, 0.7349999999999988765, 0.5235987755982933756 ) ;
#26 = DIRECTION ( 'NONE',  ( 4.275831445896958607E-31, 1.000000000000000000, 1.224646799147353207E-16 ) ) ;
#27 = EDGE_CURVE ( 'NONE', #21, #21, #84, .T. ) ;
#28 = CC_DESIGN_PERSON_AND_ORGANIZATION_ASSIGNMENT ( #59, #88, ( #211 ) ) ;
#29 = DIRECTION ( 'NONE',  ( 0.0000000000000000000, 1.000000000000000000, 0.0000000000000000000 ) ) ;
#30 = AXIS2_PLACEMENT_3D ( 'NONE', #188, #146, #198 ) ;
#31 = ADVANCED_FACE ( 'NONE', ( #76 ), #61, .T. ) ;
#32 = PERSON_AND_ORGANIZATION ( #116, #11 ) ;
#33 = AXIS2_PLACEMENT_3D ( 'NONE', #173, #252, #53 ) ;
#34 = PRODUCT_RELATED_PRODUCT_CATEGORY ( 'detail', '', ( #67 ) ) ;
#35 = DATE_AND_TIME ( #5, #78 ) ;
#36 = CARTESIAN_POINT ( 'NONE',  ( 0.0000000000000000000, 0.0000000000000000000, 0.0000000000000000000 ) ) ;
#37 = ORIENTED_EDGE ( 'NONE', *, *, #115, .T. ) ;
#38 = FACE_BOUND ( 'NONE', #89, .T. ) ;
#39 = DIRECTION ( 'NONE',  ( -3.491481338843133355E-15, 1.224646799147353207E-16, -1.000000000000000000 ) ) ;
#40 = DIRECTION ( 'NONE',  ( 3.491481338843133355E-15, -1.224646799147353207E-16, 1.000000000000000000 ) ) ;
#41 = APPLICATION_PROTOCOL_DEFINITION ( 'international standard', 'config_control_design', 1994, #137 ) ;
#42 = DIRECTION ( 'NONE',  ( -3.491481338843133355E-15, 1.224646799147353207E-16, -1.000000000000000000 ) ) ;
#43 = CONICAL_SURFACE ( 'NONE', #57, 1.499999999999996669, 0.1745329251994258701 ) ;
#44 = EDGE_LOOP ( 'NONE', ( #50 ) ) ;
#45 = CARTESIAN_POINT ( 'NONE',  ( 2.444036937190193349E-14, 0.8349999999999990763, 7.000000000000000000 ) ) ;
#46 = FACE_OUTER_BOUND ( 'NONE', #230, .T. ) ;
#47 = EDGE_LOOP ( 'NONE', ( #246 ) ) ;
#48 = VERTEX_POINT ( 'NONE', #288 ) ;
#49 = CARTESIAN_POINT ( 'NONE',  ( 5.586370142149013368E-14, -2.168404344971008868E-15, 16.00000000000000000 ) ) ;
#50 = ORIENTED_EDGE ( 'NONE', *, *, #121, .F. ) ;
#51 = PERSON_AND_ORGANIZATION ( #116, #11 ) ;
#52 = CC_DESIGN_APPROVAL ( #193, ( #239 ) ) ;
#53 = DIRECTION ( 'NONE',  ( 0.0000000000000000000, 1.000000000000000000, 0.0000000000000000000 ) ) ;
#54 = FACE_OUTER_BOUND ( 'NONE', #82, .T. ) ;
#55 = ADVANCED_FACE ( 'NONE', ( #54, #2 ), #191, .F. ) ;
#56 = APPROVAL_STATUS ( 'not_yet_approved' ) ;
#57 = AXIS2_PLACEMENT_3D ( 'NONE', #13, #265, #303 ) ;
#58 = CIRCLE ( 'NONE', #160, 0.6906624327025947530 ) ;
#59 = PERSON_AND_ORGANIZATION ( #116, #11 ) ;
#60 = APPROVAL_ROLE ( '' ) ;
#61 = PLANE ( 'NONE',  #237 ) ;
#62 =( GEOMETRIC_REPRESENTATION_CONTEXT ( 3 ) GLOBAL_UNCERTAINTY_ASSIGNED_CONTEXT ( ( #292 ) ) GLOBAL_UNIT_ASSIGNED_CONTEXT ( ( #280, #103, #261 ) ) REPRESENTATION_CONTEXT ( 'NONE', 'WORKASPACE' ) );
#63 = ORIENTED_EDGE ( 'NONE', *, *, #27, .T. ) ;
#64 = EDGE_LOOP ( 'NONE', ( #144 ) ) ;
#65 = CARTESIAN_POINT ( 'NONE',  ( -4.276423536147513034E-47, 0.6906624327025947530, 0.0000000000000000000 ) ) ;
#66 = CARTESIAN_POINT ( 'NONE',  ( 1.745740669421566678E-13, -6.123233995736766085E-15, 50.00000000000000000 ) ) ;
#67 = PRODUCT ( '327039', '327039', '', ( #218 ) ) ;
#68 = ORIENTED_EDGE ( 'NONE', *, *, #115, .F. ) ;
#69 = CLOSED_SHELL ( 'NONE', ( #117, #258, #156, #55, #4, #174, #126, #203 ) ) ;
#70 = FACE_BOUND ( 'NONE', #44, .T. ) ;
#71 = EDGE_LOOP ( 'NONE', ( #270 ) ) ;
#72 = PERSON_AND_ORGANIZATION ( #116, #11 ) ;
#73 = VERTEX_POINT ( 'NONE', #172 ) ;
#74 = PLANE ( 'NONE',  #223 ) ;
#75 = MANIFOLD_SOLID_BREP ( 'Corps-Déplacer/Copier1[1]', #69 ) ;
#76 = FACE_OUTER_BOUND ( 'NONE', #169, .T. ) ;
#77 = DIRECTION ( 'NONE',  ( -3.491481338843133355E-15, 1.224646799147353207E-16, -1.000000000000000000 ) ) ;
#78 = LOCAL_TIME ( 15, 3, 53.00000000000000000, #235 ) ;
#79 = FACE_BOUND ( 'NONE', #277, .T. ) ;
#80 = CC_DESIGN_DATE_AND_TIME_ASSIGNMENT ( #9, #130, ( #239 ) ) ;
#81 = AXIS2_PLACEMENT_3D ( 'NONE', #143, #186, #269 ) ;
#82 = EDGE_LOOP ( 'NONE', ( #190 ) ) ;
#83 = CC_DESIGN_PERSON_AND_ORGANIZATION_ASSIGNMENT ( #278, #214, ( #180 ) ) ;
#84 = CIRCLE ( 'NONE', #202, 0.8349999999999990763 ) ;
#85 = DIRECTION ( 'NONE',  ( -3.491481338843133355E-15, 1.224646799147353207E-16, -1.000000000000000000 ) ) ;
#86 = APPROVAL ( #56, 'UNSPECIFIED' ) ;
#87 = EDGE_LOOP ( 'NONE', ( #233 ) ) ;
#88 = PERSON_AND_ORGANIZATION_ROLE ( 'creator' ) ;
#89 = EDGE_LOOP ( 'NONE', ( #263 ) ) ;
#90 = AXIS2_PLACEMENT_3D ( 'NONE', #123, #85, #295 ) ;
#91 = CC_DESIGN_APPROVAL ( #170, ( #211 ) ) ;
#92 = ORIENTED_EDGE ( 'NONE', *, *, #290, .T. ) ;
#93 = CALENDAR_DATE ( 2021, 1, 12 ) ;
#94 = FACE_OUTER_BOUND ( 'NONE', #159, .T. ) ;
#95 = COORDINATED_UNIVERSAL_TIME_OFFSET ( 1, 0, .AHEAD. ) ;
#96 = APPROVAL_DATE_TIME ( #178, #86 ) ;
#97 = CARTESIAN_POINT ( 'NONE',  ( 7.162253009360725804E-14, 1.499999999999994005, 20.51350791905954907 ) ) ;
#98 = AXIS2_PLACEMENT_3D ( 'NONE', #195, #274, #164 ) ;
#99 = CARTESIAN_POINT ( 'NONE',  ( 2.444036937190193349E-14, -8.572527594031473190E-16, 7.000000000000000000 ) ) ;
#100 = CARTESIAN_POINT ( 'NONE',  ( 0.0000000000000000000, 0.0000000000000000000, 0.0000000000000000000 ) ) ;
#101 = CONICAL_SURFACE ( 'NONE', #210, 0.8349999999999990763, 0.5235987755982923764 ) ;
#102 = PERSON_AND_ORGANIZATION ( #116, #11 ) ;
#103 =( NAMED_UNIT ( * ) PLANE_ANGLE_UNIT ( ) SI_UNIT ( $, .RADIAN. ) );
#104 = AXIS2_PLACEMENT_3D ( 'NONE', #257, #134, #106 ) ;
#105 = DIRECTION ( 'NONE',  ( 4.275831445896958607E-31, 1.000000000000000000, 1.224646799147353454E-16 ) ) ;
#106 = DIRECTION ( 'NONE',  ( 4.275831445896958607E-31, 1.000000000000000000, 1.224646799147353207E-16 ) ) ;
#107 = EDGE_CURVE ( 'NONE', #73, #73, #283, .T. ) ;
#108 = FACE_OUTER_BOUND ( 'NONE', #248, .T. ) ;
#109 = CIRCLE ( 'NONE', #7, 0.8349999999999999645 ) ;
#110 = FACE_OUTER_BOUND ( 'NONE', #250, .T. ) ;
#111 = CARTESIAN_POINT ( 'NONE',  ( 2.504511167915743751E-14, 0.7349999999999979883, 7.173205080756892116 ) ) ;
#112 = ORIENTED_EDGE ( 'NONE', *, *, #27, .F. ) ;
#113 = CYLINDRICAL_SURFACE ( 'NONE', #166, 0.7349999999999995426 ) ;
#114 = ORIENTED_EDGE ( 'NONE', *, *, #290, .F. ) ;
#115 = EDGE_CURVE ( 'NONE', #238, #238, #234, .T. ) ;
#116 = PERSON ( 'UNSPECIFIED', 'UNSPECIFIED', 'UNSPECIFIED', ('UNSPECIFIED'), ('UNSPECIFIED'), ('UNSPECIFIED') ) ;
#117 = ADVANCED_FACE ( 'NONE', ( #229 ), #19, .F. ) ;
#118 = LOCAL_TIME ( 15, 3, 53.00000000000000000, #95 ) ;
#119 = DIRECTION ( 'NONE',  ( -3.491481338843133355E-15, 1.224646799147353207E-16, -1.000000000000000000 ) ) ;
#120 = DIRECTION ( 'NONE',  ( 3.491481338843133355E-15, -1.224646799147353207E-16, 1.000000000000000000 ) ) ;
#121 = EDGE_CURVE ( 'NONE', #48, #48, #262, .T. ) ;
#122 = DIRECTION ( 'NONE',  ( -3.491481338843133355E-15, 1.224646799147353207E-16, -1.000000000000000000 ) ) ;
#123 = CARTESIAN_POINT ( 'NONE',  ( 7.162253009360725804E-14, -2.512180181236015761E-15, 20.51350791905954907 ) ) ;
#124 = PERSON_AND_ORGANIZATION ( #116, #11 ) ;
#125 = AXIS2_PLACEMENT_3D ( 'NONE', #12, #39, #133 ) ;
#126 = ADVANCED_FACE ( 'NONE', ( #94, #15 ), #192, .T. ) ;
#127 = DATE_AND_TIME ( #93, #302 ) ;
#128 = DIRECTION ( 'NONE',  ( 4.613005854819731728E-31, 1.000000000000000000, 1.298445715551503761E-16 ) ) ;
#129 = COORDINATED_UNIVERSAL_TIME_OFFSET ( 1, 0, .AHEAD. ) ;
#130 = DATE_TIME_ROLE ( 'creation_date' ) ;
#131 = ORIENTED_EDGE ( 'NONE', *, *, #264, .T. ) ;
#132 = CIRCLE ( 'NONE', #30, 0.7349999999999988765 ) ;
#133 = DIRECTION ( 'NONE',  ( 0.0000000000000000000, 1.000000000000000000, 0.0000000000000000000 ) ) ;
#134 = DIRECTION ( 'NONE',  ( -3.491481338843133355E-15, 1.224646799147353207E-16, -1.000000000000000000 ) ) ;
#135 = DIRECTION ( 'NONE',  ( 1.000000000000000000, 0.0000000000000000000, 0.0000000000000000000 ) ) ;
#136 = ADVANCED_FACE ( 'NONE', ( #46, #108 ), #297, .T. ) ;
#137 = APPLICATION_CONTEXT ( 'configuration controlled 3d designs of mechanical parts and assemblies' ) ;
#138 = CC_DESIGN_PERSON_AND_ORGANIZATION_ASSIGNMENT ( #32, #200, ( #239 ) ) ;
#139 = CARTESIAN_POINT ( 'NONE',  ( 5.707628016518648493E-14, -2.001966415627278844E-15, 16.34729635533384595 ) ) ;
#140 = AXIS2_PLACEMENT_3D ( 'NONE', #150, #207, #147 ) ;
#141 = DIRECTION ( 'NONE',  ( 4.275831445896958607E-31, 1.000000000000000000, 1.224646799147353207E-16 ) ) ;
#142 = EDGE_LOOP ( 'NONE', ( #37 ) ) ;
#143 = CARTESIAN_POINT ( 'NONE',  ( 0.0000000000000000000, 0.0000000000000000000, 0.0000000000000000000 ) ) ;
#144 = ORIENTED_EDGE ( 'NONE', *, *, #155, .F. ) ;
#145 = PERSON_AND_ORGANIZATION_ROLE ( 'design_supplier' ) ;
#146 = DIRECTION ( 'NONE',  ( -3.491481338843133355E-15, 1.224646799147353207E-16, -1.000000000000000000 ) ) ;
#147 = DIRECTION ( 'NONE',  ( -4.275831445896958607E-31, -1.000000000000000000, -1.224646799147353207E-16 ) ) ;
#148 = AXIS2_PLACEMENT_3D ( 'NONE', #66, #42, #189 ) ;
#149 = CARTESIAN_POINT ( 'NONE',  ( -2.953156148249446766E-31, 1.035827739962753513E-32, -8.458175375005569168E-17 ) ) ;
#150 = CARTESIAN_POINT ( 'NONE',  ( 2.444036937190193349E-14, 6.261497092613242376E-33, 7.000000000000000000 ) ) ;
#151 = FACE_OUTER_BOUND ( 'NONE', #71, .T. ) ;
#152 = CC_DESIGN_DATE_AND_TIME_ASSIGNMENT ( #35, #289, ( #180 ) ) ;
#154 = DIRECTION ( 'NONE',  ( -4.613005854819731728E-31, -1.000000000000000000, -1.298445715551503761E-16 ) ) ;
#153 = APPLICATION_PROTOCOL_DEFINITION ( 'international standard', 'config_control_design', 1994, #157 ) ;
#155 = EDGE_CURVE ( 'NONE', #291, #291, #240, .T. ) ;
#156 = ADVANCED_FACE ( 'NONE', ( #110, #232 ), #113, .T. ) ;
#157 = APPLICATION_CONTEXT ( 'configuration controlled 3d designs of mechanical parts and assemblies' ) ;
#158 = FACE_OUTER_BOUND ( 'NONE', #20, .T. ) ;
#159 = EDGE_LOOP ( 'NONE', ( #241 ) ) ;
#160 = AXIS2_PLACEMENT_3D ( 'NONE', #149, #217, #26 ) ;
#161 = CARTESIAN_POINT ( 'NONE',  ( 8.728703347107829444E-16, -3.061616997868381785E-17, 0.2499999999999998890 ) ) ;
#162 = DIRECTION ( 'NONE',  ( -4.275831445896958607E-31, -1.000000000000000000, -1.224646799147353207E-16 ) ) ;
#163 = CARTESIAN_POINT ( 'NONE',  ( -1.476578074124723383E-31, 5.179138699813767564E-33, -4.229087687502784584E-17 ) ) ;
#164 = DIRECTION ( 'NONE',  ( 0.0000000000000000000, 1.000000000000000000, 0.0000000000000000000 ) ) ;
#165 = EDGE_LOOP ( 'NONE', ( #182 ) ) ;
#166 = AXIS2_PLACEMENT_3D ( 'NONE', #100, #77, #176 ) ;
#167 = FACE_OUTER_BOUND ( 'NONE', #301, .T. ) ;
#168 = VERTEX_POINT ( 'NONE', #197 ) ;
#169 = EDGE_LOOP ( 'NONE', ( #298 ) ) ;
#170 = APPROVAL ( #222, 'UNSPECIFIED' ) ;
#171 = DATE_AND_TIME ( #24, #267 ) ;
#172 = CARTESIAN_POINT ( 'NONE',  ( 5.586370142149013368E-14, 0.7349999999999982103, 16.00000000000000000 ) ) ;
#173 = CARTESIAN_POINT ( 'NONE',  ( 1.745740669421566678E-13, -6.123233995736766085E-15, 50.00000000000000000 ) ) ;
#174 = ADVANCED_FACE ( 'NONE', ( #151, #236 ), #242, .T. ) ;
#175 = APPROVAL_DATE_TIME ( #171, #193 ) ;
#176 = DIRECTION ( 'NONE',  ( 4.275831445896958607E-31, 1.000000000000000000, 1.224646799147353207E-16 ) ) ;
#177 = CC_DESIGN_PERSON_AND_ORGANIZATION_ASSIGNMENT ( #272, #145, ( #211 ) ) ;
#178 = DATE_AND_TIME ( #205, #118 ) ;
#179 = AXIS2_PLACEMENT_3D ( 'NONE', #213, #276, #227 ) ;
#180 = SECURITY_CLASSIFICATION ( '', '', #23 ) ;
#181 = MANIFOLD_SOLID_BREP ( 'Corps-Déplacer/Copier1[2]', #206 ) ;
#182 = ORIENTED_EDGE ( 'NONE', *, *, #121, .T. ) ;
#183 = DESIGN_CONTEXT ( 'detailed design', #157, 'design' ) ;
#184 = DIRECTION ( 'NONE',  ( 0.0000000000000000000, 0.0000000000000000000, 1.000000000000000000 ) ) ;
#185 = APPROVAL_PERSON_ORGANIZATION ( #72, #193, #199 ) ;
#186 = DIRECTION ( 'NONE',  ( -3.491481338843133355E-15, 1.224646799147353207E-16, -1.000000000000000000 ) ) ;
#187 = ORIENTED_EDGE ( 'NONE', *, *, #243, .T. ) ;
#188 = CARTESIAN_POINT ( 'NONE',  ( 2.504511167915743751E-14, -8.784642641776459355E-16, 7.173205080756892116 ) ) ;
#189 = DIRECTION ( 'NONE',  ( 0.0000000000000000000, 1.000000000000000000, 0.0000000000000000000 ) ) ;
#190 = ORIENTED_EDGE ( 'NONE', *, *, #107, .F. ) ;
#191 = TOROIDAL_SURFACE ( 'NONE', #3, 2.734999999999999876, 2.000000000000000000 ) ;
#192 = CONICAL_SURFACE ( 'NONE', #33, 1.200000000000001732, 0.7853981633974453924 ) ;
#193 = APPROVAL ( #196, 'UNSPECIFIED' ) ;
#194 = EDGE_LOOP ( 'NONE', ( #22 ) ) ;
#195 = CARTESIAN_POINT ( 'NONE',  ( 5.586370142149013368E-14, -1.959434878635765131E-15, 16.00000000000000000 ) ) ;
#196 = APPROVAL_STATUS ( 'not_yet_approved' ) ;
#197 = CARTESIAN_POINT ( 'NONE',  ( 2.444036937190193349E-14, 0.8349999999999990763, 7.000000000000000000 ) ) ;
#198 = DIRECTION ( 'NONE',  ( 0.0000000000000000000, 1.000000000000000000, 0.0000000000000000000 ) ) ;
#199 = APPROVAL_ROLE ( '' ) ;
#200 = PERSON_AND_ORGANIZATION_ROLE ( 'creator' ) ;
#201 = VERTEX_POINT ( 'NONE', #97 ) ;
#202 = AXIS2_PLACEMENT_3D ( 'NONE', #296, #273, #128 ) ;
#203 = ADVANCED_FACE ( 'NONE', ( #271 ), #231, .F. ) ;
#204 = VERTEX_POINT ( 'NONE', #65 ) ;
#205 = CALENDAR_DATE ( 2021, 1, 12 ) ;
#206 = CLOSED_SHELL ( 'NONE', ( #10, #253, #136, #31 ) ) ;
#207 = DIRECTION ( 'NONE',  ( 3.491481338843133355E-15, -1.224646799147353207E-16, 1.000000000000000000 ) ) ;
#208 = ORIENTED_EDGE ( 'NONE', *, *, #256, .T. ) ;
#209 = EDGE_LOOP ( 'NONE', ( #63 ) ) ;
#210 = AXIS2_PLACEMENT_3D ( 'NONE', #161, #40, #154 ) ;
#211 = PRODUCT_DEFINITION_FORMATION_WITH_SPECIFIED_SOURCE ( 'ANY', '', #67, .NOT_KNOWN. ) ;
#212 = CARTESIAN_POINT ( 'NONE',  ( 8.728703347107833388E-16, 0.8349999999999990763, 0.2500000000000000000 ) ) ;
#213 = CARTESIAN_POINT ( 'NONE',  ( 2.444036937190193349E-14, -8.572527594031473190E-16, 7.000000000000000000 ) ) ;
#214 = PERSON_AND_ORGANIZATION_ROLE ( 'classification_officer' ) ;
#215 = DIRECTION ( 'NONE',  ( -4.275831445896958607E-31, -1.000000000000000000, -1.224646799147353207E-16 ) ) ;
#216 = SHAPE_DEFINITION_REPRESENTATION ( #249, #299 ) ;
#217 = DIRECTION ( 'NONE',  ( -3.491481338843133355E-15, 1.224646799147353207E-16, -1.000000000000000000 ) ) ;
#218 = MECHANICAL_CONTEXT ( 'NONE', #137, 'mechanical' ) ;
#219 = APPROVAL_DATE_TIME ( #127, #170 ) ;
#220 = COORDINATED_UNIVERSAL_TIME_OFFSET ( 1, 0, .AHEAD. ) ;
#221 = LOCAL_TIME ( 15, 3, 53.00000000000000000, #129 ) ;
#222 = APPROVAL_STATUS ( 'not_yet_approved' ) ;
#223 = AXIS2_PLACEMENT_3D ( 'NONE', #163, #251, #162 ) ;
#224 = CC_DESIGN_APPROVAL ( #86, ( #180 ) ) ;
#225 = CARTESIAN_POINT ( 'NONE',  ( 1.745740669421566678E-13, 1.199999999999995515, 50.00000000000000000 ) ) ;
#226 = EDGE_CURVE ( 'NONE', #204, #204, #58, .T. ) ;
#227 = DIRECTION ( 'NONE',  ( 0.0000000000000000000, 1.000000000000000000, 0.0000000000000000000 ) ) ;
#228 = CARTESIAN_POINT ( 'NONE',  ( 2.444036937190193349E-14, 6.261497092613242376E-33, 7.000000000000000000 ) ) ;
#229 = FACE_OUTER_BOUND ( 'NONE', #142, .T. ) ;
#230 = EDGE_LOOP ( 'NONE', ( #112 ) ) ;
#231 = PLANE ( 'NONE',  #104 ) ;
#232 = FACE_OUTER_BOUND ( 'NONE', #87, .T. ) ;
#233 = ORIENTED_EDGE ( 'NONE', *, *, #107, .T. ) ;
#234 = CIRCLE ( 'NONE', #179, 0.8349999999999999645 ) ;
#235 = COORDINATED_UNIVERSAL_TIME_OFFSET ( 1, 0, .AHEAD. ) ;
#236 = FACE_OUTER_BOUND ( 'NONE', #275, .T. ) ;
#237 = AXIS2_PLACEMENT_3D ( 'NONE', #228, #120, #215 ) ;
#238 = VERTEX_POINT ( 'NONE', #45 ) ;
#239 = PRODUCT_DEFINITION ( 'UNKNOWN', '', #211, #183 ) ;
#240 = CIRCLE ( 'NONE', #148, 1.200000000000001732 ) ;
#241 = ORIENTED_EDGE ( 'NONE', *, *, #264, .F. ) ;
#242 = CYLINDRICAL_SURFACE ( 'NONE', #247, 1.499999999999999112 ) ;
#243 = EDGE_CURVE ( 'NONE', #201, #201, #286, .T. ) ;
#244 = APPROVAL_PERSON_ORGANIZATION ( #51, #86, #60 ) ;
#245 = DIRECTION ( 'NONE',  ( -3.491481338843133355E-15, 1.224646799147353207E-16, -1.000000000000000000 ) ) ;
#246 = ORIENTED_EDGE ( 'NONE', *, *, #226, .T. ) ;
#247 = AXIS2_PLACEMENT_3D ( 'NONE', #36, #14, #105 ) ;
#248 = EDGE_LOOP ( 'NONE', ( #208 ) ) ;
#249 = PRODUCT_DEFINITION_SHAPE ( 'NONE', 'NONE',  #239 ) ;
#250 = EDGE_LOOP ( 'NONE', ( #114 ) ) ;
#251 = DIRECTION ( 'NONE',  ( 3.491481338843133355E-15, -1.224646799147353207E-16, 1.000000000000000000 ) ) ;
#252 = DIRECTION ( 'NONE',  ( -3.491481338843133355E-15, 1.224646799147353207E-16, -1.000000000000000000 ) ) ;
#253 = ADVANCED_FACE ( 'NONE', ( #38, #268 ), #101, .T. ) ;
#254 = AXIS2_PLACEMENT_3D ( 'NONE', #139, #119, #17 ) ;
#255 = CARTESIAN_POINT ( 'NONE',  ( 1.735266225405037467E-13, 1.499999999999995559, 49.70000000000000284 ) ) ;
#256 = EDGE_CURVE ( 'NONE', #168, #168, #109, .T. ) ;
#257 = CARTESIAN_POINT ( 'NONE',  ( 1.745740669421566678E-13, 8.998558695971067645E-33, 50.00000000000000000 ) ) ;
#258 = ADVANCED_FACE ( 'NONE', ( #158, #79 ), #25, .T. ) ;
#259 = AXIS2_PLACEMENT_3D ( 'NONE', #266, #122, #29 ) ;
#260 = APPROVAL_PERSON_ORGANIZATION ( #102, #170, #6 ) ;
#261 =( NAMED_UNIT ( * ) SI_UNIT ( $, .STERADIAN. ) SOLID_ANGLE_UNIT ( ) );
#262 = CIRCLE ( 'NONE', #254, 0.7653844939755816146 ) ;
#263 = ORIENTED_EDGE ( 'NONE', *, *, #226, .F. ) ;
#264 = EDGE_CURVE ( 'NONE', #282, #282, #16, .T. ) ;
#265 = DIRECTION ( 'NONE',  ( 3.491481338843133355E-15, -1.224646799147353207E-16, 1.000000000000000000 ) ) ;
#266 = CARTESIAN_POINT ( 'NONE',  ( 1.735266225405037467E-13, -6.086494591762345225E-15, 49.70000000000000284 ) ) ;
#267 = LOCAL_TIME ( 15, 3, 53.00000000000000000, #284 ) ;
#268 = FACE_OUTER_BOUND ( 'NONE', #209, .T. ) ;
#269 = DIRECTION ( 'NONE',  ( 4.275831445896958607E-31, 1.000000000000000000, 1.224646799147353207E-16 ) ) ;
#270 = ORIENTED_EDGE ( 'NONE', *, *, #243, .F. ) ;
#271 = FACE_OUTER_BOUND ( 'NONE', #64, .T. ) ;
#272 = PERSON_AND_ORGANIZATION ( #116, #11 ) ;
#273 = DIRECTION ( 'NONE',  ( -3.491481338843133355E-15, 1.224646799147353207E-16, -1.000000000000000000 ) ) ;
#274 = DIRECTION ( 'NONE',  ( -3.491481338843133355E-15, 1.224646799147353207E-16, -1.000000000000000000 ) ) ;
#275 = EDGE_LOOP ( 'NONE', ( #131 ) ) ;
#276 = DIRECTION ( 'NONE',  ( -3.491481338843133355E-15, 1.224646799147353207E-16, -1.000000000000000000 ) ) ;
#277 = EDGE_LOOP ( 'NONE', ( #92 ) ) ;
#278 = PERSON_AND_ORGANIZATION ( #116, #11 ) ;
#279 = FACE_OUTER_BOUND ( 'NONE', #47, .T. ) ;
#280 =( LENGTH_UNIT ( ) NAMED_UNIT ( * ) SI_UNIT ( .MILLI., .METRE. ) );
#281 = DIRECTION ( 'NONE',  ( -3.491481338843133355E-15, 1.224646799147353207E-16, -1.000000000000000000 ) ) ;
#282 = VERTEX_POINT ( 'NONE', #255 ) ;
#283 = CIRCLE ( 'NONE', #98, 0.7350000000000002087 ) ;
#284 = COORDINATED_UNIVERSAL_TIME_OFFSET ( 1, 0, .AHEAD. ) ;
#285 = CALENDAR_DATE ( 2021, 1, 12 ) ;
#286 = CIRCLE ( 'NONE', #90, 1.499999999999996669 ) ;
#287 = CC_DESIGN_SECURITY_CLASSIFICATION ( #180, ( #211 ) ) ;
#288 = CARTESIAN_POINT ( 'NONE',  ( 5.707628016518648493E-14, 0.7653844939755796162, 16.34729635533384595 ) ) ;
#289 = DATE_TIME_ROLE ( 'classification_date' ) ;
#290 = EDGE_CURVE ( 'NONE', #18, #18, #132, .T. ) ;
#291 = VERTEX_POINT ( 'NONE', #225 ) ;
#292 = UNCERTAINTY_MEASURE_WITH_UNIT (LENGTH_MEASURE( 1.000000000000000082E-05 ), #280, 'distance_accuracy_value', 'NONE');
#293 = CARTESIAN_POINT ( 'NONE',  ( 0.0000000000000000000, 0.0000000000000000000, 0.0000000000000000000 ) ) ;
#294 = CC_DESIGN_PERSON_AND_ORGANIZATION_ASSIGNMENT ( #124, #1, ( #67 ) ) ;
#295 = DIRECTION ( 'NONE',  ( 0.0000000000000000000, 1.000000000000000000, 0.0000000000000000000 ) ) ;
#296 = CARTESIAN_POINT ( 'NONE',  ( 8.728703347107829444E-16, -3.061616997868381785E-17, 0.2499999999999998890 ) ) ;
#297 = CYLINDRICAL_SURFACE ( 'NONE', #81, 0.8349999999999995204 ) ;
#298 = ORIENTED_EDGE ( 'NONE', *, *, #256, .F. ) ;
#299 = ADVANCED_BREP_SHAPE_REPRESENTATION ( '327039', ( #75, #181, #300 ), #62 ) ;
#300 = AXIS2_PLACEMENT_3D ( 'NONE', #293, #184, #135 ) ;
#301 = EDGE_LOOP ( 'NONE', ( #187 ) ) ;
#302 = LOCAL_TIME ( 15, 3, 53.00000000000000000, #220 ) ;
#303 = DIRECTION ( 'NONE',  ( 0.0000000000000000000, -1.000000000000000000, 0.0000000000000000000 ) ) ;
ENDSEC;
END-ISO-10303-21;
