ISO-10303-21;
HEADER;
FILE_DESCRIPTION (( 'STEP AP203' ),
    '1' );
FILE_NAME ('327038.step',
    '2021-12-01T14:03:52',
    ( '' ),
    ( '' ),
    'SwSTEP 2.0',
    'SolidWorks 2019',
    '' );
FILE_SCHEMA (( 'CONFIG_CONTROL_DESIGN' ));
ENDSEC;

DATA;
#1 = CARTESIAN_POINT ( 'NONE',  ( 2.504511167915743751E-14, -8.784642641776459355E-16, 7.173205080756892116 ) ) ;
#2 = AXIS2_PLACEMENT_3D ( 'NONE', #262, #189, #53 ) ;
#3 = ORIENTED_EDGE ( 'NONE', *, *, #258, .T. ) ;
#4 = APPROVAL_PERSON_ORGANIZATION ( #273, #130, #200 ) ;
#5 = DIRECTION ( 'NONE',  ( 4.640795046716235910E-31, 1.000000000000000000, 1.306267677693380226E-16 ) ) ;
#6 = MANIFOLD_SOLID_BREP ( 'Corps-Déplacer/Copier1[1]', #126 ) ;
#7 = DIRECTION ( 'NONE',  ( 3.491481338843133355E-15, -1.224646799147353207E-16, 1.000000000000000000 ) ) ;
#8 = DIRECTION ( 'NONE',  ( -3.491481338843133355E-15, 1.224646799147353207E-16, -1.000000000000000000 ) ) ;
#9 = DIRECTION ( 'NONE',  ( -3.491481338843133355E-15, 1.224646799147353207E-16, -1.000000000000000000 ) ) ;
#10 = ORIENTED_EDGE ( 'NONE', *, *, #152, .T. ) ;
#11 = CIRCLE ( 'NONE', #96, 1.500000000000001554 ) ;
#12 = LOCAL_TIME ( 15, 3, 52.00000000000000000, #30 ) ;
#13 = APPROVAL_ROLE ( '' ) ;
#14 = ORIENTED_EDGE ( 'NONE', *, *, #256, .F. ) ;
#15 = AXIS2_PLACEMENT_3D ( 'NONE', #177, #47, #25 ) ;
#16 = LOCAL_TIME ( 15, 3, 52.00000000000000000, #219 ) ;
#17 = VERTEX_POINT ( 'NONE', #61 ) ;
#18 = EDGE_LOOP ( 'NONE', ( #10 ) ) ;
#19 = PERSON_AND_ORGANIZATION ( #263, #227 ) ;
#20 = CC_DESIGN_PERSON_AND_ORGANIZATION_ASSIGNMENT ( #176, #38, ( #180 ) ) ;
#21 = DIRECTION ( 'NONE',  ( 0.0000000000000000000, 0.0000000000000000000, 1.000000000000000000 ) ) ;
#22 = APPLICATION_PROTOCOL_DEFINITION ( 'international standard', 'config_control_design', 1994, #279 ) ;
#23 = CC_DESIGN_PERSON_AND_ORGANIZATION_ASSIGNMENT ( #135, #223, ( #285 ) ) ;
#24 = DIRECTION ( 'NONE',  ( -3.491481338843133355E-15, 1.224646799147353207E-16, -1.000000000000000000 ) ) ;
#25 = DIRECTION ( 'NONE',  ( -4.275831445896958607E-31, -1.000000000000000000, -1.224646799147353207E-16 ) ) ;
#26 = AXIS2_PLACEMENT_3D ( 'NONE', #229, #282, #90 ) ;
#27 = DIRECTION ( 'NONE',  ( -3.491481338843133355E-15, 1.224646799147353207E-16, -1.000000000000000000 ) ) ;
#28 = DIRECTION ( 'NONE',  ( -3.491481338843133355E-15, 1.224646799147353207E-16, -1.000000000000000000 ) ) ;
#29 = CARTESIAN_POINT ( 'NONE',  ( 2.444036937190193349E-14, 0.8299999999999991829, 7.000000000000000000 ) ) ;
#30 = COORDINATED_UNIVERSAL_TIME_OFFSET ( 1, 0, .AHEAD. ) ;
#31 = EDGE_LOOP ( 'NONE', ( #14 ) ) ;
#32 = CC_DESIGN_APPROVAL ( #295, ( #107 ) ) ;
#33 = EDGE_CURVE ( 'NONE', #211, #211, #184, .T. ) ;
#34 = ORIENTED_EDGE ( 'NONE', *, *, #264, .F. ) ;
#35 = ORIENTED_EDGE ( 'NONE', *, *, #173, .T. ) ;
#36 = AXIS2_PLACEMENT_3D ( 'NONE', #54, #127, #101 ) ;
#37 = CALENDAR_DATE ( 2021, 1, 12 ) ;
#38 = PERSON_AND_ORGANIZATION_ROLE ( 'design_owner' ) ;
#39 = FACE_OUTER_BOUND ( 'NONE', #241, .T. ) ;
#40 = ADVANCED_FACE ( 'NONE', ( #77, #239 ), #76, .T. ) ;
#41 = ORIENTED_EDGE ( 'NONE', *, *, #125, .F. ) ;
#42 = CC_DESIGN_PERSON_AND_ORGANIZATION_ASSIGNMENT ( #110, #299, ( #285 ) ) ;
#43 = DIRECTION ( 'NONE',  ( 0.0000000000000000000, 1.000000000000000000, 0.0000000000000000000 ) ) ;
#44 = CARTESIAN_POINT ( 'NONE',  ( 2.444036937190193349E-14, -8.572527594031473190E-16, 7.000000000000000000 ) ) ;
#45 = FACE_OUTER_BOUND ( 'NONE', #31, .T. ) ;
#46 = AXIS2_PLACEMENT_3D ( 'NONE', #93, #117, #235 ) ;
#47 = DIRECTION ( 'NONE',  ( 3.491481338843133355E-15, -1.224646799147353207E-16, 1.000000000000000000 ) ) ;
#48 = EDGE_LOOP ( 'NONE', ( #268 ) ) ;
#49 = PLANE ( 'NONE',  #151 ) ;
#50 = VERTEX_POINT ( 'NONE', #122 ) ;
#51 = ADVANCED_FACE ( 'NONE', ( #190, #289 ), #205, .T. ) ;
#52 = AXIS2_PLACEMENT_3D ( 'NONE', #71, #116, #5 ) ;
#53 = DIRECTION ( 'NONE',  ( 0.0000000000000000000, 1.000000000000000000, 0.0000000000000000000 ) ) ;
#54 = CARTESIAN_POINT ( 'NONE',  ( 0.0000000000000000000, 0.0000000000000000000, 0.0000000000000000000 ) ) ;
#55 = CC_DESIGN_SECURITY_CLASSIFICATION ( #107, ( #285 ) ) ;
#56 = ORIENTED_EDGE ( 'NONE', *, *, #237, .T. ) ;
#57 = MECHANICAL_CONTEXT ( 'NONE', #228, 'mechanical' ) ;
#58 = ORIENTED_EDGE ( 'NONE', *, *, #258, .F. ) ;
#59 =( NAMED_UNIT ( * ) PLANE_ANGLE_UNIT ( ) SI_UNIT ( $, .RADIAN. ) );
#60 = PERSON_AND_ORGANIZATION_ROLE ( 'classification_officer' ) ;
#61 = CARTESIAN_POINT ( 'NONE',  ( 2.444036937190193349E-14, 0.8299999999999991829, 7.000000000000000000 ) ) ;
#62 = PRODUCT_DEFINITION_SHAPE ( 'NONE', 'NONE',  #208 ) ;
#63 = ORIENTED_EDGE ( 'NONE', *, *, #173, .F. ) ;
#64 = CARTESIAN_POINT ( 'NONE',  ( 5.707628016518648493E-14, -2.001966415627278844E-15, 16.34729635533384595 ) ) ;
#65 = APPROVAL_DATE_TIME ( #249, #130 ) ;
#66 = DIRECTION ( 'NONE',  ( 4.275831445896958607E-31, 1.000000000000000000, 1.224646799147353207E-16 ) ) ;
#67 = AXIS2_PLACEMENT_3D ( 'NONE', #1, #9, #261 ) ;
#68 = EDGE_LOOP ( 'NONE', ( #118 ) ) ;
#69 = FACE_BOUND ( 'NONE', #124, .T. ) ;
#70 = FACE_OUTER_BOUND ( 'NONE', #214, .T. ) ;
#71 = CARTESIAN_POINT ( 'NONE',  ( 8.728703347107829444E-16, -3.061616997868381785E-17, 0.2499999999999998890 ) ) ;
#72 = DATE_AND_TIME ( #161, #91 ) ;
#73 = DIRECTION ( 'NONE',  ( -3.491481338843133355E-15, 1.224646799147353207E-16, -1.000000000000000000 ) ) ;
#74 = VERTEX_POINT ( 'NONE', #283 ) ;
#75 = AXIS2_PLACEMENT_3D ( 'NONE', #247, #149, #134 ) ;
#76 = CYLINDRICAL_SURFACE ( 'NONE', #36, 0.7299999999999994271 ) ;
#77 = FACE_OUTER_BOUND ( 'NONE', #222, .T. ) ;
#78 = CC_DESIGN_DATE_AND_TIME_ASSIGNMENT ( #72, #139, ( #107 ) ) ;
#79 = AXIS2_PLACEMENT_3D ( 'NONE', #167, #7, #181 ) ;
#80 = AXIS2_PLACEMENT_3D ( 'NONE', #245, #21, #251 ) ;
#81 = CALENDAR_DATE ( 2021, 1, 12 ) ;
#82 = ORIENTED_EDGE ( 'NONE', *, *, #178, .T. ) ;
#83 = ADVANCED_FACE ( 'NONE', ( #242, #291 ), #99, .T. ) ;
#84 = DIRECTION ( 'NONE',  ( 0.0000000000000000000, 1.000000000000000000, 0.0000000000000000000 ) ) ;
#85 = SECURITY_CLASSIFICATION_LEVEL ( 'unclassified' ) ;
#86 = AXIS2_PLACEMENT_3D ( 'NONE', #220, #298, #84 ) ;
#87 = APPLICATION_PROTOCOL_DEFINITION ( 'international standard', 'config_control_design', 1994, #228 ) ;
#88 = APPROVAL ( #225, 'UNSPECIFIED' ) ;
#89 = FACE_OUTER_BOUND ( 'NONE', #246, .T. ) ;
#90 = DIRECTION ( 'NONE',  ( 4.275831445896958607E-31, 1.000000000000000000, 1.224646799147353207E-16 ) ) ;
#91 = LOCAL_TIME ( 15, 3, 52.00000000000000000, #94 ) ;
#92 = CARTESIAN_POINT ( 'NONE',  ( 2.444036937190193349E-14, 6.224003098046697030E-33, 7.000000000000000000 ) ) ;
#93 = CARTESIAN_POINT ( 'NONE',  ( 2.444036937190193349E-14, -8.572527594031473190E-16, 7.000000000000000000 ) ) ;
#94 = COORDINATED_UNIVERSAL_TIME_OFFSET ( 1, 0, .AHEAD. ) ;
#95 = DIRECTION ( 'NONE',  ( 0.0000000000000000000, 1.000000000000000000, 0.0000000000000000000 ) ) ;
#96 = AXIS2_PLACEMENT_3D ( 'NONE', #146, #27, #143 ) ;
#97 = APPROVAL_PERSON_ORGANIZATION ( #153, #88, #293 ) ;
#98 = VERTEX_POINT ( 'NONE', #169 ) ;
#99 = CONICAL_SURFACE ( 'NONE', #210, 1.200000000000001732, 0.7853981633974453924 ) ;
#100 = UNCERTAINTY_MEASURE_WITH_UNIT (LENGTH_MEASURE( 1.000000000000000082E-05 ), #158, 'distance_accuracy_value', 'NONE');
#101 = DIRECTION ( 'NONE',  ( 4.275831445896958607E-31, 1.000000000000000000, 1.224646799147353207E-16 ) ) ;
#102 = CALENDAR_DATE ( 2021, 1, 12 ) ;
#103 = CARTESIAN_POINT ( 'NONE',  ( 7.172153596680980451E-14, -2.515652839799743761E-15, 20.54186432815763297 ) ) ;
#104 = COORDINATED_UNIVERSAL_TIME_OFFSET ( 1, 0, .AHEAD. ) ;
#105 = EDGE_LOOP ( 'NONE', ( #58 ) ) ;
#106 = AXIS2_PLACEMENT_3D ( 'NONE', #44, #160, #140 ) ;
#107 = SECURITY_CLASSIFICATION ( '', '', #85 ) ;
#108 = COORDINATED_UNIVERSAL_TIME_OFFSET ( 1, 0, .AHEAD. ) ;
#109 = MANIFOLD_SOLID_BREP ( 'Corps-Déplacer/Copier1[2]', #179 ) ;
#110 = PERSON_AND_ORGANIZATION ( #263, #227 ) ;
#111 = APPROVAL_DATE_TIME ( #296, #88 ) ;
#112 = LOCAL_TIME ( 15, 3, 52.00000000000000000, #104 ) ;
#113 = CARTESIAN_POINT ( 'NONE',  ( 2.504511167915743751E-14, 0.7299999999999979838, 7.173205080756892116 ) ) ;
#114 = ORIENTED_EDGE ( 'NONE', *, *, #152, .F. ) ;
#115 = CARTESIAN_POINT ( 'NONE',  ( 1.745740669421566678E-13, 8.998558695971067645E-33, 50.00000000000000000 ) ) ;
#116 = DIRECTION ( 'NONE',  ( -3.491481338843133355E-15, 1.224646799147353207E-16, -1.000000000000000000 ) ) ;
#117 = DIRECTION ( 'NONE',  ( -3.491481338843133355E-15, 1.224646799147353207E-16, -1.000000000000000000 ) ) ;
#118 = ORIENTED_EDGE ( 'NONE', *, *, #125, .T. ) ;
#119 = PLANE ( 'NONE',  #187 ) ;
#120 = FACE_OUTER_BOUND ( 'NONE', #129, .T. ) ;
#121 = ADVANCED_FACE ( 'NONE', ( #39 ), #155, .F. ) ;
#122 = CARTESIAN_POINT ( 'NONE',  ( 1.735266225405037467E-13, 1.499999999999995559, 49.70000000000000284 ) ) ;
#123 = AXIS2_PLACEMENT_3D ( 'NONE', #207, #164, #303 ) ;
#124 = EDGE_LOOP ( 'NONE', ( #297 ) ) ;
#125 = EDGE_CURVE ( 'NONE', #74, #74, #284, .T. ) ;
#126 = CLOSED_SHELL ( 'NONE', ( #234, #292, #40, #213, #51, #276, #83, #287 ) ) ;
#127 = DIRECTION ( 'NONE',  ( -3.491481338843133355E-15, 1.224646799147353207E-16, -1.000000000000000000 ) ) ;
#128 = APPROVAL_PERSON_ORGANIZATION ( #230, #295, #13 ) ;
#129 = EDGE_LOOP ( 'NONE', ( #290 ) ) ;
#130 = APPROVAL ( #269, 'UNSPECIFIED' ) ;
#131 = PRODUCT_RELATED_PRODUCT_CATEGORY ( 'detail', '', ( #180 ) ) ;
#132 = CARTESIAN_POINT ( 'NONE',  ( 8.728703347107833388E-16, 0.8299999999999991829, 0.2500000000000000000 ) ) ;
#133 = EDGE_LOOP ( 'NONE', ( #41 ) ) ;
#134 = DIRECTION ( 'NONE',  ( -4.275831445896958607E-31, -1.000000000000000000, -1.224646799147353207E-16 ) ) ;
#135 = PERSON_AND_ORGANIZATION ( #263, #227 ) ;
#136 = VERTEX_POINT ( 'NONE', #132 ) ;
#137 = VERTEX_POINT ( 'NONE', #266 ) ;
#138 = FACE_OUTER_BOUND ( 'NONE', #202, .T. ) ;
#139 = DATE_TIME_ROLE ( 'classification_date' ) ;
#140 = DIRECTION ( 'NONE',  ( 0.0000000000000000000, 1.000000000000000000, 0.0000000000000000000 ) ) ;
#141 = SHAPE_DEFINITION_REPRESENTATION ( #62, #301 ) ;
#142 = CIRCLE ( 'NONE', #46, 0.8299999999999999600 ) ;
#143 = DIRECTION ( 'NONE',  ( 0.0000000000000000000, 1.000000000000000000, 0.0000000000000000000 ) ) ;
#144 = CONICAL_SURFACE ( 'NONE', #79, 0.8299999999999991829, 0.5235987755982925984 ) ;
#145 = FACE_OUTER_BOUND ( 'NONE', #18, .T. ) ;
#146 = CARTESIAN_POINT ( 'NONE',  ( 1.735266225405037467E-13, -6.086494591762345225E-15, 49.70000000000000284 ) ) ;
#147 = VERTEX_POINT ( 'NONE', #29 ) ;
#148 = ORIENTED_EDGE ( 'NONE', *, *, #237, .F. ) ;
#149 = DIRECTION ( 'NONE',  ( 3.491481338843133355E-15, -1.224646799147353207E-16, 1.000000000000000000 ) ) ;
#150 = DIRECTION ( 'NONE',  ( 3.491481338843133355E-15, -1.224646799147353207E-16, 1.000000000000000000 ) ) ;
#151 = AXIS2_PLACEMENT_3D ( 'NONE', #115, #203, #66 ) ;
#152 = EDGE_CURVE ( 'NONE', #98, #98, #226, .T. ) ;
#153 = PERSON_AND_ORGANIZATION ( #263, #227 ) ;
#154 = EDGE_LOOP ( 'NONE', ( #198 ) ) ;
#155 = PLANE ( 'NONE',  #75 ) ;
#156 = CALENDAR_DATE ( 2021, 1, 12 ) ;
#157 = AXIS2_PLACEMENT_3D ( 'NONE', #64, #259, #95 ) ;
#158 =( LENGTH_UNIT ( ) NAMED_UNIT ( * ) SI_UNIT ( .MILLI., .METRE. ) );
#159 = PERSON_AND_ORGANIZATION_ROLE ( 'creator' ) ;
#160 = DIRECTION ( 'NONE',  ( -3.491481338843133355E-15, 1.224646799147353207E-16, -1.000000000000000000 ) ) ;
#161 = CALENDAR_DATE ( 2021, 1, 12 ) ;
#162 = ADVANCED_FACE ( 'NONE', ( #45, #89 ), #275, .T. ) ;
#163 = CC_DESIGN_PERSON_AND_ORGANIZATION_ASSIGNMENT ( #172, #60, ( #107 ) ) ;
#164 = DIRECTION ( 'NONE',  ( -3.491481338843133355E-15, 1.224646799147353207E-16, -1.000000000000000000 ) ) ;
#165 = DIRECTION ( 'NONE',  ( -4.275831445896958607E-31, -1.000000000000000000, -1.224646799147353207E-16 ) ) ;
#166 = CIRCLE ( 'NONE', #215, 0.6856624327025947485 ) ;
#167 = CARTESIAN_POINT ( 'NONE',  ( 8.728703347107829444E-16, -3.061616997868381785E-17, 0.2499999999999998890 ) ) ;
#168 = DIRECTION ( 'NONE',  ( 4.275831445896958607E-31, 1.000000000000000000, 1.224646799147353454E-16 ) ) ;
#169 = CARTESIAN_POINT ( 'NONE',  ( 5.707628016518648493E-14, 0.7603844939755781684, 16.34729635533384595 ) ) ;
#170 = ORIENTED_EDGE ( 'NONE', *, *, #178, .F. ) ;
#171 = ADVANCED_FACE ( 'NONE', ( #70 ), #119, .T. ) ;
#172 = PERSON_AND_ORGANIZATION ( #263, #227 ) ;
#173 = EDGE_CURVE ( 'NONE', #50, #50, #11, .T. ) ;
#174 = AXIS2_PLACEMENT_3D ( 'NONE', #236, #73, #168 ) ;
#175 = CARTESIAN_POINT ( 'NONE',  ( 5.586370142149013368E-14, 0.7299999999999979838, 16.00000000000000000 ) ) ;
#176 = PERSON_AND_ORGANIZATION ( #263, #227 ) ;
#177 = CARTESIAN_POINT ( 'NONE',  ( 2.444036937190193349E-14, 6.224003098046697030E-33, 7.000000000000000000 ) ) ;
#178 = EDGE_CURVE ( 'NONE', #147, #147, #300, .T. ) ;
#179 = CLOSED_SHELL ( 'NONE', ( #121, #199, #162, #171 ) ) ;
#180 = PRODUCT ( '327038', '327038', '', ( #57 ) ) ;
#181 = DIRECTION ( 'NONE',  ( -4.640795046716235910E-31, -1.000000000000000000, -1.306267677693380226E-16 ) ) ;
#182 = CARTESIAN_POINT ( 'NONE',  ( 5.586370142149013368E-14, -1.959434878635765131E-15, 16.00000000000000000 ) ) ;
#183 = CARTESIAN_POINT ( 'NONE',  ( -4.824512817403122313E-31, 1.692211301130933966E-32, -1.381795389747572381E-16 ) ) ;
#184 = CIRCLE ( 'NONE', #2, 1.499999999999996669 ) ;
#185 = FACE_OUTER_BOUND ( 'NONE', #105, .T. ) ;
#186 = CARTESIAN_POINT ( 'NONE',  ( 7.172153596680980451E-14, 1.499999999999994005, 20.54186432815763297 ) ) ;
#187 = AXIS2_PLACEMENT_3D ( 'NONE', #92, #233, #165 ) ;
#188 = CIRCLE ( 'NONE', #280, 0.7299999999999988720 ) ;
#189 = DIRECTION ( 'NONE',  ( -3.491481338843133355E-15, 1.224646799147353207E-16, -1.000000000000000000 ) ) ;
#190 = FACE_BOUND ( 'NONE', #252, .T. ) ;
#191 = CC_DESIGN_DATE_AND_TIME_ASSIGNMENT ( #271, #194, ( #208 ) ) ;
#192 = ORIENTED_EDGE ( 'NONE', *, *, #248, .T. ) ;
#193 = DIRECTION ( 'NONE',  ( 0.0000000000000000000, -1.000000000000000000, 0.0000000000000000000 ) ) ;
#194 = DATE_TIME_ROLE ( 'creation_date' ) ;
#195 = EDGE_LOOP ( 'NONE', ( #35 ) ) ;
#196 = CARTESIAN_POINT ( 'NONE',  ( 1.745740669421566678E-13, -6.123233995736766085E-15, 50.00000000000000000 ) ) ;
#197 =( NAMED_UNIT ( * ) SI_UNIT ( $, .STERADIAN. ) SOLID_ANGLE_UNIT ( ) );
#198 = ORIENTED_EDGE ( 'NONE', *, *, #264, .T. ) ;
#199 = ADVANCED_FACE ( 'NONE', ( #69, #231 ), #144, .T. ) ;
#200 = APPROVAL_ROLE ( '' ) ;
#201 = VERTEX_POINT ( 'NONE', #113 ) ;
#202 = EDGE_LOOP ( 'NONE', ( #148 ) ) ;
#203 = DIRECTION ( 'NONE',  ( -3.491481338843133355E-15, 1.224646799147353207E-16, -1.000000000000000000 ) ) ;
#204 = FACE_BOUND ( 'NONE', #154, .T. ) ;
#205 = CONICAL_SURFACE ( 'NONE', #243, 1.499999999999996669, 0.1745329251994263975 ) ;
#206 = DIRECTION ( 'NONE',  ( 4.275831445896958607E-31, 1.000000000000000000, 1.224646799147352961E-16 ) ) ;
#207 = CARTESIAN_POINT ( 'NONE',  ( 5.586370142149013368E-14, -2.168404344971008868E-15, 16.00000000000000000 ) ) ;
#208 = PRODUCT_DEFINITION ( 'UNKNOWN', '', #285, #288 ) ;
#209 = FACE_OUTER_BOUND ( 'NONE', #195, .T. ) ;
#210 = AXIS2_PLACEMENT_3D ( 'NONE', #196, #294, #265 ) ;
#211 = VERTEX_POINT ( 'NONE', #186 ) ;
#212 = CC_DESIGN_APPROVAL ( #88, ( #285 ) ) ;
#213 = ADVANCED_FACE ( 'NONE', ( #185, #145 ), #232, .F. ) ;
#214 = EDGE_LOOP ( 'NONE', ( #170 ) ) ;
#215 = AXIS2_PLACEMENT_3D ( 'NONE', #183, #8, #206 ) ;
#216 = CC_DESIGN_APPROVAL ( #130, ( #208 ) ) ;
#217 = EDGE_LOOP ( 'NONE', ( #272 ) ) ;
#218 = EDGE_LOOP ( 'NONE', ( #3 ) ) ;
#219 = COORDINATED_UNIVERSAL_TIME_OFFSET ( 1, 0, .AHEAD. ) ;
#220 = CARTESIAN_POINT ( 'NONE',  ( 1.745740669421566678E-13, -6.123233995736766085E-15, 50.00000000000000000 ) ) ;
#221 = LOCAL_TIME ( 15, 3, 52.00000000000000000, #108 ) ;
#222 = EDGE_LOOP ( 'NONE', ( #34 ) ) ;
#223 = PERSON_AND_ORGANIZATION_ROLE ( 'creator' ) ;
#224 = DATE_AND_TIME ( #102, #12 ) ;
#225 = APPROVAL_STATUS ( 'not_yet_approved' ) ;
#226 = CIRCLE ( 'NONE', #157, 0.7603844939755800558 ) ;
#227 = ORGANIZATION ( 'UNSPECIFIED', 'UNSPECIFIED', '' ) ;
#228 = APPLICATION_CONTEXT ( 'configuration controlled 3d designs of mechanical parts and assemblies' ) ;
#229 = CARTESIAN_POINT ( 'NONE',  ( 0.0000000000000000000, 0.0000000000000000000, 0.0000000000000000000 ) ) ;
#230 = PERSON_AND_ORGANIZATION ( #263, #227 ) ;
#231 = FACE_OUTER_BOUND ( 'NONE', #217, .T. ) ;
#232 = TOROIDAL_SURFACE ( 'NONE', #123, 2.730000000000000426, 2.000000000000000000 ) ;
#233 = DIRECTION ( 'NONE',  ( 3.491481338843133355E-15, -1.224646799147353207E-16, 1.000000000000000000 ) ) ;
#234 = ADVANCED_FACE ( 'NONE', ( #255 ), #274, .F. ) ;
#235 = DIRECTION ( 'NONE',  ( 0.0000000000000000000, 1.000000000000000000, 0.0000000000000000000 ) ) ;
#236 = CARTESIAN_POINT ( 'NONE',  ( 0.0000000000000000000, 0.0000000000000000000, 0.0000000000000000000 ) ) ;
#237 = EDGE_CURVE ( 'NONE', #17, #17, #142, .T. ) ;
#238 = CIRCLE ( 'NONE', #52, 0.8299999999999991829 ) ;
#239 = FACE_OUTER_BOUND ( 'NONE', #218, .T. ) ;
#240 = APPROVAL_STATUS ( 'not_yet_approved' ) ;
#241 = EDGE_LOOP ( 'NONE', ( #192 ) ) ;
#242 = FACE_OUTER_BOUND ( 'NONE', #302, .T. ) ;
#243 = AXIS2_PLACEMENT_3D ( 'NONE', #103, #150, #193 ) ;
#244 = AXIS2_PLACEMENT_3D ( 'NONE', #182, #24, #43 ) ;
#245 = CARTESIAN_POINT ( 'NONE',  ( 0.0000000000000000000, 0.0000000000000000000, 0.0000000000000000000 ) ) ;
#246 = EDGE_LOOP ( 'NONE', ( #82 ) ) ;
#247 = CARTESIAN_POINT ( 'NONE',  ( -2.412256408701561157E-31, 8.461056505654669829E-33, -6.908976948737861907E-17 ) ) ;
#248 = EDGE_CURVE ( 'NONE', #137, #137, #166, .T. ) ;
#249 = DATE_AND_TIME ( #156, #16 ) ;
#250 = CIRCLE ( 'NONE', #244, 0.7299999999999999822 ) ;
#251 = DIRECTION ( 'NONE',  ( 1.000000000000000000, 0.0000000000000000000, 0.0000000000000000000 ) ) ;
#252 = EDGE_LOOP ( 'NONE', ( #114 ) ) ;
#253 = VERTEX_POINT ( 'NONE', #175 ) ;
#254 = CONICAL_SURFACE ( 'NONE', #67, 0.7299999999999988720, 0.5235987755982938197 ) ;
#255 = FACE_OUTER_BOUND ( 'NONE', #286, .T. ) ;
#256 = EDGE_CURVE ( 'NONE', #136, #136, #238, .T. ) ;
#257 = CYLINDRICAL_SURFACE ( 'NONE', #174, 1.499999999999999112 ) ;
#258 = EDGE_CURVE ( 'NONE', #253, #253, #250, .T. ) ;
#259 = DIRECTION ( 'NONE',  ( -3.491481338843133355E-15, 1.224646799147353207E-16, -1.000000000000000000 ) ) ;
#260 = FACE_OUTER_BOUND ( 'NONE', #133, .T. ) ;
#261 = DIRECTION ( 'NONE',  ( 0.0000000000000000000, 1.000000000000000000, 0.0000000000000000000 ) ) ;
#262 = CARTESIAN_POINT ( 'NONE',  ( 7.172153596680980451E-14, -2.515652839799743761E-15, 20.54186432815763297 ) ) ;
#263 = PERSON ( 'UNSPECIFIED', 'UNSPECIFIED', 'UNSPECIFIED', ('UNSPECIFIED'), ('UNSPECIFIED'), ('UNSPECIFIED') ) ;
#264 = EDGE_CURVE ( 'NONE', #201, #201, #188, .T. ) ;
#265 = DIRECTION ( 'NONE',  ( 0.0000000000000000000, 1.000000000000000000, 0.0000000000000000000 ) ) ;
#266 = CARTESIAN_POINT ( 'NONE',  ( -1.892735826383160919E-31, 0.6856624327025947485, -5.421010862427522170E-17 ) ) ;
#267 = APPROVAL_DATE_TIME ( #224, #295 ) ;
#268 = ORIENTED_EDGE ( 'NONE', *, *, #33, .T. ) ;
#269 = APPROVAL_STATUS ( 'not_yet_approved' ) ;
#270 =( GEOMETRIC_REPRESENTATION_CONTEXT ( 3 ) GLOBAL_UNCERTAINTY_ASSIGNED_CONTEXT ( ( #100 ) ) GLOBAL_UNIT_ASSIGNED_CONTEXT ( ( #158, #59, #197 ) ) REPRESENTATION_CONTEXT ( 'NONE', 'WORKASPACE' ) );
#271 = DATE_AND_TIME ( #37, #112 ) ;
#272 = ORIENTED_EDGE ( 'NONE', *, *, #256, .T. ) ;
#273 = PERSON_AND_ORGANIZATION ( #263, #227 ) ;
#274 = PLANE ( 'NONE',  #15 ) ;
#275 = CYLINDRICAL_SURFACE ( 'NONE', #26, 0.8299999999999996270 ) ;
#276 = ADVANCED_FACE ( 'NONE', ( #120, #209 ), #257, .T. ) ;
#277 = DIRECTION ( 'NONE',  ( 0.0000000000000000000, 1.000000000000000000, 0.0000000000000000000 ) ) ;
#278 = CARTESIAN_POINT ( 'NONE',  ( 2.504511167915743751E-14, -8.784642641776459355E-16, 7.173205080756892116 ) ) ;
#279 = APPLICATION_CONTEXT ( 'configuration controlled 3d designs of mechanical parts and assemblies' ) ;
#280 = AXIS2_PLACEMENT_3D ( 'NONE', #278, #28, #277 ) ;
#281 = CC_DESIGN_PERSON_AND_ORGANIZATION_ASSIGNMENT ( #19, #159, ( #208 ) ) ;
#282 = DIRECTION ( 'NONE',  ( -3.491481338843133355E-15, 1.224646799147353207E-16, -1.000000000000000000 ) ) ;
#283 = CARTESIAN_POINT ( 'NONE',  ( 1.745740669421566678E-13, 1.199999999999995515, 50.00000000000000000 ) ) ;
#284 = CIRCLE ( 'NONE', #86, 1.200000000000001732 ) ;
#285 = PRODUCT_DEFINITION_FORMATION_WITH_SPECIFIED_SOURCE ( 'ANY', '', #180, .NOT_KNOWN. ) ;
#286 = EDGE_LOOP ( 'NONE', ( #56 ) ) ;
#287 = ADVANCED_FACE ( 'NONE', ( #260 ), #49, .F. ) ;
#288 = DESIGN_CONTEXT ( 'detailed design', #279, 'design' ) ;
#289 = FACE_OUTER_BOUND ( 'NONE', #48, .T. ) ;
#290 = ORIENTED_EDGE ( 'NONE', *, *, #33, .F. ) ;
#291 = FACE_BOUND ( 'NONE', #68, .T. ) ;
#292 = ADVANCED_FACE ( 'NONE', ( #138, #204 ), #254, .T. ) ;
#293 = APPROVAL_ROLE ( '' ) ;
#294 = DIRECTION ( 'NONE',  ( -3.491481338843133355E-15, 1.224646799147353207E-16, -1.000000000000000000 ) ) ;
#295 = APPROVAL ( #240, 'UNSPECIFIED' ) ;
#296 = DATE_AND_TIME ( #81, #221 ) ;
#297 = ORIENTED_EDGE ( 'NONE', *, *, #248, .F. ) ;
#298 = DIRECTION ( 'NONE',  ( -3.491481338843133355E-15, 1.224646799147353207E-16, -1.000000000000000000 ) ) ;
#299 = PERSON_AND_ORGANIZATION_ROLE ( 'design_supplier' ) ;
#300 = CIRCLE ( 'NONE', #106, 0.8299999999999999600 ) ;
#301 = ADVANCED_BREP_SHAPE_REPRESENTATION ( '327038', ( #6, #109, #80 ), #270 ) ;
#302 = EDGE_LOOP ( 'NONE', ( #63 ) ) ;
#303 = DIRECTION ( 'NONE',  ( 4.275831445896958607E-31, 1.000000000000000000, 1.224646799147353207E-16 ) ) ;
ENDSEC;
END-ISO-10303-21;
