ISO-10303-21;
HEADER;
FILE_DESCRIPTION (( 'STEP AP203' ),
    '1' );
FILE_NAME ('327037.step',
    '2021-12-01T14:03:51',
    ( '' ),
    ( '' ),
    'SwSTEP 2.0',
    'SolidWorks 2019',
    '' );
FILE_SCHEMA (( 'CONFIG_CONTROL_DESIGN' ));
ENDSEC;

DATA;
#1 = DIRECTION ( 'NONE',  ( 0.0000000000000000000, 1.000000000000000000, 0.0000000000000000000 ) ) ;
#2 = VERTEX_POINT ( 'NONE', #187 ) ;
#3 = CONICAL_SURFACE ( 'NONE', #172, 1.200000000000001732, 0.7853981633974453924 ) ;
#4 = FACE_OUTER_BOUND ( 'NONE', #101, .T. ) ;
#5 = ORIENTED_EDGE ( 'NONE', *, *, #219, .F. ) ;
#6 = ORIENTED_EDGE ( 'NONE', *, *, #120, .T. ) ;
#7 = CIRCLE ( 'NONE', #299, 0.7199999999999999734 ) ;
#8 = EDGE_LOOP ( 'NONE', ( #245 ) ) ;
#9 = EDGE_CURVE ( 'NONE', #2, #2, #202, .T. ) ;
#10 = CARTESIAN_POINT ( 'NONE',  ( 2.444036937190193349E-14, -8.572527594031473190E-16, 7.000000000000000000 ) ) ;
#11 = LOCAL_TIME ( 15, 3, 51.00000000000000000, #279 ) ;
#12 = DIRECTION ( 'NONE',  ( -3.491481338843133355E-15, 1.224646799147353207E-16, -1.000000000000000000 ) ) ;
#13 = CALENDAR_DATE ( 2021, 1, 12 ) ;
#14 = FACE_OUTER_BOUND ( 'NONE', #47, .T. ) ;
#15 = COORDINATED_UNIVERSAL_TIME_OFFSET ( 1, 0, .AHEAD. ) ;
#16 = CARTESIAN_POINT ( 'NONE',  ( 0.0000000000000000000, 0.0000000000000000000, 0.0000000000000000000 ) ) ;
#17 = AXIS2_PLACEMENT_3D ( 'NONE', #247, #84, #290 ) ;
#18 = CIRCLE ( 'NONE', #168, 1.500000000000001554 ) ;
#19 = ADVANCED_FACE ( 'NONE', ( #231, #133 ), #72, .F. ) ;
#20 = CALENDAR_DATE ( 2021, 1, 12 ) ;
#21 = COORDINATED_UNIVERSAL_TIME_OFFSET ( 1, 0, .AHEAD. ) ;
#22 = DIRECTION ( 'NONE',  ( 4.275831445896958607E-31, 1.000000000000000000, 1.224646799147353207E-16 ) ) ;
#23 = CONICAL_SURFACE ( 'NONE', #141, 0.8199999999999990630, 0.5235987755982922653 ) ;
#24 = APPROVAL ( #277, 'UNSPECIFIED' ) ;
#25 = DIRECTION ( 'NONE',  ( -3.491481338843133355E-15, 1.224646799147353207E-16, -1.000000000000000000 ) ) ;
#26 = CARTESIAN_POINT ( 'NONE',  ( -1.892735826383161356E-31, 0.6756624327025948507, -5.421010862427520937E-17 ) ) ;
#27 = CARTESIAN_POINT ( 'NONE',  ( 8.728703347107833388E-16, 0.8199999999999990630, 0.2500000000000000000 ) ) ;
#28 =( NAMED_UNIT ( * ) SI_UNIT ( $, .STERADIAN. ) SOLID_ANGLE_UNIT ( ) );
#29 = EDGE_LOOP ( 'NONE', ( #31 ) ) ;
#30 = EDGE_LOOP ( 'NONE', ( #102 ) ) ;
#31 = ORIENTED_EDGE ( 'NONE', *, *, #86, .T. ) ;
#32 = CARTESIAN_POINT ( 'NONE',  ( -4.781754502944153761E-31, 1.677213703304315280E-32, -1.369548921756098876E-16 ) ) ;
#33 = CC_DESIGN_DATE_AND_TIME_ASSIGNMENT ( #42, #130, ( #74 ) ) ;
#34 = DIRECTION ( 'NONE',  ( 4.275831445896957731E-31, 1.000000000000000000, 1.224646799147353207E-16 ) ) ;
#35 = CIRCLE ( 'NONE', #126, 0.6756624327025948507 ) ;
#36 = FACE_OUTER_BOUND ( 'NONE', #30, .T. ) ;
#37 = APPROVAL_STATUS ( 'not_yet_approved' ) ;
#38 = DIRECTION ( 'NONE',  ( -3.491481338843133355E-15, 1.224646799147353207E-16, -1.000000000000000000 ) ) ;
#39 = PERSON_AND_ORGANIZATION ( #243, #96 ) ;
#40 = PERSON_AND_ORGANIZATION_ROLE ( 'design_owner' ) ;
#41 = DIRECTION ( 'NONE',  ( -3.491481338843133355E-15, 1.224646799147353207E-16, -1.000000000000000000 ) ) ;
#42 = DATE_AND_TIME ( #156, #11 ) ;
#43 = ADVANCED_FACE ( 'NONE', ( #58 ), #104, .T. ) ;
#44 = VERTEX_POINT ( 'NONE', #158 ) ;
#45 = CARTESIAN_POINT ( 'NONE',  ( 1.745740669421566678E-13, -6.123233995736766085E-15, 50.00000000000000000 ) ) ;
#46 = DIRECTION ( 'NONE',  ( 3.491481338843133355E-15, -1.224646799147353207E-16, 1.000000000000000000 ) ) ;
#47 = EDGE_LOOP ( 'NONE', ( #242 ) ) ;
#48 = ORIENTED_EDGE ( 'NONE', *, *, #175, .T. ) ;
#49 = CARTESIAN_POINT ( 'NONE',  ( 2.444036937190193349E-14, -8.572527594031473190E-16, 7.000000000000000000 ) ) ;
#50 = APPLICATION_CONTEXT ( 'configuration controlled 3d designs of mechanical parts and assemblies' ) ;
#51 = ORIENTED_EDGE ( 'NONE', *, *, #171, .F. ) ;
#52 = DIRECTION ( 'NONE',  ( 0.0000000000000000000, 0.0000000000000000000, 1.000000000000000000 ) ) ;
#53 = CC_DESIGN_DATE_AND_TIME_ASSIGNMENT ( #87, #200, ( #76 ) ) ;
#54 = EDGE_LOOP ( 'NONE', ( #169 ) ) ;
#55 = AXIS2_PLACEMENT_3D ( 'NONE', #49, #25, #138 ) ;
#56 = DIRECTION ( 'NONE',  ( 4.275831445896958607E-31, 1.000000000000000000, 1.224646799147353454E-16 ) ) ;
#57 = DIRECTION ( 'NONE',  ( -3.491481338843133355E-15, 1.224646799147353207E-16, -1.000000000000000000 ) ) ;
#58 = FACE_OUTER_BOUND ( 'NONE', #191, .T. ) ;
#59 = LOCAL_TIME ( 15, 3, 51.00000000000000000, #181 ) ;
#60 = PRODUCT_DEFINITION_SHAPE ( 'NONE', 'NONE',  #76 ) ;
#61 = PERSON_AND_ORGANIZATION ( #243, #96 ) ;
#62 = DIRECTION ( 'NONE',  ( 0.0000000000000000000, 1.000000000000000000, 0.0000000000000000000 ) ) ;
#63 = PRODUCT_RELATED_PRODUCT_CATEGORY ( 'detail', '', ( #199 ) ) ;
#64 = COORDINATED_UNIVERSAL_TIME_OFFSET ( 1, 0, .AHEAD. ) ;
#65 = ADVANCED_FACE ( 'NONE', ( #194, #80 ), #177, .T. ) ;
#66 = SHAPE_DEFINITION_REPRESENTATION ( #60, #139 ) ;
#67 = CC_DESIGN_APPROVAL ( #197, ( #76 ) ) ;
#68 = PERSON_AND_ORGANIZATION ( #243, #96 ) ;
#69 = DIRECTION ( 'NONE',  ( 4.275831445896958607E-31, 1.000000000000000000, 1.224646799147353207E-16 ) ) ;
#70 = PERSON_AND_ORGANIZATION ( #243, #96 ) ;
#71 = DIRECTION ( 'NONE',  ( -3.491481338843133355E-15, 1.224646799147353207E-16, -1.000000000000000000 ) ) ;
#72 = TOROIDAL_SURFACE ( 'NONE', #241, 2.720000000000000195, 2.000000000000000000 ) ;
#73 = CARTESIAN_POINT ( 'NONE',  ( 2.444036937190193349E-14, 0.8199999999999990630, 7.000000000000000000 ) ) ;
#74 = SECURITY_CLASSIFICATION ( '', '', #132 ) ;
#75 = CARTESIAN_POINT ( 'NONE',  ( 7.191954771321498579E-14, 1.499999999999994005, 20.59857714635381498 ) ) ;
#76 = PRODUCT_DEFINITION ( 'UNKNOWN', '', #209, #292 ) ;
#77 = EDGE_LOOP ( 'NONE', ( #238 ) ) ;
#78 = FACE_OUTER_BOUND ( 'NONE', #222, .T. ) ;
#79 = EDGE_LOOP ( 'NONE', ( #262 ) ) ;
#80 = FACE_OUTER_BOUND ( 'NONE', #145, .T. ) ;
#81 = FACE_OUTER_BOUND ( 'NONE', #218, .T. ) ;
#82 = DIRECTION ( 'NONE',  ( -3.491481338843133355E-15, 1.224646799147353207E-16, -1.000000000000000000 ) ) ;
#83 = CALENDAR_DATE ( 2021, 1, 12 ) ;
#84 = DIRECTION ( 'NONE',  ( 3.491481338843133355E-15, -1.224646799147353207E-16, 1.000000000000000000 ) ) ;
#85 = CONICAL_SURFACE ( 'NONE', #147, 1.499999999999996669, 0.1745329251994261199 ) ;
#86 = EDGE_CURVE ( 'NONE', #287, #287, #302, .T. ) ;
#87 = DATE_AND_TIME ( #111, #225 ) ;
#88 = DIRECTION ( 'NONE',  ( 3.491481338843133355E-15, -1.224646799147353207E-16, 1.000000000000000000 ) ) ;
#89 = APPROVAL_ROLE ( '' ) ;
#90 = PERSON_AND_ORGANIZATION ( #243, #96 ) ;
#91 = CC_DESIGN_PERSON_AND_ORGANIZATION_ASSIGNMENT ( #70, #203, ( #74 ) ) ;
#92 = CIRCLE ( 'NONE', #186, 0.7503844939755809351 ) ;
#93 = FACE_BOUND ( 'NONE', #54, .T. ) ;
#94 = VERTEX_POINT ( 'NONE', #73 ) ;
#95 =( LENGTH_UNIT ( ) NAMED_UNIT ( * ) SI_UNIT ( .MILLI., .METRE. ) );
#96 = ORGANIZATION ( 'UNSPECIFIED', 'UNSPECIFIED', '' ) ;
#97 = CARTESIAN_POINT ( 'NONE',  ( 5.707628016518648493E-14, -2.001966415627278844E-15, 16.34729635533384595 ) ) ;
#98 = ORIENTED_EDGE ( 'NONE', *, *, #120, .F. ) ;
#99 = ORIENTED_EDGE ( 'NONE', *, *, #296, .F. ) ;
#100 = CARTESIAN_POINT ( 'NONE',  ( 0.0000000000000000000, 0.0000000000000000000, 0.0000000000000000000 ) ) ;
#101 = EDGE_LOOP ( 'NONE', ( #99 ) ) ;
#102 = ORIENTED_EDGE ( 'NONE', *, *, #283, .T. ) ;
#103 = CARTESIAN_POINT ( 'NONE',  ( 2.504511167915743751E-14, -8.784642641776459355E-16, 7.173205080756892116 ) ) ;
#104 = PLANE ( 'NONE',  #17 ) ;
#105 = PERSON_AND_ORGANIZATION ( #243, #96 ) ;
#106 = DIRECTION ( 'NONE',  ( 3.491481338843133355E-15, -1.224646799147353207E-16, 1.000000000000000000 ) ) ;
#107 = CLOSED_SHELL ( 'NONE', ( #128, #205, #210, #19, #240, #65, #237, #151 ) ) ;
#108 = CYLINDRICAL_SURFACE ( 'NONE', #263, 0.8199999999999995071 ) ;
#109 = AXIS2_PLACEMENT_3D ( 'NONE', #103, #57, #276 ) ;
#110 = PERSON_AND_ORGANIZATION_ROLE ( 'design_supplier' ) ;
#111 = CALENDAR_DATE ( 2021, 1, 12 ) ;
#112 = APPROVAL_STATUS ( 'not_yet_approved' ) ;
#113 = LOCAL_TIME ( 15, 3, 51.00000000000000000, #15 ) ;
#114 = CARTESIAN_POINT ( 'NONE',  ( 1.745740669421566678E-13, 1.199999999999995515, 50.00000000000000000 ) ) ;
#115 = CARTESIAN_POINT ( 'NONE',  ( 1.735266225405037467E-13, -6.086494591762345225E-15, 49.70000000000000284 ) ) ;
#116 = VERTEX_POINT ( 'NONE', #239 ) ;
#117 = DIRECTION ( 'NONE',  ( 4.275831445896958607E-31, 1.000000000000000000, 1.224646799147353207E-16 ) ) ;
#118 = DIRECTION ( 'NONE',  ( -3.491481338843133355E-15, 1.224646799147353207E-16, -1.000000000000000000 ) ) ;
#119 = EDGE_LOOP ( 'NONE', ( #5 ) ) ;
#120 = EDGE_CURVE ( 'NONE', #258, #258, #137, .T. ) ;
#121 = CIRCLE ( 'NONE', #55, 0.8199999999999999512 ) ;
#122 = ORIENTED_EDGE ( 'NONE', *, *, #296, .T. ) ;
#123 = ADVANCED_FACE ( 'NONE', ( #81, #14 ), #108, .T. ) ;
#124 = FACE_OUTER_BOUND ( 'NONE', #8, .T. ) ;
#125 = DIRECTION ( 'NONE',  ( -3.491481338843133355E-15, 1.224646799147353207E-16, -1.000000000000000000 ) ) ;
#126 = AXIS2_PLACEMENT_3D ( 'NONE', #32, #125, #182 ) ;
#127 = DIRECTION ( 'NONE',  ( 0.0000000000000000000, 1.000000000000000000, 0.0000000000000000000 ) ) ;
#128 = ADVANCED_FACE ( 'NONE', ( #124 ), #224, .F. ) ;
#129 = DIRECTION ( 'NONE',  ( -3.491481338843133355E-15, 1.224646799147353207E-16, -1.000000000000000000 ) ) ;
#130 = DATE_TIME_ROLE ( 'classification_date' ) ;
#131 = CC_DESIGN_SECURITY_CLASSIFICATION ( #74, ( #209 ) ) ;
#132 = SECURITY_CLASSIFICATION_LEVEL ( 'unclassified' ) ;
#133 = FACE_OUTER_BOUND ( 'NONE', #77, .T. ) ;
#134 = APPROVAL_ROLE ( '' ) ;
#135 = FACE_OUTER_BOUND ( 'NONE', #29, .T. ) ;
#136 = DIRECTION ( 'NONE',  ( 0.0000000000000000000, 1.000000000000000000, 0.0000000000000000000 ) ) ;
#137 = CIRCLE ( 'NONE', #164, 0.8199999999999990630 ) ;
#138 = DIRECTION ( 'NONE',  ( 0.0000000000000000000, 1.000000000000000000, 0.0000000000000000000 ) ) ;
#139 = ADVANCED_BREP_SHAPE_REPRESENTATION ( '327037', ( #188, #285, #274 ), #160 ) ;
#140 = DIRECTION ( 'NONE',  ( 0.0000000000000000000, -1.000000000000000000, 0.0000000000000000000 ) ) ;
#141 = AXIS2_PLACEMENT_3D ( 'NONE', #272, #88, #246 ) ;
#142 = EDGE_LOOP ( 'NONE', ( #163 ) ) ;
#143 = DIRECTION ( 'NONE',  ( -3.491481338843133355E-15, 1.224646799147353207E-16, -1.000000000000000000 ) ) ;
#144 = DIRECTION ( 'NONE',  ( 1.000000000000000000, 0.0000000000000000000, 0.0000000000000000000 ) ) ;
#145 = EDGE_LOOP ( 'NONE', ( #122 ) ) ;
#146 = AXIS2_PLACEMENT_3D ( 'NONE', #10, #82, #249 ) ;
#147 = AXIS2_PLACEMENT_3D ( 'NONE', #167, #213, #140 ) ;
#148 = ORIENTED_EDGE ( 'NONE', *, *, #9, .F. ) ;
#149 = FACE_OUTER_BOUND ( 'NONE', #119, .T. ) ;
#150 = DIRECTION ( 'NONE',  ( -3.491481338843133355E-15, 1.224646799147353207E-16, -1.000000000000000000 ) ) ;
#151 = ADVANCED_FACE ( 'NONE', ( #149 ), #295, .F. ) ;
#152 = CARTESIAN_POINT ( 'NONE',  ( 2.504511167915743751E-14, -8.784642641776459355E-16, 7.173205080756892116 ) ) ;
#153 = CIRCLE ( 'NONE', #109, 0.7199999999999988631 ) ;
#154 = CARTESIAN_POINT ( 'NONE',  ( 0.0000000000000000000, 0.0000000000000000000, 0.0000000000000000000 ) ) ;
#155 = DIRECTION ( 'NONE',  ( -3.491481338843133355E-15, 1.224646799147353207E-16, -1.000000000000000000 ) ) ;
#156 = CALENDAR_DATE ( 2021, 1, 12 ) ;
#157 = AXIS2_PLACEMENT_3D ( 'NONE', #227, #38, #127 ) ;
#158 = CARTESIAN_POINT ( 'NONE',  ( 1.735266225405037467E-13, 1.499999999999995559, 49.70000000000000284 ) ) ;
#159 = ADVANCED_FACE ( 'NONE', ( #173, #174 ), #23, .T. ) ;
#160 =( GEOMETRIC_REPRESENTATION_CONTEXT ( 3 ) GLOBAL_UNCERTAINTY_ASSIGNED_CONTEXT ( ( #223 ) ) GLOBAL_UNIT_ASSIGNED_CONTEXT ( ( #95, #217, #28 ) ) REPRESENTATION_CONTEXT ( 'NONE', 'WORKASPACE' ) );
#161 = CARTESIAN_POINT ( 'NONE',  ( 5.586370142149013368E-14, -1.959434878635765131E-15, 16.00000000000000000 ) ) ;
#162 = DIRECTION ( 'NONE',  ( 0.0000000000000000000, 1.000000000000000000, 0.0000000000000000000 ) ) ;
#163 = ORIENTED_EDGE ( 'NONE', *, *, #283, .F. ) ;
#164 = AXIS2_PLACEMENT_3D ( 'NONE', #228, #129, #198 ) ;
#165 = CARTESIAN_POINT ( 'NONE',  ( 1.745740669421566678E-13, -6.123233995736766085E-15, 50.00000000000000000 ) ) ;
#166 = ORIENTED_EDGE ( 'NONE', *, *, #259, .F. ) ;
#167 = CARTESIAN_POINT ( 'NONE',  ( 7.191954771321498579E-14, -2.522598156927201732E-15, 20.59857714635381498 ) ) ;
#168 = AXIS2_PLACEMENT_3D ( 'NONE', #115, #143, #234 ) ;
#169 = ORIENTED_EDGE ( 'NONE', *, *, #219, .T. ) ;
#170 = EDGE_LOOP ( 'NONE', ( #289 ) ) ;
#171 = EDGE_CURVE ( 'NONE', #282, #282, #35, .T. ) ;
#172 = AXIS2_PLACEMENT_3D ( 'NONE', #165, #233, #162 ) ;
#173 = FACE_BOUND ( 'NONE', #268, .T. ) ;
#174 = FACE_OUTER_BOUND ( 'NONE', #265, .T. ) ;
#175 = EDGE_CURVE ( 'NONE', #116, #116, #153, .T. ) ;
#176 = CARTESIAN_POINT ( 'NONE',  ( 2.444036937190193349E-14, 6.149015108913602918E-33, 7.000000000000000000 ) ) ;
#177 = CYLINDRICAL_SURFACE ( 'NONE', #235, 1.499999999999999112 ) ;
#178 = CONICAL_SURFACE ( 'NONE', #220, 0.7199999999999988631, 0.5235987755982938197 ) ;
#179 = APPLICATION_PROTOCOL_DEFINITION ( 'international standard', 'config_control_design', 1994, #252 ) ;
#180 = CC_DESIGN_PERSON_AND_ORGANIZATION_ASSIGNMENT ( #39, #40, ( #199 ) ) ;
#181 = COORDINATED_UNIVERSAL_TIME_OFFSET ( 1, 0, .AHEAD. ) ;
#182 = DIRECTION ( 'NONE',  ( 4.275831445896958607E-31, 1.000000000000000000, 1.224646799147353207E-16 ) ) ;
#183 = CARTESIAN_POINT ( 'NONE',  ( 5.586370142149013368E-14, 0.7199999999999979750, 16.00000000000000000 ) ) ;
#184 = CC_DESIGN_PERSON_AND_ORGANIZATION_ASSIGNMENT ( #61, #110, ( #209 ) ) ;
#185 = VERTEX_POINT ( 'NONE', #114 ) ;
#186 = AXIS2_PLACEMENT_3D ( 'NONE', #97, #71, #1 ) ;
#187 = CARTESIAN_POINT ( 'NONE',  ( 2.444036937190193349E-14, 0.8199999999999990630, 7.000000000000000000 ) ) ;
#188 = MANIFOLD_SOLID_BREP ( 'Corps-Déplacer/Copier1[1]', #107 ) ;
#189 = DIRECTION ( 'NONE',  ( -3.491481338843133355E-15, 1.224646799147353207E-16, -1.000000000000000000 ) ) ;
#190 = ORIENTED_EDGE ( 'NONE', *, *, #171, .T. ) ;
#191 = EDGE_LOOP ( 'NONE', ( #166 ) ) ;
#192 = APPLICATION_PROTOCOL_DEFINITION ( 'international standard', 'config_control_design', 1994, #50 ) ;
#193 = CIRCLE ( 'NONE', #195, 1.200000000000001732 ) ;
#194 = FACE_OUTER_BOUND ( 'NONE', #170, .T. ) ;
#195 = AXIS2_PLACEMENT_3D ( 'NONE', #45, #118, #136 ) ;
#196 = FACE_BOUND ( 'NONE', #261, .T. ) ;
#197 = APPROVAL ( #37, 'UNSPECIFIED' ) ;
#198 = DIRECTION ( 'NONE',  ( 4.697390108261556073E-31, 1.000000000000000000, 1.322197771323787362E-16 ) ) ;
#199 = PRODUCT ( '327037', '327037', '', ( #266 ) ) ;
#200 = DATE_TIME_ROLE ( 'creation_date' ) ;
#201 = CYLINDRICAL_SURFACE ( 'NONE', #284, 0.7199999999999994182 ) ;
#202 = CIRCLE ( 'NONE', #146, 0.8199999999999999512 ) ;
#203 = PERSON_AND_ORGANIZATION_ROLE ( 'classification_officer' ) ;
#204 = DIRECTION ( 'NONE',  ( -4.275831445896958607E-31, -1.000000000000000000, -1.224646799147353207E-16 ) ) ;
#205 = ADVANCED_FACE ( 'NONE', ( #273, #196 ), #178, .T. ) ;
#206 = DATE_AND_TIME ( #83, #113 ) ;
#207 = PERSON_AND_ORGANIZATION ( #243, #96 ) ;
#208 = APPROVAL_DATE_TIME ( #253, #197 ) ;
#209 = PRODUCT_DEFINITION_FORMATION_WITH_SPECIFIED_SOURCE ( 'ANY', '', #199, .NOT_KNOWN. ) ;
#210 = ADVANCED_FACE ( 'NONE', ( #226, #36 ), #201, .T. ) ;
#211 = DIRECTION ( 'NONE',  ( 0.0000000000000000000, 1.000000000000000000, 0.0000000000000000000 ) ) ;
#212 = PLANE ( 'NONE',  #214 ) ;
#213 = DIRECTION ( 'NONE',  ( 3.491481338843133355E-15, -1.224646799147353207E-16, 1.000000000000000000 ) ) ;
#214 = AXIS2_PLACEMENT_3D ( 'NONE', #260, #46, #264 ) ;
#215 = VERTEX_POINT ( 'NONE', #281 ) ;
#216 = CC_DESIGN_PERSON_AND_ORGANIZATION_ASSIGNMENT ( #301, #251, ( #209 ) ) ;
#217 =( NAMED_UNIT ( * ) PLANE_ANGLE_UNIT ( ) SI_UNIT ( $, .RADIAN. ) );
#218 = EDGE_LOOP ( 'NONE', ( #98 ) ) ;
#219 = EDGE_CURVE ( 'NONE', #185, #185, #193, .T. ) ;
#220 = AXIS2_PLACEMENT_3D ( 'NONE', #152, #150, #62 ) ;
#221 = EDGE_LOOP ( 'NONE', ( #294 ) ) ;
#222 = EDGE_LOOP ( 'NONE', ( #190 ) ) ;
#223 = UNCERTAINTY_MEASURE_WITH_UNIT (LENGTH_MEASURE( 1.000000000000000082E-05 ), #95, 'distance_accuracy_value', 'NONE');
#224 = PLANE ( 'NONE',  #293 ) ;
#225 = LOCAL_TIME ( 15, 3, 51.00000000000000000, #64 ) ;
#226 = FACE_OUTER_BOUND ( 'NONE', #79, .T. ) ;
#227 = CARTESIAN_POINT ( 'NONE',  ( 7.191954771321498579E-14, -2.522598156927201732E-15, 20.59857714635381498 ) ) ;
#228 = CARTESIAN_POINT ( 'NONE',  ( 8.728703347107829444E-16, -3.061616997868381785E-17, 0.2499999999999998890 ) ) ;
#229 = CLOSED_SHELL ( 'NONE', ( #250, #159, #123, #43 ) ) ;
#230 = APPROVAL_DATE_TIME ( #206, #286 ) ;
#231 = FACE_OUTER_BOUND ( 'NONE', #142, .T. ) ;
#232 = CC_DESIGN_APPROVAL ( #286, ( #74 ) ) ;
#233 = DIRECTION ( 'NONE',  ( -3.491481338843133355E-15, 1.224646799147353207E-16, -1.000000000000000000 ) ) ;
#234 = DIRECTION ( 'NONE',  ( 0.0000000000000000000, 1.000000000000000000, 0.0000000000000000000 ) ) ;
#235 = AXIS2_PLACEMENT_3D ( 'NONE', #254, #12, #56 ) ;
#236 = DIRECTION ( 'NONE',  ( -3.491481338843133355E-15, 1.224646799147353207E-16, -1.000000000000000000 ) ) ;
#237 = ADVANCED_FACE ( 'NONE', ( #4, #93 ), #3, .T. ) ;
#238 = ORIENTED_EDGE ( 'NONE', *, *, #291, .T. ) ;
#239 = CARTESIAN_POINT ( 'NONE',  ( 2.504511167915743751E-14, 0.7199999999999979750, 7.173205080756892116 ) ) ;
#240 = ADVANCED_FACE ( 'NONE', ( #303, #135 ), #85, .T. ) ;
#241 = AXIS2_PLACEMENT_3D ( 'NONE', #270, #298, #34 ) ;
#242 = ORIENTED_EDGE ( 'NONE', *, *, #259, .T. ) ;
#243 = PERSON ( 'UNSPECIFIED', 'UNSPECIFIED', 'UNSPECIFIED', ('UNSPECIFIED'), ('UNSPECIFIED'), ('UNSPECIFIED') ) ;
#244 = AXIS2_PLACEMENT_3D ( 'NONE', #300, #155, #22 ) ;
#245 = ORIENTED_EDGE ( 'NONE', *, *, #9, .T. ) ;
#246 = DIRECTION ( 'NONE',  ( -4.697390108261556073E-31, -1.000000000000000000, -1.322197771323787362E-16 ) ) ;
#247 = CARTESIAN_POINT ( 'NONE',  ( 2.444036937190193349E-14, 6.149015108913602918E-33, 7.000000000000000000 ) ) ;
#248 = APPROVAL_PERSON_ORGANIZATION ( #68, #286, #134 ) ;
#249 = DIRECTION ( 'NONE',  ( 0.0000000000000000000, 1.000000000000000000, 0.0000000000000000000 ) ) ;
#250 = ADVANCED_FACE ( 'NONE', ( #78 ), #212, .F. ) ;
#251 = PERSON_AND_ORGANIZATION_ROLE ( 'creator' ) ;
#252 = APPLICATION_CONTEXT ( 'configuration controlled 3d designs of mechanical parts and assemblies' ) ;
#253 = DATE_AND_TIME ( #20, #59 ) ;
#254 = CARTESIAN_POINT ( 'NONE',  ( 0.0000000000000000000, 0.0000000000000000000, 0.0000000000000000000 ) ) ;
#255 = APPROVAL_ROLE ( '' ) ;
#256 = VERTEX_POINT ( 'NONE', #183 ) ;
#257 = APPROVAL_PERSON_ORGANIZATION ( #207, #24, #255 ) ;
#258 = VERTEX_POINT ( 'NONE', #27 ) ;
#259 = EDGE_CURVE ( 'NONE', #94, #94, #121, .T. ) ;
#260 = CARTESIAN_POINT ( 'NONE',  ( -2.390877251472076880E-31, 8.386068516521576401E-33, -6.847744608780494382E-17 ) ) ;
#261 = EDGE_LOOP ( 'NONE', ( #48 ) ) ;
#262 = ORIENTED_EDGE ( 'NONE', *, *, #175, .F. ) ;
#263 = AXIS2_PLACEMENT_3D ( 'NONE', #16, #41, #69 ) ;
#264 = DIRECTION ( 'NONE',  ( -4.275831445896958607E-31, -1.000000000000000000, -1.224646799147353207E-16 ) ) ;
#265 = EDGE_LOOP ( 'NONE', ( #6 ) ) ;
#266 = MECHANICAL_CONTEXT ( 'NONE', #50, 'mechanical' ) ;
#267 = EDGE_LOOP ( 'NONE', ( #148 ) ) ;
#268 = EDGE_LOOP ( 'NONE', ( #51 ) ) ;
#269 = CC_DESIGN_APPROVAL ( #24, ( #209 ) ) ;
#270 = CARTESIAN_POINT ( 'NONE',  ( 5.586370142149013368E-14, -2.168404344971008868E-15, 16.00000000000000000 ) ) ;
#271 = CC_DESIGN_PERSON_AND_ORGANIZATION_ASSIGNMENT ( #105, #297, ( #76 ) ) ;
#272 = CARTESIAN_POINT ( 'NONE',  ( 8.728703347107829444E-16, -3.061616997868381785E-17, 0.2499999999999998890 ) ) ;
#273 = FACE_OUTER_BOUND ( 'NONE', #267, .T. ) ;
#274 = AXIS2_PLACEMENT_3D ( 'NONE', #100, #52, #144 ) ;
#275 = DATE_AND_TIME ( #13, #280 ) ;
#276 = DIRECTION ( 'NONE',  ( 0.0000000000000000000, 1.000000000000000000, 0.0000000000000000000 ) ) ;
#277 = APPROVAL_STATUS ( 'not_yet_approved' ) ;
#278 = APPROVAL_DATE_TIME ( #275, #24 ) ;
#279 = COORDINATED_UNIVERSAL_TIME_OFFSET ( 1, 0, .AHEAD. ) ;
#280 = LOCAL_TIME ( 15, 3, 51.00000000000000000, #21 ) ;
#281 = CARTESIAN_POINT ( 'NONE',  ( 5.707628016518648493E-14, 0.7503844939755789367, 16.34729635533384595 ) ) ;
#282 = VERTEX_POINT ( 'NONE', #26 ) ;
#283 = EDGE_CURVE ( 'NONE', #256, #256, #7, .T. ) ;
#284 = AXIS2_PLACEMENT_3D ( 'NONE', #154, #189, #117 ) ;
#285 = MANIFOLD_SOLID_BREP ( 'Corps-Déplacer/Copier1[2]', #229 ) ;
#286 = APPROVAL ( #112, 'UNSPECIFIED' ) ;
#287 = VERTEX_POINT ( 'NONE', #75 ) ;
#288 = APPROVAL_PERSON_ORGANIZATION ( #90, #197, #89 ) ;
#289 = ORIENTED_EDGE ( 'NONE', *, *, #86, .F. ) ;
#290 = DIRECTION ( 'NONE',  ( -4.275831445896958607E-31, -1.000000000000000000, -1.224646799147353207E-16 ) ) ;
#291 = EDGE_CURVE ( 'NONE', #215, #215, #92, .T. ) ;
#292 = DESIGN_CONTEXT ( 'detailed design', #252, 'design' ) ;
#293 = AXIS2_PLACEMENT_3D ( 'NONE', #176, #106, #204 ) ;
#294 = ORIENTED_EDGE ( 'NONE', *, *, #291, .F. ) ;
#295 = PLANE ( 'NONE',  #244 ) ;
#296 = EDGE_CURVE ( 'NONE', #44, #44, #18, .T. ) ;
#297 = PERSON_AND_ORGANIZATION_ROLE ( 'creator' ) ;
#298 = DIRECTION ( 'NONE',  ( -3.491481338843133355E-15, 1.224646799147353207E-16, -1.000000000000000000 ) ) ;
#299 = AXIS2_PLACEMENT_3D ( 'NONE', #161, #236, #211 ) ;
#300 = CARTESIAN_POINT ( 'NONE',  ( 1.745740669421566678E-13, 8.998558695971067645E-33, 50.00000000000000000 ) ) ;
#301 = PERSON_AND_ORGANIZATION ( #243, #96 ) ;
#302 = CIRCLE ( 'NONE', #157, 1.499999999999996669 ) ;
#303 = FACE_BOUND ( 'NONE', #221, .T. ) ;
ENDSEC;
END-ISO-10303-21;
