ISO-10303-21;
HEADER;
FILE_DESCRIPTION (( 'STEP AP203' ),
    '1' );
FILE_NAME ('327036.step',
    '2021-12-01T14:03:51',
    ( '' ),
    ( '' ),
    'SwSTEP 2.0',
    'SolidWorks 2019',
    '' );
FILE_SCHEMA (( 'CONFIG_CONTROL_DESIGN' ));
ENDSEC;

DATA;
#1 = CARTESIAN_POINT ( 'NONE',  ( 2.444036937190193349E-14, 6.111521114347056204E-33, 7.000000000000000000 ) ) ;
#2 = DIRECTION ( 'NONE',  ( -3.491481338843133355E-15, 1.224646799147353207E-16, -1.000000000000000000 ) ) ;
#3 = DIRECTION ( 'NONE',  ( 3.491481338843133355E-15, -1.224646799147353207E-16, 1.000000000000000000 ) ) ;
#4 = CARTESIAN_POINT ( 'NONE',  ( 7.201855358641757012E-14, 1.499999999999994005, 20.62693355545190599 ) ) ;
#5 = AXIS2_PLACEMENT_3D ( 'NONE', #30, #266, #55 ) ;
#6 = DIRECTION ( 'NONE',  ( -3.491481338843133355E-15, 1.224646799147353207E-16, -1.000000000000000000 ) ) ;
#7 = CARTESIAN_POINT ( 'NONE',  ( 2.504511167915743751E-14, 0.7149999999999979705, 7.173205080756892116 ) ) ;
#8 = ADVANCED_FACE ( 'NONE', ( #154, #246 ), #206, .F. ) ;
#9 = FACE_OUTER_BOUND ( 'NONE', #225, .T. ) ;
#10 = CONICAL_SURFACE ( 'NONE', #5, 0.8149999999999990585, 0.5235987755982923764 ) ;
#11 = ORIENTED_EDGE ( 'NONE', *, *, #194, .F. ) ;
#12 = ORIENTED_EDGE ( 'NONE', *, *, #152, .F. ) ;
#13 = CALENDAR_DATE ( 2021, 1, 12 ) ;
#14 = ORIENTED_EDGE ( 'NONE', *, *, #69, .T. ) ;
#15 = MANIFOLD_SOLID_BREP ( 'Corps-Déplacer/Copier1[1]', #257 ) ;
#16 = COORDINATED_UNIVERSAL_TIME_OFFSET ( 1, 0, .AHEAD. ) ;
#17 = ORIENTED_EDGE ( 'NONE', *, *, #146, .F. ) ;
#18 = ORIENTED_EDGE ( 'NONE', *, *, #69, .F. ) ;
#19 = CC_DESIGN_PERSON_AND_ORGANIZATION_ASSIGNMENT ( #105, #196, ( #126 ) ) ;
#20 = CYLINDRICAL_SURFACE ( 'NONE', #276, 1.499999999999999112 ) ;
#21 = MANIFOLD_SOLID_BREP ( 'Corps-Déplacer/Copier1[2]', #289 ) ;
#22 = CARTESIAN_POINT ( 'NONE',  ( 1.745740669421566678E-13, 8.998558695971067645E-33, 50.00000000000000000 ) ) ;
#23 = PERSON ( 'UNSPECIFIED', 'UNSPECIFIED', 'UNSPECIFIED', ('UNSPECIFIED'), ('UNSPECIFIED'), ('UNSPECIFIED') ) ;
#24 = APPROVAL_DATE_TIME ( #83, #78 ) ;
#25 = FACE_OUTER_BOUND ( 'NONE', #248, .T. ) ;
#26 = EDGE_CURVE ( 'NONE', #241, #241, #169, .T. ) ;
#27 = CARTESIAN_POINT ( 'NONE',  ( 2.444036937190193349E-14, -8.572527594031473190E-16, 7.000000000000000000 ) ) ;
#28 = DIRECTION ( 'NONE',  ( 4.275831445896957731E-31, 1.000000000000000000, 1.224646799147353207E-16 ) ) ;
#29 = AXIS2_PLACEMENT_3D ( 'NONE', #279, #133, #54 ) ;
#30 = CARTESIAN_POINT ( 'NONE',  ( 8.728703347107829444E-16, -3.061616997868381785E-17, 0.2499999999999998890 ) ) ;
#31 = CARTESIAN_POINT ( 'NONE',  ( 5.586370142149013368E-14, 0.7149999999999981926, 16.00000000000000000 ) ) ;
#32 = CARTESIAN_POINT ( 'NONE',  ( 0.0000000000000000000, 0.0000000000000000000, 0.0000000000000000000 ) ) ;
#33 = AXIS2_PLACEMENT_3D ( 'NONE', #217, #236, #82 ) ;
#34 = CC_DESIGN_SECURITY_CLASSIFICATION ( #128, ( #141 ) ) ;
#35 = DIRECTION ( 'NONE',  ( -3.491481338843133355E-15, 1.224646799147353207E-16, -1.000000000000000000 ) ) ;
#36 = CC_DESIGN_APPROVAL ( #213, ( #141 ) ) ;
#37 = APPROVAL_ROLE ( '' ) ;
#38 = AXIS2_PLACEMENT_3D ( 'NONE', #22, #114, #230 ) ;
#39 = EDGE_CURVE ( 'NONE', #102, #102, #187, .T. ) ;
#40 = PERSON_AND_ORGANIZATION_ROLE ( 'creator' ) ;
#41 = ORIENTED_EDGE ( 'NONE', *, *, #285, .T. ) ;
#42 = COORDINATED_UNIVERSAL_TIME_OFFSET ( 1, 0, .AHEAD. ) ;
#43 = DATE_AND_TIME ( #175, #215 ) ;
#44 = EDGE_LOOP ( 'NONE', ( #17 ) ) ;
#45 = LOCAL_TIME ( 15, 3, 51.00000000000000000, #254 ) ;
#46 = CC_DESIGN_PERSON_AND_ORGANIZATION_ASSIGNMENT ( #294, #89, ( #141 ) ) ;
#47 = CARTESIAN_POINT ( 'NONE',  ( 0.0000000000000000000, 0.0000000000000000000, 0.0000000000000000000 ) ) ;
#48 = DIRECTION ( 'NONE',  ( 0.0000000000000000000, -1.000000000000000000, 0.0000000000000000000 ) ) ;
#49 = APPROVAL_DATE_TIME ( #174, #85 ) ;
#50 = DIRECTION ( 'NONE',  ( -3.491481338843133355E-15, 1.224646799147353207E-16, -1.000000000000000000 ) ) ;
#51 = CIRCLE ( 'NONE', #136, 0.6706624327025948462 ) ;
#52 = LOCAL_TIME ( 15, 3, 51.00000000000000000, #278 ) ;
#53 = DIRECTION ( 'NONE',  ( 0.0000000000000000000, 1.000000000000000000, 0.0000000000000000000 ) ) ;
#54 = DIRECTION ( 'NONE',  ( 0.0000000000000000000, 1.000000000000000000, 0.0000000000000000000 ) ) ;
#55 = DIRECTION ( 'NONE',  ( -4.726208452484019812E-31, -1.000000000000000000, -1.330309414092645011E-16 ) ) ;
#56 = CARTESIAN_POINT ( 'NONE',  ( 8.728703347107833388E-16, 0.8149999999999990585, 0.2500000000000000000 ) ) ;
#57 = DIRECTION ( 'NONE',  ( 4.726208452484019812E-31, 1.000000000000000000, 1.330309414092645011E-16 ) ) ;
#58 = DIRECTION ( 'NONE',  ( 0.0000000000000000000, 1.000000000000000000, 0.0000000000000000000 ) ) ;
#59 = CIRCLE ( 'NONE', #64, 0.8149999999999990585 ) ;
#60 = AXIS2_PLACEMENT_3D ( 'NONE', #147, #35, #123 ) ;
#61 = DIRECTION ( 'NONE',  ( 0.0000000000000000000, 1.000000000000000000, 0.0000000000000000000 ) ) ;
#62 = SECURITY_CLASSIFICATION_LEVEL ( 'unclassified' ) ;
#63 = ORIENTED_EDGE ( 'NONE', *, *, #118, .T. ) ;
#64 = AXIS2_PLACEMENT_3D ( 'NONE', #170, #6, #57 ) ;
#65 = COORDINATED_UNIVERSAL_TIME_OFFSET ( 1, 0, .AHEAD. ) ;
#66 = APPROVAL_DATE_TIME ( #43, #213 ) ;
#67 = DIRECTION ( 'NONE',  ( -3.491481338843133355E-15, 1.224646799147353207E-16, -1.000000000000000000 ) ) ;
#68 = ORIENTED_EDGE ( 'NONE', *, *, #194, .T. ) ;
#69 = EDGE_CURVE ( 'NONE', #124, #124, #172, .T. ) ;
#70 = DIRECTION ( 'NONE',  ( -4.275831445896958607E-31, -1.000000000000000000, -1.224646799147353207E-16 ) ) ;
#71 = CARTESIAN_POINT ( 'NONE',  ( 2.444036937190193349E-14, -8.572527594031473190E-16, 7.000000000000000000 ) ) ;
#72 = APPROVAL_STATUS ( 'not_yet_approved' ) ;
#73 = CARTESIAN_POINT ( 'NONE',  ( 0.0000000000000000000, 0.0000000000000000000, 0.0000000000000000000 ) ) ;
#74 = AXIS2_PLACEMENT_3D ( 'NONE', #166, #2, #159 ) ;
#75 = DIRECTION ( 'NONE',  ( 3.491481338843133355E-15, -1.224646799147353207E-16, 1.000000000000000000 ) ) ;
#76 = DIRECTION ( 'NONE',  ( 0.0000000000000000000, 1.000000000000000000, 0.0000000000000000000 ) ) ;
#77 = VERTEX_POINT ( 'NONE', #284 ) ;
#78 = APPROVAL ( #184, 'UNSPECIFIED' ) ;
#79 = VERTEX_POINT ( 'NONE', #56 ) ;
#80 = CIRCLE ( 'NONE', #113, 0.8149999999999999467 ) ;
#81 =( LENGTH_UNIT ( ) NAMED_UNIT ( * ) SI_UNIT ( .MILLI., .METRE. ) );
#82 = DIRECTION ( 'NONE',  ( 0.0000000000000000000, 1.000000000000000000, 0.0000000000000000000 ) ) ;
#83 = DATE_AND_TIME ( #220, #233 ) ;
#84 = ORIENTED_EDGE ( 'NONE', *, *, #261, .T. ) ;
#85 = APPROVAL ( #72, 'UNSPECIFIED' ) ;
#86 = DATE_AND_TIME ( #13, #163 ) ;
#87 = ORIENTED_EDGE ( 'NONE', *, *, #237, .F. ) ;
#88 = AXIS2_PLACEMENT_3D ( 'NONE', #100, #125, #61 ) ;
#89 = PERSON_AND_ORGANIZATION_ROLE ( 'design_supplier' ) ;
#90 = ORIENTED_EDGE ( 'NONE', *, *, #39, .F. ) ;
#91 = DIRECTION ( 'NONE',  ( 1.000000000000000000, 0.0000000000000000000, 0.0000000000000000000 ) ) ;
#92 = EDGE_LOOP ( 'NONE', ( #275 ) ) ;
#93 = AXIS2_PLACEMENT_3D ( 'NONE', #219, #264, #58 ) ;
#94 = FACE_OUTER_BOUND ( 'NONE', #127, .T. ) ;
#95 = CYLINDRICAL_SURFACE ( 'NONE', #107, 0.8149999999999995026 ) ;
#96 = DIRECTION ( 'NONE',  ( 4.275831445896958607E-31, 1.000000000000000000, 1.224646799147353207E-16 ) ) ;
#97 = FACE_OUTER_BOUND ( 'NONE', #106, .T. ) ;
#98 = ORGANIZATION ( 'UNSPECIFIED', 'UNSPECIFIED', '' ) ;
#99 = CARTESIAN_POINT ( 'NONE',  ( -2.867639519331507471E-31, 1.005832544309516279E-32, -8.213246015176099069E-17 ) ) ;
#100 = CARTESIAN_POINT ( 'NONE',  ( 7.201855358641757012E-14, -2.526070815490931310E-15, 20.62693355545190599 ) ) ;
#101 = CARTESIAN_POINT ( 'NONE',  ( 1.735266225405037467E-13, 1.499999999999995559, 49.70000000000000284 ) ) ;
#102 = VERTEX_POINT ( 'NONE', #288 ) ;
#103 = DESIGN_CONTEXT ( 'detailed design', #164, 'design' ) ;
#104 = CIRCLE ( 'NONE', #151, 0.7453844939755793764 ) ;
#105 = PERSON_AND_ORGANIZATION ( #23, #98 ) ;
#106 = EDGE_LOOP ( 'NONE', ( #84 ) ) ;
#107 = AXIS2_PLACEMENT_3D ( 'NONE', #73, #280, #162 ) ;
#108 = CONICAL_SURFACE ( 'NONE', #60, 1.200000000000001732, 0.7853981633974453924 ) ;
#109 = PERSON_AND_ORGANIZATION_ROLE ( 'design_owner' ) ;
#110 = EDGE_LOOP ( 'NONE', ( #150 ) ) ;
#111 = EDGE_LOOP ( 'NONE', ( #269 ) ) ;
#112 = CARTESIAN_POINT ( 'NONE',  ( 0.0000000000000000000, 0.0000000000000000000, 0.0000000000000000000 ) ) ;
#113 = AXIS2_PLACEMENT_3D ( 'NONE', #71, #183, #282 ) ;
#114 = DIRECTION ( 'NONE',  ( -3.491481338843133355E-15, 1.224646799147353207E-16, -1.000000000000000000 ) ) ;
#115 = ADVANCED_FACE ( 'NONE', ( #277, #97 ), #239, .T. ) ;
#116 = PLANE ( 'NONE',  #191 ) ;
#117 = FACE_OUTER_BOUND ( 'NONE', #300, .T. ) ;
#118 = EDGE_CURVE ( 'NONE', #218, #218, #80, .T. ) ;
#119 = DIRECTION ( 'NONE',  ( 3.491481338843133355E-15, -1.224646799147353207E-16, 1.000000000000000000 ) ) ;
#120 = DIRECTION ( 'NONE',  ( -4.275831445896958607E-31, -1.000000000000000000, -1.224646799147353207E-16 ) ) ;
#121 =( NAMED_UNIT ( * ) PLANE_ANGLE_UNIT ( ) SI_UNIT ( $, .RADIAN. ) );
#122 = CC_DESIGN_PERSON_AND_ORGANIZATION_ASSIGNMENT ( #132, #109, ( #138 ) ) ;
#123 = DIRECTION ( 'NONE',  ( 0.0000000000000000000, 1.000000000000000000, 0.0000000000000000000 ) ) ;
#124 = VERTEX_POINT ( 'NONE', #7 ) ;
#125 = DIRECTION ( 'NONE',  ( -3.491481338843133355E-15, 1.224646799147353207E-16, -1.000000000000000000 ) ) ;
#126 = PRODUCT_DEFINITION ( 'UNKNOWN', '', #141, #103 ) ;
#127 = EDGE_LOOP ( 'NONE', ( #272 ) ) ;
#128 = SECURITY_CLASSIFICATION ( '', '', #62 ) ;
#129 = SHAPE_DEFINITION_REPRESENTATION ( #259, #238 ) ;
#130 = ADVANCED_FACE ( 'NONE', ( #165 ), #140, .F. ) ;
#131 = CC_DESIGN_PERSON_AND_ORGANIZATION_ASSIGNMENT ( #229, #201, ( #128 ) ) ;
#132 = PERSON_AND_ORGANIZATION ( #23, #98 ) ;
#133 = DIRECTION ( 'NONE',  ( -3.491481338843133355E-15, 1.224646799147353207E-16, -1.000000000000000000 ) ) ;
#134 = PLANE ( 'NONE',  #38 ) ;
#135 = DATE_AND_TIME ( #270, #52 ) ;
#136 = AXIS2_PLACEMENT_3D ( 'NONE', #99, #50, #189 ) ;
#137 = DIRECTION ( 'NONE',  ( -3.491481338843133355E-15, 1.224646799147353207E-16, -1.000000000000000000 ) ) ;
#138 = PRODUCT ( '327036', '327036', '', ( #299 ) ) ;
#139 = FACE_OUTER_BOUND ( 'NONE', #157, .T. ) ;
#140 = PLANE ( 'NONE',  #177 ) ;
#141 = PRODUCT_DEFINITION_FORMATION_WITH_SPECIFIED_SOURCE ( 'ANY', '', #138, .NOT_KNOWN. ) ;
#142 = ADVANCED_FACE ( 'NONE', ( #117 ), #212, .T. ) ;
#143 =( NAMED_UNIT ( * ) SI_UNIT ( $, .STERADIAN. ) SOLID_ANGLE_UNIT ( ) );
#144 = CARTESIAN_POINT ( 'NONE',  ( 1.745740669421566678E-13, 1.199999999999995515, 50.00000000000000000 ) ) ;
#145 = FACE_OUTER_BOUND ( 'NONE', #204, .T. ) ;
#146 = EDGE_CURVE ( 'NONE', #77, #77, #51, .T. ) ;
#147 = CARTESIAN_POINT ( 'NONE',  ( 1.745740669421566678E-13, -6.123233995736766085E-15, 50.00000000000000000 ) ) ;
#148 = AXIS2_PLACEMENT_3D ( 'NONE', #252, #137, #185 ) ;
#149 = FACE_BOUND ( 'NONE', #44, .T. ) ;
#150 = ORIENTED_EDGE ( 'NONE', *, *, #152, .T. ) ;
#151 = AXIS2_PLACEMENT_3D ( 'NONE', #231, #253, #76 ) ;
#152 = EDGE_CURVE ( 'NONE', #287, #287, #228, .T. ) ;
#153 = DATE_TIME_ROLE ( 'classification_date' ) ;
#154 = FACE_OUTER_BOUND ( 'NONE', #293, .T. ) ;
#155 = CC_DESIGN_DATE_AND_TIME_ASSIGNMENT ( #135, #153, ( #128 ) ) ;
#156 = PERSON_AND_ORGANIZATION ( #23, #98 ) ;
#157 = EDGE_LOOP ( 'NONE', ( #41 ) ) ;
#158 = EDGE_LOOP ( 'NONE', ( #197 ) ) ;
#159 = DIRECTION ( 'NONE',  ( 0.0000000000000000000, 1.000000000000000000, 0.0000000000000000000 ) ) ;
#160 = FACE_OUTER_BOUND ( 'NONE', #244, .T. ) ;
#161 = PERSON_AND_ORGANIZATION ( #23, #98 ) ;
#162 = DIRECTION ( 'NONE',  ( 4.275831445896958607E-31, 1.000000000000000000, 1.224646799147353454E-16 ) ) ;
#163 = LOCAL_TIME ( 15, 3, 51.00000000000000000, #16 ) ;
#164 = APPLICATION_CONTEXT ( 'configuration controlled 3d designs of mechanical parts and assemblies' ) ;
#165 = FACE_OUTER_BOUND ( 'NONE', #111, .T. ) ;
#166 = CARTESIAN_POINT ( 'NONE',  ( 1.745740669421566678E-13, -6.123233995736766085E-15, 50.00000000000000000 ) ) ;
#167 = FACE_BOUND ( 'NONE', #243, .T. ) ;
#168 = APPROVAL_PERSON_ORGANIZATION ( #198, #213, #247 ) ;
#169 = CIRCLE ( 'NONE', #74, 1.200000000000001732 ) ;
#170 = CARTESIAN_POINT ( 'NONE',  ( 8.728703347107829444E-16, -3.061616997868381785E-17, 0.2499999999999998890 ) ) ;
#171 = VERTEX_POINT ( 'NONE', #4 ) ;
#172 = CIRCLE ( 'NONE', #29, 0.7149999999999988587 ) ;
#173 = APPLICATION_CONTEXT ( 'configuration controlled 3d designs of mechanical parts and assemblies' ) ;
#174 = DATE_AND_TIME ( #290, #45 ) ;
#175 = CALENDAR_DATE ( 2021, 1, 12 ) ;
#176 = DIRECTION ( 'NONE',  ( 0.0000000000000000000, 0.0000000000000000000, 1.000000000000000000 ) ) ;
#177 = AXIS2_PLACEMENT_3D ( 'NONE', #188, #186, #70 ) ;
#178 = APPROVAL_PERSON_ORGANIZATION ( #223, #85, #245 ) ;
#179 = ORIENTED_EDGE ( 'NONE', *, *, #285, .F. ) ;
#180 = ORIENTED_EDGE ( 'NONE', *, *, #26, .T. ) ;
#181 = ADVANCED_FACE ( 'NONE', ( #210, #139 ), #209, .T. ) ;
#182 = CONICAL_SURFACE ( 'NONE', #93, 0.7149999999999988587, 0.5235987755982938197 ) ;
#183 = DIRECTION ( 'NONE',  ( -3.491481338843133355E-15, 1.224646799147353207E-16, -1.000000000000000000 ) ) ;
#184 = APPROVAL_STATUS ( 'not_yet_approved' ) ;
#185 = DIRECTION ( 'NONE',  ( 0.0000000000000000000, 1.000000000000000000, 0.0000000000000000000 ) ) ;
#186 = DIRECTION ( 'NONE',  ( 3.491481338843133355E-15, -1.224646799147353207E-16, 1.000000000000000000 ) ) ;
#187 = CIRCLE ( 'NONE', #267, 0.8149999999999999467 ) ;
#188 = CARTESIAN_POINT ( 'NONE',  ( -1.433819759665753736E-31, 5.029162721547581393E-33, -4.106623007588049534E-17 ) ) ;
#189 = DIRECTION ( 'NONE',  ( 4.275831445896957731E-31, 1.000000000000000000, 1.224646799147353207E-16 ) ) ;
#190 = VERTEX_POINT ( 'NONE', #31 ) ;
#191 = AXIS2_PLACEMENT_3D ( 'NONE', #1, #75, #120 ) ;
#192 = CARTESIAN_POINT ( 'NONE',  ( 5.707628016518648493E-14, 0.7453844939755773780, 16.34729635533384595 ) ) ;
#193 = DATE_TIME_ROLE ( 'creation_date' ) ;
#194 = EDGE_CURVE ( 'NONE', #263, #263, #104, .T. ) ;
#195 = CC_DESIGN_PERSON_AND_ORGANIZATION_ASSIGNMENT ( #156, #40, ( #141 ) ) ;
#196 = PERSON_AND_ORGANIZATION_ROLE ( 'creator' ) ;
#197 = ORIENTED_EDGE ( 'NONE', *, *, #237, .T. ) ;
#198 = PERSON_AND_ORGANIZATION ( #23, #98 ) ;
#199 = CARTESIAN_POINT ( 'NONE',  ( 5.586370142149013368E-14, -2.168404344971008868E-15, 16.00000000000000000 ) ) ;
#200 = APPROVAL_PERSON_ORGANIZATION ( #161, #78, #37 ) ;
#201 = PERSON_AND_ORGANIZATION_ROLE ( 'classification_officer' ) ;
#202 = EDGE_LOOP ( 'NONE', ( #11 ) ) ;
#203 = ADVANCED_FACE ( 'NONE', ( #160, #260 ), #20, .T. ) ;
#204 = EDGE_LOOP ( 'NONE', ( #12 ) ) ;
#205 = DIRECTION ( 'NONE',  ( -3.491481338843133355E-15, 1.224646799147353207E-16, -1.000000000000000000 ) ) ;
#206 = TOROIDAL_SURFACE ( 'NONE', #297, 2.714999999999999858, 2.000000000000000444 ) ;
#207 = FACE_OUTER_BOUND ( 'NONE', #224, .T. ) ;
#208 = ADVANCED_FACE ( 'NONE', ( #94 ), #134, .F. ) ;
#209 = CYLINDRICAL_SURFACE ( 'NONE', #211, 0.7149999999999995248 ) ;
#210 = FACE_OUTER_BOUND ( 'NONE', #274, .T. ) ;
#211 = AXIS2_PLACEMENT_3D ( 'NONE', #47, #258, #96 ) ;
#212 = PLANE ( 'NONE',  #286 ) ;
#213 = APPROVAL ( #273, 'UNSPECIFIED' ) ;
#214 = FACE_BOUND ( 'NONE', #249, .T. ) ;
#215 = LOCAL_TIME ( 15, 3, 51.00000000000000000, #42 ) ;
#216 = CIRCLE ( 'NONE', #88, 1.499999999999996669 ) ;
#217 = CARTESIAN_POINT ( 'NONE',  ( 5.586370142149013368E-14, -1.959434878635765131E-15, 16.00000000000000000 ) ) ;
#218 = VERTEX_POINT ( 'NONE', #242 ) ;
#219 = CARTESIAN_POINT ( 'NONE',  ( 2.504511167915743751E-14, -8.784642641776459355E-16, 7.173205080756892116 ) ) ;
#220 = CALENDAR_DATE ( 2021, 1, 12 ) ;
#221 = ADVANCED_FACE ( 'NONE', ( #207, #303 ), #95, .T. ) ;
#222 = ORIENTED_EDGE ( 'NONE', *, *, #261, .F. ) ;
#223 = PERSON_AND_ORGANIZATION ( #23, #98 ) ;
#224 = EDGE_LOOP ( 'NONE', ( #87 ) ) ;
#225 = EDGE_LOOP ( 'NONE', ( #298 ) ) ;
#226 = CARTESIAN_POINT ( 'NONE',  ( 7.201855358641757012E-14, -2.526070815490931310E-15, 20.62693355545190599 ) ) ;
#227 = CARTESIAN_POINT ( 'NONE',  ( 2.444036937190193349E-14, 6.111521114347056204E-33, 7.000000000000000000 ) ) ;
#228 = CIRCLE ( 'NONE', #148, 1.500000000000001554 ) ;
#229 = PERSON_AND_ORGANIZATION ( #23, #98 ) ;
#230 = DIRECTION ( 'NONE',  ( 4.275831445896958607E-31, 1.000000000000000000, 1.224646799147353207E-16 ) ) ;
#231 = CARTESIAN_POINT ( 'NONE',  ( 5.707628016518648493E-14, -2.001966415627278844E-15, 16.34729635533384595 ) ) ;
#232 = DIRECTION ( 'NONE',  ( -4.275831445896958607E-31, -1.000000000000000000, -1.224646799147353207E-16 ) ) ;
#233 = LOCAL_TIME ( 15, 3, 51.00000000000000000, #65 ) ;
#234 = ADVANCED_FACE ( 'NONE', ( #25 ), #116, .F. ) ;
#235 = PRODUCT_RELATED_PRODUCT_CATEGORY ( 'detail', '', ( #138 ) ) ;
#236 = DIRECTION ( 'NONE',  ( -3.491481338843133355E-15, 1.224646799147353207E-16, -1.000000000000000000 ) ) ;
#237 = EDGE_CURVE ( 'NONE', #79, #79, #59, .T. ) ;
#238 = ADVANCED_BREP_SHAPE_REPRESENTATION ( '327036', ( #15, #21, #240 ), #281 ) ;
#239 = CONICAL_SURFACE ( 'NONE', #271, 1.499999999999996669, 0.1745329251994263697 ) ;
#240 = AXIS2_PLACEMENT_3D ( 'NONE', #32, #176, #91 ) ;
#241 = VERTEX_POINT ( 'NONE', #144 ) ;
#242 = CARTESIAN_POINT ( 'NONE',  ( 2.444036937190193349E-14, 0.8149999999999990585, 7.000000000000000000 ) ) ;
#243 = EDGE_LOOP ( 'NONE', ( #180 ) ) ;
#244 = EDGE_LOOP ( 'NONE', ( #222 ) ) ;
#245 = APPROVAL_ROLE ( '' ) ;
#246 = FACE_OUTER_BOUND ( 'NONE', #295, .T. ) ;
#247 = APPROVAL_ROLE ( '' ) ;
#248 = EDGE_LOOP ( 'NONE', ( #63 ) ) ;
#249 = EDGE_LOOP ( 'NONE', ( #14 ) ) ;
#250 = CIRCLE ( 'NONE', #33, 0.7150000000000001910 ) ;
#251 = CC_DESIGN_APPROVAL ( #85, ( #128 ) ) ;
#252 = CARTESIAN_POINT ( 'NONE',  ( 1.735266225405037467E-13, -6.086494591762345225E-15, 49.70000000000000284 ) ) ;
#253 = DIRECTION ( 'NONE',  ( -3.491481338843133355E-15, 1.224646799147353207E-16, -1.000000000000000000 ) ) ;
#254 = COORDINATED_UNIVERSAL_TIME_OFFSET ( 1, 0, .AHEAD. ) ;
#255 = ADVANCED_FACE ( 'NONE', ( #149, #283 ), #10, .T. ) ;
#256 = DIRECTION ( 'NONE',  ( -3.491481338843133355E-15, 1.224646799147353207E-16, -1.000000000000000000 ) ) ;
#257 = CLOSED_SHELL ( 'NONE', ( #234, #262, #181, #8, #115, #203, #291, #208 ) ) ;
#258 = DIRECTION ( 'NONE',  ( -3.491481338843133355E-15, 1.224646799147353207E-16, -1.000000000000000000 ) ) ;
#259 = PRODUCT_DEFINITION_SHAPE ( 'NONE', 'NONE',  #126 ) ;
#260 = FACE_OUTER_BOUND ( 'NONE', #110, .T. ) ;
#261 = EDGE_CURVE ( 'NONE', #171, #171, #216, .T. ) ;
#262 = ADVANCED_FACE ( 'NONE', ( #9, #214 ), #182, .T. ) ;
#263 = VERTEX_POINT ( 'NONE', #192 ) ;
#264 = DIRECTION ( 'NONE',  ( -3.491481338843133355E-15, 1.224646799147353207E-16, -1.000000000000000000 ) ) ;
#265 = APPLICATION_PROTOCOL_DEFINITION ( 'international standard', 'config_control_design', 1994, #173 ) ;
#266 = DIRECTION ( 'NONE',  ( 3.491481338843133355E-15, -1.224646799147353207E-16, 1.000000000000000000 ) ) ;
#267 = AXIS2_PLACEMENT_3D ( 'NONE', #27, #256, #53 ) ;
#268 = CC_DESIGN_DATE_AND_TIME_ASSIGNMENT ( #86, #193, ( #126 ) ) ;
#269 = ORIENTED_EDGE ( 'NONE', *, *, #146, .T. ) ;
#270 = CALENDAR_DATE ( 2021, 1, 12 ) ;
#271 = AXIS2_PLACEMENT_3D ( 'NONE', #226, #3, #48 ) ;
#272 = ORIENTED_EDGE ( 'NONE', *, *, #26, .F. ) ;
#273 = APPROVAL_STATUS ( 'not_yet_approved' ) ;
#274 = EDGE_LOOP ( 'NONE', ( #18 ) ) ;
#275 = ORIENTED_EDGE ( 'NONE', *, *, #39, .T. ) ;
#276 = AXIS2_PLACEMENT_3D ( 'NONE', #112, #205, #302 ) ;
#277 = FACE_BOUND ( 'NONE', #202, .T. ) ;
#278 = COORDINATED_UNIVERSAL_TIME_OFFSET ( 1, 0, .AHEAD. ) ;
#279 = CARTESIAN_POINT ( 'NONE',  ( 2.504511167915743751E-14, -8.784642641776459355E-16, 7.173205080756892116 ) ) ;
#280 = DIRECTION ( 'NONE',  ( -3.491481338843133355E-15, 1.224646799147353207E-16, -1.000000000000000000 ) ) ;
#281 =( GEOMETRIC_REPRESENTATION_CONTEXT ( 3 ) GLOBAL_UNCERTAINTY_ASSIGNED_CONTEXT ( ( #292 ) ) GLOBAL_UNIT_ASSIGNED_CONTEXT ( ( #81, #121, #143 ) ) REPRESENTATION_CONTEXT ( 'NONE', 'WORKASPACE' ) );
#282 = DIRECTION ( 'NONE',  ( 0.0000000000000000000, 1.000000000000000000, 0.0000000000000000000 ) ) ;
#283 = FACE_OUTER_BOUND ( 'NONE', #158, .T. ) ;
#284 = CARTESIAN_POINT ( 'NONE',  ( 0.0000000000000000000, 0.6706624327025948462, 0.0000000000000000000 ) ) ;
#285 = EDGE_CURVE ( 'NONE', #190, #190, #250, .T. ) ;
#286 = AXIS2_PLACEMENT_3D ( 'NONE', #227, #119, #232 ) ;
#287 = VERTEX_POINT ( 'NONE', #101 ) ;
#288 = CARTESIAN_POINT ( 'NONE',  ( 2.444036937190193349E-14, 0.8149999999999990585, 7.000000000000000000 ) ) ;
#289 = CLOSED_SHELL ( 'NONE', ( #130, #255, #221, #142 ) ) ;
#290 = CALENDAR_DATE ( 2021, 1, 12 ) ;
#291 = ADVANCED_FACE ( 'NONE', ( #145, #167 ), #108, .T. ) ;
#292 = UNCERTAINTY_MEASURE_WITH_UNIT (LENGTH_MEASURE( 1.000000000000000082E-05 ), #81, 'distance_accuracy_value', 'NONE');
#293 = EDGE_LOOP ( 'NONE', ( #179 ) ) ;
#294 = PERSON_AND_ORGANIZATION ( #23, #98 ) ;
#295 = EDGE_LOOP ( 'NONE', ( #68 ) ) ;
#296 = APPLICATION_PROTOCOL_DEFINITION ( 'international standard', 'config_control_design', 1994, #164 ) ;
#297 = AXIS2_PLACEMENT_3D ( 'NONE', #199, #67, #28 ) ;
#298 = ORIENTED_EDGE ( 'NONE', *, *, #118, .F. ) ;
#299 = MECHANICAL_CONTEXT ( 'NONE', #173, 'mechanical' ) ;
#300 = EDGE_LOOP ( 'NONE', ( #90 ) ) ;
#301 = CC_DESIGN_APPROVAL ( #78, ( #126 ) ) ;
#302 = DIRECTION ( 'NONE',  ( 4.275831445896958607E-31, 1.000000000000000000, 1.224646799147353454E-16 ) ) ;
#303 = FACE_OUTER_BOUND ( 'NONE', #92, .T. ) ;
ENDSEC;
END-ISO-10303-21;
