ISO-10303-21;
HEADER;
FILE_DESCRIPTION (( 'STEP AP203' ),
    '1' );
FILE_NAME ('327035.step',
    '2021-12-01T14:03:50',
    ( '' ),
    ( '' ),
    'SwSTEP 2.0',
    'SolidWorks 2019',
    '' );
FILE_SCHEMA (( 'CONFIG_CONTROL_DESIGN' ));
ENDSEC;

DATA;
#1 = DIRECTION ( 'NONE',  ( -3.491481338843133355E-15, 1.224646799147353207E-16, -1.000000000000000000 ) ) ;
#2 = DIRECTION ( 'NONE',  ( 0.0000000000000000000, 1.000000000000000000, 0.0000000000000000000 ) ) ;
#3 = AXIS2_PLACEMENT_3D ( 'NONE', #33, #80, #265 ) ;
#4 = CARTESIAN_POINT ( 'NONE',  ( 8.728703347107831416E-16, -3.061616997868382402E-17, 0.2499999999999999445 ) ) ;
#5 = CC_DESIGN_SECURITY_CLASSIFICATION ( #30, ( #147 ) ) ;
#6 = FACE_OUTER_BOUND ( 'NONE', #184, .T. ) ;
#7 = FACE_OUTER_BOUND ( 'NONE', #233, .T. ) ;
#8 = AXIS2_PLACEMENT_3D ( 'NONE', #31, #56, #100 ) ;
#9 = CARTESIAN_POINT ( 'NONE',  ( 2.504511167915744066E-14, -8.784642641776459355E-16, 7.173205080756893004 ) ) ;
#10 = PLANE ( 'NONE',  #8 ) ;
#11 = DIRECTION ( 'NONE',  ( 4.755382578733920931E-31, 1.000000000000000000, 1.338521200599389666E-16 ) ) ;
#12 = AXIS2_PLACEMENT_3D ( 'NONE', #21, #119, #2 ) ;
#13 = PERSON_AND_ORGANIZATION_ROLE ( 'creator' ) ;
#14 = EDGE_LOOP ( 'NONE', ( #257 ) ) ;
#15 = COORDINATED_UNIVERSAL_TIME_OFFSET ( 1, 0, .AHEAD. ) ;
#16 = LOCAL_TIME ( 15, 3, 50.00000000000000000, #59 ) ;
#17 = ORIENTED_EDGE ( 'NONE', *, *, #169, .T. ) ;
#18 = PRODUCT_RELATED_PRODUCT_CATEGORY ( 'detail', '', ( #109 ) ) ;
#19 = ORIENTED_EDGE ( 'NONE', *, *, #129, .T. ) ;
#20 = ADVANCED_FACE ( 'NONE', ( #213, #116 ), #302, .T. ) ;
#21 = CARTESIAN_POINT ( 'NONE',  ( 2.444036937190193349E-14, -8.572527594031473190E-16, 7.000000000000000000 ) ) ;
#22 = FACE_OUTER_BOUND ( 'NONE', #86, .T. ) ;
#23 = MANIFOLD_SOLID_BREP ( 'Corps-Déplacer/Copier1[1]', #182 ) ;
#24 = FACE_OUTER_BOUND ( 'NONE', #180, .T. ) ;
#25 = PRODUCT_DEFINITION ( 'UNKNOWN', '', #147, #226 ) ;
#26 = DIRECTION ( 'NONE',  ( 4.275831445896958607E-31, 1.000000000000000000, 1.224646799147353207E-16 ) ) ;
#27 = EDGE_LOOP ( 'NONE', ( #158 ) ) ;
#28 = AXIS2_PLACEMENT_3D ( 'NONE', #278, #43, #240 ) ;
#29 = VERTEX_POINT ( 'NONE', #199 ) ;
#30 = SECURITY_CLASSIFICATION ( '', '', #152 ) ;
#31 = CARTESIAN_POINT ( 'NONE',  ( 2.444036937190193349E-14, 6.074027119780510859E-33, 7.000000000000000000 ) ) ;
#32 = DIRECTION ( 'NONE',  ( 0.0000000000000000000, 1.000000000000000000, 0.0000000000000000000 ) ) ;
#33 = CARTESIAN_POINT ( 'NONE',  ( 1.745740669421566678E-13, -6.123233995736766085E-15, 50.00000000000000000 ) ) ;
#34 = VERTEX_POINT ( 'NONE', #286 ) ;
#35 = CC_DESIGN_APPROVAL ( #299, ( #25 ) ) ;
#36 =( NAMED_UNIT ( * ) SI_UNIT ( $, .STERADIAN. ) SOLID_ANGLE_UNIT ( ) );
#37 = CIRCLE ( 'NONE', #28, 1.500000000000001554 ) ;
#38 = PERSON_AND_ORGANIZATION ( #246, #144 ) ;
#39 = APPROVAL_ROLE ( '' ) ;
#40 = PERSON_AND_ORGANIZATION ( #246, #144 ) ;
#41 = ORIENTED_EDGE ( 'NONE', *, *, #209, .T. ) ;
#42 = ORIENTED_EDGE ( 'NONE', *, *, #74, .F. ) ;
#43 = DIRECTION ( 'NONE',  ( -3.491481338843133355E-15, 1.224646799147353207E-16, -1.000000000000000000 ) ) ;
#44 = DIRECTION ( 'NONE',  ( -3.491481338843133355E-15, 1.224646799147353207E-16, -1.000000000000000000 ) ) ;
#45 = DIRECTION ( 'NONE',  ( 0.0000000000000000000, 0.0000000000000000000, 1.000000000000000000 ) ) ;
#46 = DIRECTION ( 'NONE',  ( -4.755382578733920931E-31, -1.000000000000000000, -1.338521200599389666E-16 ) ) ;
#47 = AXIS2_PLACEMENT_3D ( 'NONE', #117, #72, #143 ) ;
#48 = CARTESIAN_POINT ( 'NONE',  ( 0.0000000000000000000, 0.0000000000000000000, 0.0000000000000000000 ) ) ;
#49 = FACE_BOUND ( 'NONE', #14, .T. ) ;
#50 = DIRECTION ( 'NONE',  ( 3.491481338843133355E-15, -1.224646799147353207E-16, 1.000000000000000000 ) ) ;
#51 = CARTESIAN_POINT ( 'NONE',  ( -1.423130181051011378E-31, 4.991668726981035363E-33, -4.076006837609365772E-17 ) ) ;
#52 = FACE_BOUND ( 'NONE', #89, .T. ) ;
#53 = APPLICATION_CONTEXT ( 'configuration controlled 3d designs of mechanical parts and assemblies' ) ;
#54 = DIRECTION ( 'NONE',  ( 0.0000000000000000000, -1.000000000000000000, 0.0000000000000000000 ) ) ;
#55 = AXIS2_PLACEMENT_3D ( 'NONE', #168, #193, #236 ) ;
#56 = DIRECTION ( 'NONE',  ( 3.491481338843133355E-15, -1.224646799147353207E-16, 1.000000000000000000 ) ) ;
#57 = CALENDAR_DATE ( 2021, 1, 12 ) ;
#58 = LOCAL_TIME ( 15, 3, 50.00000000000000000, #206 ) ;
#59 = COORDINATED_UNIVERSAL_TIME_OFFSET ( 1, 0, .AHEAD. ) ;
#60 = APPROVAL_ROLE ( '' ) ;
#61 = EDGE_LOOP ( 'NONE', ( #112 ) ) ;
#62 = APPROVAL_STATUS ( 'not_yet_approved' ) ;
#63 = ORIENTED_EDGE ( 'NONE', *, *, #244, .T. ) ;
#64 = CARTESIAN_POINT ( 'NONE',  ( 2.504511167915744066E-14, -8.784642641776459355E-16, 7.173205080756893004 ) ) ;
#65 = FACE_OUTER_BOUND ( 'NONE', #210, .T. ) ;
#66 = DATE_TIME_ROLE ( 'classification_date' ) ;
#67 = PLANE ( 'NONE',  #55 ) ;
#68 = APPLICATION_CONTEXT ( 'configuration controlled 3d designs of mechanical parts and assemblies' ) ;
#69 = CIRCLE ( 'NONE', #223, 0.7099999999999989653 ) ;
#70 = ORIENTED_EDGE ( 'NONE', *, *, #295, .T. ) ;
#71 = AXIS2_PLACEMENT_3D ( 'NONE', #99, #288, #11 ) ;
#72 = DIRECTION ( 'NONE',  ( -3.491481338843133355E-15, 1.224646799147353207E-16, -1.000000000000000000 ) ) ;
#73 = DIRECTION ( 'NONE',  ( 4.275831445896958607E-31, 1.000000000000000000, 1.224646799147353207E-16 ) ) ;
#74 = EDGE_CURVE ( 'NONE', #224, #224, #297, .T. ) ;
#75 = VERTEX_POINT ( 'NONE', #198 ) ;
#76 = AXIS2_PLACEMENT_3D ( 'NONE', #216, #301, #92 ) ;
#77 = DIRECTION ( 'NONE',  ( 0.0000000000000000000, 1.000000000000000000, 0.0000000000000000000 ) ) ;
#78 = DIRECTION ( 'NONE',  ( 3.491481338843133355E-15, -1.224646799147353207E-16, 1.000000000000000000 ) ) ;
#79 = EDGE_CURVE ( 'NONE', #269, #269, #69, .T. ) ;
#80 = DIRECTION ( 'NONE',  ( -3.491481338843133355E-15, 1.224646799147353207E-16, -1.000000000000000000 ) ) ;
#81 = CLOSED_SHELL ( 'NONE', ( #283, #142, #159, #256 ) ) ;
#82 = PERSON_AND_ORGANIZATION ( #246, #144 ) ;
#83 = DATE_AND_TIME ( #137, #222 ) ;
#84 = ADVANCED_FACE ( 'NONE', ( #218 ), #67, .F. ) ;
#85 = CARTESIAN_POINT ( 'NONE',  ( 0.0000000000000000000, 0.0000000000000000000, 0.0000000000000000000 ) ) ;
#86 = EDGE_LOOP ( 'NONE', ( #113 ) ) ;
#87 = AXIS2_PLACEMENT_3D ( 'NONE', #303, #1, #26 ) ;
#88 = APPROVAL_DATE_TIME ( #107, #140 ) ;
#89 = EDGE_LOOP ( 'NONE', ( #276 ) ) ;
#90 =( NAMED_UNIT ( * ) PLANE_ANGLE_UNIT ( ) SI_UNIT ( $, .RADIAN. ) );
#91 = AXIS2_PLACEMENT_3D ( 'NONE', #124, #102, #289 ) ;
#92 = DIRECTION ( 'NONE',  ( 0.0000000000000000000, 1.000000000000000000, 0.0000000000000000000 ) ) ;
#93 = EDGE_LOOP ( 'NONE', ( #153 ) ) ;
#94 = DIRECTION ( 'NONE',  ( 0.0000000000000000000, 1.000000000000000000, 0.0000000000000000000 ) ) ;
#95 = AXIS2_PLACEMENT_3D ( 'NONE', #115, #284, #239 ) ;
#96 = DIRECTION ( 'NONE',  ( -3.491481338843133355E-15, 1.224646799147353207E-16, -1.000000000000000000 ) ) ;
#97 = AXIS2_PLACEMENT_3D ( 'NONE', #9, #145, #77 ) ;
#98 = CARTESIAN_POINT ( 'NONE',  ( 0.0000000000000000000, 0.0000000000000000000, 0.0000000000000000000 ) ) ;
#99 = CARTESIAN_POINT ( 'NONE',  ( 8.728703347107831416E-16, -3.061616997868382402E-17, 0.2499999999999999445 ) ) ;
#100 = DIRECTION ( 'NONE',  ( -4.275831445896958607E-31, -1.000000000000000000, -1.224646799147353207E-16 ) ) ;
#101 = TOROIDAL_SURFACE ( 'NONE', #274, 2.709999999999999964, 2.000000000000000888 ) ;
#102 = DIRECTION ( 'NONE',  ( -3.491481338843133355E-15, 1.224646799147353207E-16, -1.000000000000000000 ) ) ;
#103 = DIRECTION ( 'NONE',  ( -4.275831445896958607E-31, -1.000000000000000000, -1.224646799147353207E-16 ) ) ;
#104 = CARTESIAN_POINT ( 'NONE',  ( 2.444036937190193349E-14, 0.8099999999999991651, 7.000000000000000000 ) ) ;
#105 = AXIS2_PLACEMENT_3D ( 'NONE', #48, #260, #214 ) ;
#106 = PERSON_AND_ORGANIZATION ( #246, #144 ) ;
#107 = DATE_AND_TIME ( #128, #248 ) ;
#108 = CC_DESIGN_PERSON_AND_ORGANIZATION_ASSIGNMENT ( #298, #291, ( #147 ) ) ;
#109 = PRODUCT ( '327035', '327035', '', ( #188 ) ) ;
#110 = CALENDAR_DATE ( 2021, 1, 12 ) ;
#111 = ORIENTED_EDGE ( 'NONE', *, *, #203, .F. ) ;
#112 = ORIENTED_EDGE ( 'NONE', *, *, #244, .F. ) ;
#113 = ORIENTED_EDGE ( 'NONE', *, *, #295, .F. ) ;
#114 = AXIS2_PLACEMENT_3D ( 'NONE', #126, #50, #54 ) ;
#115 = CARTESIAN_POINT ( 'NONE',  ( -2.846260362102022757E-31, 9.983337453962070727E-33, -8.152013675218731544E-17 ) ) ;
#116 = FACE_BOUND ( 'NONE', #263, .T. ) ;
#117 = CARTESIAN_POINT ( 'NONE',  ( 2.444036937190193349E-14, -8.572527594031473190E-16, 7.000000000000000000 ) ) ;
#118 = MANIFOLD_SOLID_BREP ( 'Corps-Déplacer/Copier1[2]', #81 ) ;
#119 = DIRECTION ( 'NONE',  ( -3.491481338843133355E-15, 1.224646799147353207E-16, -1.000000000000000000 ) ) ;
#120 = VERTEX_POINT ( 'NONE', #104 ) ;
#121 = CC_DESIGN_APPROVAL ( #140, ( #30 ) ) ;
#122 = DIRECTION ( 'NONE',  ( -3.491481338843133355E-15, 1.224646799147353207E-16, -1.000000000000000000 ) ) ;
#123 = PLANE ( 'NONE',  #282 ) ;
#124 = CARTESIAN_POINT ( 'NONE',  ( 5.707628016518648493E-14, -2.001966415627278844E-15, 16.34729635533384595 ) ) ;
#125 = LOCAL_TIME ( 15, 3, 50.00000000000000000, #202 ) ;
#126 = CARTESIAN_POINT ( 'NONE',  ( 7.211755945962015446E-14, -2.529543474054659704E-15, 20.65528996454999699 ) ) ;
#127 = APPLICATION_PROTOCOL_DEFINITION ( 'international standard', 'config_control_design', 1994, #68 ) ;
#128 = CALENDAR_DATE ( 2021, 1, 12 ) ;
#129 = EDGE_CURVE ( 'NONE', #175, #175, #37, .T. ) ;
#130 = CC_DESIGN_PERSON_AND_ORGANIZATION_ASSIGNMENT ( #254, #272, ( #109 ) ) ;
#131 = COORDINATED_UNIVERSAL_TIME_OFFSET ( 1, 0, .AHEAD. ) ;
#132 = EDGE_LOOP ( 'NONE', ( #181 ) ) ;
#133 = ORIENTED_EDGE ( 'NONE', *, *, #203, .T. ) ;
#134 = DIRECTION ( 'NONE',  ( 4.275831445896958607E-31, 1.000000000000000000, 1.224646799147352961E-16 ) ) ;
#135 = APPROVAL_PERSON_ORGANIZATION ( #293, #140, #60 ) ;
#136 = FACE_OUTER_BOUND ( 'NONE', #61, .T. ) ;
#137 = CALENDAR_DATE ( 2021, 1, 12 ) ;
#138 = AXIS2_PLACEMENT_3D ( 'NONE', #149, #225, #32 ) ;
#139 = FACE_OUTER_BOUND ( 'NONE', #228, .T. ) ;
#140 = APPROVAL ( #229, 'UNSPECIFIED' ) ;
#141 = DIRECTION ( 'NONE',  ( -3.491481338843133355E-15, 1.224646799147353207E-16, -1.000000000000000000 ) ) ;
#142 = ADVANCED_FACE ( 'NONE', ( #49, #65 ), #201, .T. ) ;
#143 = DIRECTION ( 'NONE',  ( 0.0000000000000000000, 1.000000000000000000, 0.0000000000000000000 ) ) ;
#144 = ORGANIZATION ( 'UNSPECIFIED', 'UNSPECIFIED', '' ) ;
#145 = DIRECTION ( 'NONE',  ( -3.491481338843133355E-15, 1.224646799147353207E-16, -1.000000000000000000 ) ) ;
#146 = VERTEX_POINT ( 'NONE', #148 ) ;
#147 = PRODUCT_DEFINITION_FORMATION_WITH_SPECIFIED_SOURCE ( 'ANY', '', #109, .NOT_KNOWN. ) ;
#148 = CARTESIAN_POINT ( 'NONE',  ( 5.586370142149013368E-14, 0.7099999999999979661, 16.00000000000000000 ) ) ;
#149 = CARTESIAN_POINT ( 'NONE',  ( 7.211755945962015446E-14, -2.529543474054659704E-15, 20.65528996454999699 ) ) ;
#150 =( GEOMETRIC_REPRESENTATION_CONTEXT ( 3 ) GLOBAL_UNCERTAINTY_ASSIGNED_CONTEXT ( ( #179 ) ) GLOBAL_UNIT_ASSIGNED_CONTEXT ( ( #174, #90, #36 ) ) REPRESENTATION_CONTEXT ( 'NONE', 'WORKASPACE' ) );
#151 = CARTESIAN_POINT ( 'NONE',  ( 1.735266225405037467E-13, 1.499999999999995559, 49.70000000000000284 ) ) ;
#152 = SECURITY_CLASSIFICATION_LEVEL ( 'unclassified' ) ;
#153 = ORIENTED_EDGE ( 'NONE', *, *, #129, .F. ) ;
#154 = PERSON_AND_ORGANIZATION_ROLE ( 'classification_officer' ) ;
#155 = CIRCLE ( 'NONE', #95, 0.6656624327025948418 ) ;
#156 = EDGE_CURVE ( 'NONE', #29, #29, #155, .T. ) ;
#157 = SHAPE_DEFINITION_REPRESENTATION ( #292, #205 ) ;
#158 = ORIENTED_EDGE ( 'NONE', *, *, #185, .T. ) ;
#159 = ADVANCED_FACE ( 'NONE', ( #22, #164 ), #259, .T. ) ;
#160 = APPROVAL_DATE_TIME ( #204, #165 ) ;
#161 = ORIENTED_EDGE ( 'NONE', *, *, #185, .F. ) ;
#162 = CARTESIAN_POINT ( 'NONE',  ( 5.586370142149013368E-14, -1.959434878635765131E-15, 16.00000000000000000 ) ) ;
#163 = ADVANCED_FACE ( 'NONE', ( #136, #189 ), #191, .T. ) ;
#164 = FACE_OUTER_BOUND ( 'NONE', #27, .T. ) ;
#165 = APPROVAL ( #200, 'UNSPECIFIED' ) ;
#166 = DIRECTION ( 'NONE',  ( 3.491481338843133355E-15, -1.224646799147353207E-16, 1.000000000000000000 ) ) ;
#167 = ADVANCED_FACE ( 'NONE', ( #139, #24 ), #281, .T. ) ;
#168 = CARTESIAN_POINT ( 'NONE',  ( 2.444036937190193349E-14, 6.074027119780510859E-33, 7.000000000000000000 ) ) ;
#169 = EDGE_CURVE ( 'NONE', #146, #146, #277, .T. ) ;
#170 = DIRECTION ( 'NONE',  ( 0.0000000000000000000, 1.000000000000000000, 0.0000000000000000000 ) ) ;
#171 = FACE_OUTER_BOUND ( 'NONE', #231, .T. ) ;
#172 = APPROVAL_PERSON_ORGANIZATION ( #40, #299, #227 ) ;
#173 = AXIS2_PLACEMENT_3D ( 'NONE', #98, #44, #134 ) ;
#174 =( LENGTH_UNIT ( ) NAMED_UNIT ( * ) SI_UNIT ( .MILLI., .METRE. ) );
#175 = VERTEX_POINT ( 'NONE', #151 ) ;
#176 = FACE_OUTER_BOUND ( 'NONE', #250, .T. ) ;
#177 = AXIS2_PLACEMENT_3D ( 'NONE', #4, #166, #46 ) ;
#178 = PERSON_AND_ORGANIZATION_ROLE ( 'design_supplier' ) ;
#179 = UNCERTAINTY_MEASURE_WITH_UNIT (LENGTH_MEASURE( 1.000000000000000082E-05 ), #174, 'distance_accuracy_value', 'NONE');
#180 = EDGE_LOOP ( 'NONE', ( #17 ) ) ;
#181 = ORIENTED_EDGE ( 'NONE', *, *, #74, .T. ) ;
#182 = CLOSED_SHELL ( 'NONE', ( #84, #264, #167, #219, #190, #163, #20, #187 ) ) ;
#183 = EDGE_LOOP ( 'NONE', ( #42 ) ) ;
#184 = EDGE_LOOP ( 'NONE', ( #255 ) ) ;
#185 = EDGE_CURVE ( 'NONE', #120, #120, #212, .T. ) ;
#186 = CIRCLE ( 'NONE', #91, 0.7403844939755800381 ) ;
#187 = ADVANCED_FACE ( 'NONE', ( #194 ), #241, .F. ) ;
#188 = MECHANICAL_CONTEXT ( 'NONE', #53, 'mechanical' ) ;
#189 = FACE_OUTER_BOUND ( 'NONE', #275, .T. ) ;
#190 = ADVANCED_FACE ( 'NONE', ( #245, #247 ), #217, .T. ) ;
#191 = CYLINDRICAL_SURFACE ( 'NONE', #105, 1.499999999999999112 ) ;
#192 = AXIS2_PLACEMENT_3D ( 'NONE', #85, #45, #238 ) ;
#193 = DIRECTION ( 'NONE',  ( 3.491481338843133355E-15, -1.224646799147353207E-16, 1.000000000000000000 ) ) ;
#194 = FACE_OUTER_BOUND ( 'NONE', #300, .T. ) ;
#195 = CARTESIAN_POINT ( 'NONE',  ( 2.444036937190193349E-14, 0.8099999999999991651, 7.000000000000000000 ) ) ;
#196 = FACE_OUTER_BOUND ( 'NONE', #183, .T. ) ;
#197 = CC_DESIGN_PERSON_AND_ORGANIZATION_ASSIGNMENT ( #82, #178, ( #147 ) ) ;
#198 = CARTESIAN_POINT ( 'NONE',  ( 8.728703347107835360E-16, 0.8099999999999991651, 0.2500000000000000555 ) ) ;
#199 = CARTESIAN_POINT ( 'NONE',  ( 0.0000000000000000000, 0.6656624327025948418, 0.0000000000000000000 ) ) ;
#200 = APPROVAL_STATUS ( 'not_yet_approved' ) ;
#201 = CONICAL_SURFACE ( 'NONE', #177, 0.8099999999999991651, 0.5235987755982925984 ) ;
#202 = COORDINATED_UNIVERSAL_TIME_OFFSET ( 1, 0, .AHEAD. ) ;
#203 = EDGE_CURVE ( 'NONE', #243, #243, #237, .T. ) ;
#204 = DATE_AND_TIME ( #296, #16 ) ;
#205 = ADVANCED_BREP_SHAPE_REPRESENTATION ( '327035', ( #23, #118, #192 ), #150 ) ;
#206 = COORDINATED_UNIVERSAL_TIME_OFFSET ( 1, 0, .AHEAD. ) ;
#207 = CIRCLE ( 'NONE', #71, 0.8099999999999991651 ) ;
#208 = DATE_TIME_ROLE ( 'creation_date' ) ;
#209 = EDGE_CURVE ( 'NONE', #290, #290, #186, .T. ) ;
#210 = EDGE_LOOP ( 'NONE', ( #70 ) ) ;
#211 = EDGE_LOOP ( 'NONE', ( #280 ) ) ;
#212 = CIRCLE ( 'NONE', #47, 0.8100000000000000533 ) ;
#213 = FACE_OUTER_BOUND ( 'NONE', #93, .T. ) ;
#214 = DIRECTION ( 'NONE',  ( 4.275831445896958607E-31, 1.000000000000000000, 1.224646799147353454E-16 ) ) ;
#215 = CC_DESIGN_DATE_AND_TIME_ASSIGNMENT ( #279, #66, ( #30 ) ) ;
#216 = CARTESIAN_POINT ( 'NONE',  ( 1.745740669421566678E-13, -6.123233995736766085E-15, 50.00000000000000000 ) ) ;
#217 = CONICAL_SURFACE ( 'NONE', #114, 1.499999999999996669, 0.1745329251994262587 ) ;
#218 = FACE_OUTER_BOUND ( 'NONE', #132, .T. ) ;
#219 = ADVANCED_FACE ( 'NONE', ( #6, #7 ), #101, .F. ) ;
#220 = CARTESIAN_POINT ( 'NONE',  ( 5.707628016518648493E-14, 0.7403844939755780397, 16.34729635533384595 ) ) ;
#221 = DIRECTION ( 'NONE',  ( 4.275831445896958607E-31, 1.000000000000000000, 1.224646799147353207E-16 ) ) ;
#222 = LOCAL_TIME ( 15, 3, 50.00000000000000000, #131 ) ;
#223 = AXIS2_PLACEMENT_3D ( 'NONE', #64, #96, #94 ) ;
#224 = VERTEX_POINT ( 'NONE', #195 ) ;
#225 = DIRECTION ( 'NONE',  ( -3.491481338843133355E-15, 1.224646799147353207E-16, -1.000000000000000000 ) ) ;
#226 = DESIGN_CONTEXT ( 'detailed design', #68, 'design' ) ;
#227 = APPROVAL_ROLE ( '' ) ;
#228 = EDGE_LOOP ( 'NONE', ( #294 ) ) ;
#229 = APPROVAL_STATUS ( 'not_yet_approved' ) ;
#230 = APPLICATION_PROTOCOL_DEFINITION ( 'international standard', 'config_control_design', 1994, #53 ) ;
#231 = EDGE_LOOP ( 'NONE', ( #262 ) ) ;
#232 = CONICAL_SURFACE ( 'NONE', #97, 0.7099999999999989653, 0.5235987755982917102 ) ;
#233 = EDGE_LOOP ( 'NONE', ( #41 ) ) ;
#234 = APPROVAL_PERSON_ORGANIZATION ( #38, #165, #39 ) ;
#235 = DIRECTION ( 'NONE',  ( -3.491481338843133355E-15, 1.224646799147353207E-16, -1.000000000000000000 ) ) ;
#236 = DIRECTION ( 'NONE',  ( -4.275831445896958607E-31, -1.000000000000000000, -1.224646799147353207E-16 ) ) ;
#237 = CIRCLE ( 'NONE', #3, 1.200000000000001732 ) ;
#238 = DIRECTION ( 'NONE',  ( 1.000000000000000000, 0.0000000000000000000, 0.0000000000000000000 ) ) ;
#239 = DIRECTION ( 'NONE',  ( 4.275831445896958607E-31, 1.000000000000000000, 1.224646799147353207E-16 ) ) ;
#240 = DIRECTION ( 'NONE',  ( 0.0000000000000000000, 1.000000000000000000, 0.0000000000000000000 ) ) ;
#241 = PLANE ( 'NONE',  #287 ) ;
#242 = CARTESIAN_POINT ( 'NONE',  ( 2.504511167915744066E-14, 0.7099999999999980771, 7.173205080756893004 ) ) ;
#243 = VERTEX_POINT ( 'NONE', #266 ) ;
#244 = EDGE_CURVE ( 'NONE', #34, #34, #261, .T. ) ;
#245 = FACE_BOUND ( 'NONE', #211, .T. ) ;
#246 = PERSON ( 'UNSPECIFIED', 'UNSPECIFIED', 'UNSPECIFIED', ('UNSPECIFIED'), ('UNSPECIFIED'), ('UNSPECIFIED') ) ;
#247 = FACE_OUTER_BOUND ( 'NONE', #252, .T. ) ;
#248 = LOCAL_TIME ( 15, 3, 50.00000000000000000, #15 ) ;
#249 = PERSON_AND_ORGANIZATION ( #246, #144 ) ;
#250 = EDGE_LOOP ( 'NONE', ( #161 ) ) ;
#251 = DATE_AND_TIME ( #57, #58 ) ;
#252 = EDGE_LOOP ( 'NONE', ( #63 ) ) ;
#253 = CC_DESIGN_PERSON_AND_ORGANIZATION_ASSIGNMENT ( #106, #154, ( #30 ) ) ;
#254 = PERSON_AND_ORGANIZATION ( #246, #144 ) ;
#255 = ORIENTED_EDGE ( 'NONE', *, *, #169, .F. ) ;
#256 = ADVANCED_FACE ( 'NONE', ( #176 ), #10, .T. ) ;
#257 = ORIENTED_EDGE ( 'NONE', *, *, #156, .F. ) ;
#258 = CARTESIAN_POINT ( 'NONE',  ( 1.745740669421566678E-13, 8.998558695971067645E-33, 50.00000000000000000 ) ) ;
#259 = CYLINDRICAL_SURFACE ( 'NONE', #87, 0.8099999999999996092 ) ;
#260 = DIRECTION ( 'NONE',  ( -3.491481338843133355E-15, 1.224646799147353207E-16, -1.000000000000000000 ) ) ;
#261 = CIRCLE ( 'NONE', #138, 1.499999999999996669 ) ;
#262 = ORIENTED_EDGE ( 'NONE', *, *, #156, .T. ) ;
#263 = EDGE_LOOP ( 'NONE', ( #133 ) ) ;
#264 = ADVANCED_FACE ( 'NONE', ( #196, #52 ), #232, .T. ) ;
#265 = DIRECTION ( 'NONE',  ( 0.0000000000000000000, 1.000000000000000000, 0.0000000000000000000 ) ) ;
#266 = CARTESIAN_POINT ( 'NONE',  ( 1.745740669421566678E-13, 1.199999999999995515, 50.00000000000000000 ) ) ;
#267 = CC_DESIGN_DATE_AND_TIME_ASSIGNMENT ( #251, #208, ( #25 ) ) ;
#268 = AXIS2_PLACEMENT_3D ( 'NONE', #162, #141, #170 ) ;
#269 = VERTEX_POINT ( 'NONE', #242 ) ;
#270 = APPROVAL_DATE_TIME ( #83, #299 ) ;
#271 = CC_DESIGN_APPROVAL ( #165, ( #147 ) ) ;
#272 = PERSON_AND_ORGANIZATION_ROLE ( 'design_owner' ) ;
#273 = CC_DESIGN_PERSON_AND_ORGANIZATION_ASSIGNMENT ( #249, #13, ( #25 ) ) ;
#274 = AXIS2_PLACEMENT_3D ( 'NONE', #285, #122, #73 ) ;
#275 = EDGE_LOOP ( 'NONE', ( #19 ) ) ;
#276 = ORIENTED_EDGE ( 'NONE', *, *, #79, .T. ) ;
#277 = CIRCLE ( 'NONE', #268, 0.7099999999999999645 ) ;
#278 = CARTESIAN_POINT ( 'NONE',  ( 1.735266225405037467E-13, -6.086494591762345225E-15, 49.70000000000000284 ) ) ;
#279 = DATE_AND_TIME ( #110, #125 ) ;
#280 = ORIENTED_EDGE ( 'NONE', *, *, #209, .F. ) ;
#281 = CYLINDRICAL_SURFACE ( 'NONE', #173, 0.7099999999999995204 ) ;
#282 = AXIS2_PLACEMENT_3D ( 'NONE', #51, #78, #103 ) ;
#283 = ADVANCED_FACE ( 'NONE', ( #171 ), #123, .F. ) ;
#284 = DIRECTION ( 'NONE',  ( -3.491481338843133355E-15, 1.224646799147353207E-16, -1.000000000000000000 ) ) ;
#285 = CARTESIAN_POINT ( 'NONE',  ( 5.586370142149013368E-14, -2.168404344971008868E-15, 16.00000000000000000 ) ) ;
#286 = CARTESIAN_POINT ( 'NONE',  ( 7.211755945962015446E-14, 1.499999999999994005, 20.65528996454999699 ) ) ;
#287 = AXIS2_PLACEMENT_3D ( 'NONE', #258, #235, #221 ) ;
#288 = DIRECTION ( 'NONE',  ( -3.491481338843133355E-15, 1.224646799147353207E-16, -1.000000000000000000 ) ) ;
#289 = DIRECTION ( 'NONE',  ( 0.0000000000000000000, 1.000000000000000000, 0.0000000000000000000 ) ) ;
#290 = VERTEX_POINT ( 'NONE', #220 ) ;
#291 = PERSON_AND_ORGANIZATION_ROLE ( 'creator' ) ;
#292 = PRODUCT_DEFINITION_SHAPE ( 'NONE', 'NONE',  #25 ) ;
#293 = PERSON_AND_ORGANIZATION ( #246, #144 ) ;
#294 = ORIENTED_EDGE ( 'NONE', *, *, #79, .F. ) ;
#295 = EDGE_CURVE ( 'NONE', #75, #75, #207, .T. ) ;
#296 = CALENDAR_DATE ( 2021, 1, 12 ) ;
#297 = CIRCLE ( 'NONE', #12, 0.8100000000000000533 ) ;
#298 = PERSON_AND_ORGANIZATION ( #246, #144 ) ;
#299 = APPROVAL ( #62, 'UNSPECIFIED' ) ;
#300 = EDGE_LOOP ( 'NONE', ( #111 ) ) ;
#301 = DIRECTION ( 'NONE',  ( -3.491481338843133355E-15, 1.224646799147353207E-16, -1.000000000000000000 ) ) ;
#302 = CONICAL_SURFACE ( 'NONE', #76, 1.200000000000001732, 0.7853981633974453924 ) ;
#303 = CARTESIAN_POINT ( 'NONE',  ( 0.0000000000000000000, 0.0000000000000000000, 0.0000000000000000000 ) ) ;
ENDSEC;
END-ISO-10303-21;
