ISO-10303-21;
HEADER;
FILE_DESCRIPTION (( 'STEP AP203' ),
    '1' );
FILE_NAME ('327034.step',
    '2021-12-01T14:03:49',
    ( '' ),
    ( '' ),
    'SwSTEP 2.0',
    'SolidWorks 2019',
    '' );
FILE_SCHEMA (( 'CONFIG_CONTROL_DESIGN' ));
ENDSEC;

DATA;
#1 = ADVANCED_FACE ( 'NONE', ( #147 ), #30, .F. ) ;
#2 = APPLICATION_PROTOCOL_DEFINITION ( 'international standard', 'config_control_design', 1994, #31 ) ;
#3 = ORIENTED_EDGE ( 'NONE', *, *, #289, .T. ) ;
#4 = FACE_OUTER_BOUND ( 'NONE', #92, .T. ) ;
#5 = FACE_BOUND ( 'NONE', #136, .T. ) ;
#6 = AXIS2_PLACEMENT_3D ( 'NONE', #175, #125, #117 ) ;
#7 = CIRCLE ( 'NONE', #263, 0.7003844939755811128 ) ;
#8 = ADVANCED_BREP_SHAPE_REPRESENTATION ( '327034', ( #140, #141, #151 ), #301 ) ;
#9 = CYLINDRICAL_SURFACE ( 'NONE', #280, 0.7699999999999996847 ) ;
#10 = CARTESIAN_POINT ( 'NONE',  ( 8.728703347107831416E-16, -3.061616997868382402E-17, 0.2499999999999999445 ) ) ;
#11 = EDGE_CURVE ( 'NONE', #182, #182, #251, .T. ) ;
#12 = FACE_OUTER_BOUND ( 'NONE', #235, .T. ) ;
#13 = CARTESIAN_POINT ( 'NONE',  ( -2.283981465324652433E-31, 8.011128570856111999E-33, -6.541582908993655525E-17 ) ) ;
#14 = VERTEX_POINT ( 'NONE', #104 ) ;
#15 = AXIS2_PLACEMENT_3D ( 'NONE', #144, #192, #282 ) ;
#16 = CARTESIAN_POINT ( 'NONE',  ( 2.444036937190193349E-14, 5.774075163248139200E-33, 7.000000000000000000 ) ) ;
#17 = FACE_OUTER_BOUND ( 'NONE', #174, .T. ) ;
#18 = APPROVAL ( #159, 'UNSPECIFIED' ) ;
#19 = PERSON_AND_ORGANIZATION_ROLE ( 'creator' ) ;
#20 = ORIENTED_EDGE ( 'NONE', *, *, #36, .T. ) ;
#21 = CALENDAR_DATE ( 2021, 1, 12 ) ;
#22 = CONICAL_SURFACE ( 'NONE', #58, 0.7699999999999992406, 0.5235987755982929315 ) ;
#23 = DATE_AND_TIME ( #188, #146 ) ;
#24 = PERSON_AND_ORGANIZATION_ROLE ( 'creator' ) ;
#25 = AXIS2_PLACEMENT_3D ( 'NONE', #204, #200, #198 ) ;
#26 = DIRECTION ( 'NONE',  ( -4.275831445896958607E-31, -1.000000000000000000, -1.224646799147353207E-16 ) ) ;
#27 = EDGE_LOOP ( 'NONE', ( #99 ) ) ;
#28 = FACE_OUTER_BOUND ( 'NONE', #284, .T. ) ;
#29 = AXIS2_PLACEMENT_3D ( 'NONE', #75, #52, #221 ) ;
#30 = PLANE ( 'NONE',  #160 ) ;
#31 = APPLICATION_CONTEXT ( 'configuration controlled 3d designs of mechanical parts and assemblies' ) ;
#32 = FACE_OUTER_BOUND ( 'NONE', #71, .T. ) ;
#33 = PLANE ( 'NONE',  #233 ) ;
#34 = CIRCLE ( 'NONE', #206, 0.7699999999999992406 ) ;
#35 = AXIS2_PLACEMENT_3D ( 'NONE', #297, #178, #130 ) ;
#36 = EDGE_CURVE ( 'NONE', #224, #224, #34, .T. ) ;
#37 = VERTEX_POINT ( 'NONE', #153 ) ;
#38 = CARTESIAN_POINT ( 'NONE',  ( 2.444036937190193349E-14, 0.7699999999999992406, 7.000000000000000000 ) ) ;
#39 = CARTESIAN_POINT ( 'NONE',  ( 5.237222008264700033E-14, -1.734723475976807094E-15, 15.00000000000000000 ) ) ;
#40 = DIRECTION ( 'NONE',  ( -4.275831445896958607E-31, -1.000000000000000000, -1.224646799147353207E-16 ) ) ;
#41 = PRODUCT_DEFINITION_SHAPE ( 'NONE', 'NONE',  #70 ) ;
#42 = APPROVAL_DATE_TIME ( #67, #199 ) ;
#43 = PERSON_AND_ORGANIZATION_ROLE ( 'classification_officer' ) ;
#44 = ORIENTED_EDGE ( 'NONE', *, *, #250, .F. ) ;
#45 = CC_DESIGN_DATE_AND_TIME_ASSIGNMENT ( #115, #215, ( #70 ) ) ;
#46 = COORDINATED_UNIVERSAL_TIME_OFFSET ( 1, 0, .AHEAD. ) ;
#47 = CC_DESIGN_APPROVAL ( #186, ( #272 ) ) ;
#48 = ORIENTED_EDGE ( 'NONE', *, *, #293, .F. ) ;
#49 = CARTESIAN_POINT ( 'NONE',  ( 0.0000000000000000000, 0.0000000000000000000, 0.0000000000000000000 ) ) ;
#50 = APPLICATION_PROTOCOL_DEFINITION ( 'international standard', 'config_control_design', 1994, #116 ) ;
#51 = FACE_OUTER_BOUND ( 'NONE', #95, .T. ) ;
#52 = DIRECTION ( 'NONE',  ( -3.491481338843133355E-15, 1.224646799147353207E-16, -1.000000000000000000 ) ) ;
#53 = ADVANCED_FACE ( 'NONE', ( #240, #219 ), #243, .T. ) ;
#54 = FACE_OUTER_BOUND ( 'NONE', #290, .T. ) ;
#55 = PLANE ( 'NONE',  #120 ) ;
#56 = DIRECTION ( 'NONE',  ( 4.275831445896958607E-31, 1.000000000000000000, 1.224646799147353454E-16 ) ) ;
#57 = CARTESIAN_POINT ( 'NONE',  ( 6.941812510639765788E-14, 1.499999999999994005, 19.88214123733470728 ) ) ;
#58 = AXIS2_PLACEMENT_3D ( 'NONE', #143, #242, #193 ) ;
#59 = CARTESIAN_POINT ( 'NONE',  ( 2.504511167915744066E-14, 0.6699999999999981526, 7.173205080756893004 ) ) ;
#60 = CARTESIAN_POINT ( 'NONE',  ( -4.567962930649304867E-31, 1.602225714171222400E-32, -1.308316581798731105E-16 ) ) ;
#61 = CARTESIAN_POINT ( 'NONE',  ( 2.444036937190193349E-14, -8.572527594031473190E-16, 7.000000000000000000 ) ) ;
#62 = ADVANCED_FACE ( 'NONE', ( #74, #54 ), #195, .T. ) ;
#63 = PRODUCT_DEFINITION_FORMATION_WITH_SPECIFIED_SOURCE ( 'ANY', '', #155, .NOT_KNOWN. ) ;
#64 = APPROVAL_STATUS ( 'not_yet_approved' ) ;
#65 = PERSON_AND_ORGANIZATION ( #211, #162 ) ;
#66 = ORIENTED_EDGE ( 'NONE', *, *, #265, .T. ) ;
#67 = DATE_AND_TIME ( #254, #238 ) ;
#68 = DIRECTION ( 'NONE',  ( 0.0000000000000000000, 0.0000000000000000000, 1.000000000000000000 ) ) ;
#69 = EDGE_LOOP ( 'NONE', ( #264 ) ) ;
#70 = PRODUCT_DEFINITION ( 'UNKNOWN', '', #63, #212 ) ;
#71 = EDGE_LOOP ( 'NONE', ( #48 ) ) ;
#72 = AXIS2_PLACEMENT_3D ( 'NONE', #102, #230, #299 ) ;
#73 = FACE_OUTER_BOUND ( 'NONE', #27, .T. ) ;
#74 = FACE_OUTER_BOUND ( 'NONE', #303, .T. ) ;
#75 = CARTESIAN_POINT ( 'NONE',  ( 1.745740669421566678E-13, -6.123233995736766085E-15, 50.00000000000000000 ) ) ;
#76 = CIRCLE ( 'NONE', #247, 0.7700000000000000178 ) ;
#77 = DIRECTION ( 'NONE',  ( 5.002415439966851171E-31, 1.000000000000000000, 1.408054769461695421E-16 ) ) ;
#78 = CARTESIAN_POINT ( 'NONE',  ( 2.444036937190193349E-14, 0.7699999999999992406, 7.000000000000000000 ) ) ;
#79 = DIRECTION ( 'NONE',  ( 0.0000000000000000000, 1.000000000000000000, 0.0000000000000000000 ) ) ;
#80 = AXIS2_PLACEMENT_3D ( 'NONE', #171, #287, #56 ) ;
#81 = LOCAL_TIME ( 15, 3, 49.00000000000000000, #256 ) ;
#82 = PLANE ( 'NONE',  #128 ) ;
#83 = ADVANCED_FACE ( 'NONE', ( #32, #5 ), #294, .T. ) ;
#84 = FACE_OUTER_BOUND ( 'NONE', #210, .T. ) ;
#85 = DIRECTION ( 'NONE',  ( 4.275831445896958607E-31, 1.000000000000000000, 1.224646799147352961E-16 ) ) ;
#86 = CC_DESIGN_APPROVAL ( #199, ( #63 ) ) ;
#87 = PERSON_AND_ORGANIZATION_ROLE ( 'design_supplier' ) ;
#88 = ADVANCED_FACE ( 'NONE', ( #268 ), #55, .F. ) ;
#89 = ORIENTED_EDGE ( 'NONE', *, *, #250, .T. ) ;
#90 = APPROVAL_ROLE ( '' ) ;
#91 =( NAMED_UNIT ( * ) SI_UNIT ( $, .STERADIAN. ) SOLID_ANGLE_UNIT ( ) );
#92 = EDGE_LOOP ( 'NONE', ( #89 ) ) ;
#93 = APPROVAL_ROLE ( '' ) ;
#94 = PERSON_AND_ORGANIZATION ( #211, #162 ) ;
#95 = EDGE_LOOP ( 'NONE', ( #20 ) ) ;
#96 = CYLINDRICAL_SURFACE ( 'NONE', #15, 0.6699999999999995959 ) ;
#97 = EDGE_LOOP ( 'NONE', ( #191 ) ) ;
#98 = CARTESIAN_POINT ( 'NONE',  ( 0.0000000000000000000, 0.0000000000000000000, 0.0000000000000000000 ) ) ;
#99 = ORIENTED_EDGE ( 'NONE', *, *, #36, .F. ) ;
#100 = CARTESIAN_POINT ( 'NONE',  ( 2.504511167915744066E-14, -8.784642641776459355E-16, 7.173205080756893004 ) ) ;
#101 = APPROVAL_PERSON_ORGANIZATION ( #190, #199, #158 ) ;
#102 = CARTESIAN_POINT ( 'NONE',  ( 2.444036937190193349E-14, -8.572527594031473190E-16, 7.000000000000000000 ) ) ;
#103 = DIRECTION ( 'NONE',  ( -4.275831445896958607E-31, -1.000000000000000000, -1.224646799147353207E-16 ) ) ;
#104 = CARTESIAN_POINT ( 'NONE',  ( 1.745740669421566678E-13, 1.199999999999995515, 50.00000000000000000 ) ) ;
#105 = DIRECTION ( 'NONE',  ( -3.491481338843133355E-15, 1.224646799147353207E-16, -1.000000000000000000 ) ) ;
#106 = DIRECTION ( 'NONE',  ( 3.491481338843133355E-15, -1.224646799147353207E-16, 1.000000000000000000 ) ) ;
#107 = PERSON_AND_ORGANIZATION ( #211, #162 ) ;
#108 = CIRCLE ( 'NONE', #25, 1.200000000000001732 ) ;
#109 = DATE_AND_TIME ( #21, #137 ) ;
#110 = ORIENTED_EDGE ( 'NONE', *, *, #261, .T. ) ;
#111 =( NAMED_UNIT ( * ) PLANE_ANGLE_UNIT ( ) SI_UNIT ( $, .RADIAN. ) );
#112 = ORIENTED_EDGE ( 'NONE', *, *, #293, .T. ) ;
#113 = PERSON_AND_ORGANIZATION_ROLE ( 'design_owner' ) ;
#114 = CIRCLE ( 'NONE', #207, 0.6700000000000001510 ) ;
#115 = DATE_AND_TIME ( #278, #81 ) ;
#116 = APPLICATION_CONTEXT ( 'configuration controlled 3d designs of mechanical parts and assemblies' ) ;
#117 = DIRECTION ( 'NONE',  ( 0.0000000000000000000, 1.000000000000000000, 0.0000000000000000000 ) ) ;
#118 = CC_DESIGN_DATE_AND_TIME_ASSIGNMENT ( #109, #208, ( #272 ) ) ;
#119 = EDGE_LOOP ( 'NONE', ( #66 ) ) ;
#120 = AXIS2_PLACEMENT_3D ( 'NONE', #239, #121, #26 ) ;
#121 = DIRECTION ( 'NONE',  ( 3.491481338843133355E-15, -1.224646799147353207E-16, 1.000000000000000000 ) ) ;
#122 = AXIS2_PLACEMENT_3D ( 'NONE', #60, #225, #227 ) ;
#123 = APPROVAL_DATE_TIME ( #285, #186 ) ;
#124 = DIRECTION ( 'NONE',  ( -3.491481338843133355E-15, 1.224646799147353207E-16, -1.000000000000000000 ) ) ;
#125 = DIRECTION ( 'NONE',  ( -3.491481338843133355E-15, 1.224646799147353207E-16, -1.000000000000000000 ) ) ;
#126 = CC_DESIGN_PERSON_AND_ORGANIZATION_ASSIGNMENT ( #94, #113, ( #155 ) ) ;
#127 = DIRECTION ( 'NONE',  ( -3.491481338843133355E-15, 1.224646799147353207E-16, -1.000000000000000000 ) ) ;
#128 = AXIS2_PLACEMENT_3D ( 'NONE', #16, #274, #40 ) ;
#129 = DIRECTION ( 'NONE',  ( 0.0000000000000000000, -1.000000000000000000, 0.0000000000000000000 ) ) ;
#130 = DIRECTION ( 'NONE',  ( 0.0000000000000000000, 1.000000000000000000, 0.0000000000000000000 ) ) ;
#131 = DIRECTION ( 'NONE',  ( -3.491481338843133355E-15, 1.224646799147353207E-16, -1.000000000000000000 ) ) ;
#132 = CLOSED_SHELL ( 'NONE', ( #281, #152, #172, #237 ) ) ;
#133 = CIRCLE ( 'NONE', #196, 1.500000000000001554 ) ;
#134 = DIRECTION ( 'NONE',  ( 0.0000000000000000000, 1.000000000000000000, 0.0000000000000000000 ) ) ;
#135 = PERSON_AND_ORGANIZATION ( #211, #162 ) ;
#136 = EDGE_LOOP ( 'NONE', ( #3 ) ) ;
#137 = LOCAL_TIME ( 15, 3, 49.00000000000000000, #232 ) ;
#138 = APPROVAL_STATUS ( 'not_yet_approved' ) ;
#139 = ADVANCED_FACE ( 'NONE', ( #217, #4 ), #96, .T. ) ;
#140 = MANIFOLD_SOLID_BREP ( 'Corps-Déplacer/Copier1[1]', #214 ) ;
#141 = MANIFOLD_SOLID_BREP ( 'Corps-Déplacer/Copier1[2]', #132 ) ;
#142 = COORDINATED_UNIVERSAL_TIME_OFFSET ( 1, 0, .AHEAD. ) ;
#143 = CARTESIAN_POINT ( 'NONE',  ( 8.728703347107831416E-16, -3.061616997868382402E-17, 0.2499999999999999445 ) ) ;
#144 = CARTESIAN_POINT ( 'NONE',  ( 0.0000000000000000000, 0.0000000000000000000, 0.0000000000000000000 ) ) ;
#145 = SHAPE_DEFINITION_REPRESENTATION ( #41, #8 ) ;
#146 = LOCAL_TIME ( 15, 3, 49.00000000000000000, #142 ) ;
#147 = FACE_OUTER_BOUND ( 'NONE', #245, .T. ) ;
#148 = EDGE_LOOP ( 'NONE', ( #110 ) ) ;
#149 = VERTEX_POINT ( 'NONE', #78 ) ;
#150 = VERTEX_POINT ( 'NONE', #248 ) ;
#151 = AXIS2_PLACEMENT_3D ( 'NONE', #49, #68, #260 ) ;
#152 = ADVANCED_FACE ( 'NONE', ( #169, #51 ), #22, .T. ) ;
#153 = CARTESIAN_POINT ( 'NONE',  ( 5.358479882634335789E-14, 0.7003844939755792254, 15.34729635533384595 ) ) ;
#154 = FACE_BOUND ( 'NONE', #185, .T. ) ;
#155 = PRODUCT ( '327034', '327034', '', ( #184 ) ) ;
#156 = DIRECTION ( 'NONE',  ( 3.491481338843133355E-15, -1.224646799147353207E-16, 1.000000000000000000 ) ) ;
#157 = CIRCLE ( 'NONE', #35, 1.499999999999996447 ) ;
#158 = APPROVAL_ROLE ( '' ) ;
#159 = APPROVAL_STATUS ( 'not_yet_approved' ) ;
#160 = AXIS2_PLACEMENT_3D ( 'NONE', #222, #267, #197 ) ;
#161 = CC_DESIGN_SECURITY_CLASSIFICATION ( #272, ( #63 ) ) ;
#162 = ORGANIZATION ( 'UNSPECIFIED', 'UNSPECIFIED', '' ) ;
#163 = UNCERTAINTY_MEASURE_WITH_UNIT (LENGTH_MEASURE( 1.000000000000000082E-05 ), #205, 'distance_accuracy_value', 'NONE');
#164 = VERTEX_POINT ( 'NONE', #258 ) ;
#165 = ORIENTED_EDGE ( 'NONE', *, *, #11, .F. ) ;
#166 = ORIENTED_EDGE ( 'NONE', *, *, #183, .T. ) ;
#167 = AXIS2_PLACEMENT_3D ( 'NONE', #100, #124, #223 ) ;
#168 = TOROIDAL_SURFACE ( 'NONE', #253, 2.669999999999999929, 2.000000000000000000 ) ;
#169 = FACE_BOUND ( 'NONE', #262, .T. ) ;
#170 = DIRECTION ( 'NONE',  ( -3.491481338843133355E-15, 1.224646799147353207E-16, -1.000000000000000000 ) ) ;
#171 = CARTESIAN_POINT ( 'NONE',  ( 0.0000000000000000000, 0.0000000000000000000, 0.0000000000000000000 ) ) ;
#172 = ADVANCED_FACE ( 'NONE', ( #73, #28 ), #9, .T. ) ;
#173 = APPROVAL_PERSON_ORGANIZATION ( #213, #18, #93 ) ;
#174 = EDGE_LOOP ( 'NONE', ( #279 ) ) ;
#175 = CARTESIAN_POINT ( 'NONE',  ( 2.504511167915744066E-14, -8.784642641776459355E-16, 7.173205080756893004 ) ) ;
#176 = VERTEX_POINT ( 'NONE', #271 ) ;
#177 = PRODUCT_RELATED_PRODUCT_CATEGORY ( 'detail', '', ( #155 ) ) ;
#178 = DIRECTION ( 'NONE',  ( -3.491481338843133355E-15, 1.224646799147353207E-16, -1.000000000000000000 ) ) ;
#179 = CIRCLE ( 'NONE', #72, 0.7700000000000000178 ) ;
#180 = DIRECTION ( 'NONE',  ( 4.275831445896958607E-31, 1.000000000000000000, 1.224646799147353207E-16 ) ) ;
#181 = DIRECTION ( 'NONE',  ( 0.0000000000000000000, 1.000000000000000000, 0.0000000000000000000 ) ) ;
#182 = VERTEX_POINT ( 'NONE', #59 ) ;
#183 = EDGE_CURVE ( 'NONE', #149, #149, #76, .T. ) ;
#184 = MECHANICAL_CONTEXT ( 'NONE', #116, 'mechanical' ) ;
#185 = EDGE_LOOP ( 'NONE', ( #286 ) ) ;
#186 = APPROVAL ( #138, 'UNSPECIFIED' ) ;
#187 = ORIENTED_EDGE ( 'NONE', *, *, #183, .F. ) ;
#188 = CALENDAR_DATE ( 2021, 1, 12 ) ;
#189 = EDGE_LOOP ( 'NONE', ( #44 ) ) ;
#190 = PERSON_AND_ORGANIZATION ( #211, #162 ) ;
#191 = ORIENTED_EDGE ( 'NONE', *, *, #265, .F. ) ;
#192 = DIRECTION ( 'NONE',  ( -3.491481338843133355E-15, 1.224646799147353207E-16, -1.000000000000000000 ) ) ;
#193 = DIRECTION ( 'NONE',  ( -5.002415439966851171E-31, -1.000000000000000000, -1.408054769461695421E-16 ) ) ;
#194 = DIRECTION ( 'NONE',  ( -3.491481338843133355E-15, 1.224646799147353207E-16, -1.000000000000000000 ) ) ;
#195 = CYLINDRICAL_SURFACE ( 'NONE', #80, 1.499999999999998890 ) ;
#196 = AXIS2_PLACEMENT_3D ( 'NONE', #292, #127, #79 ) ;
#197 = DIRECTION ( 'NONE',  ( 4.275831445896958607E-31, 1.000000000000000000, 1.224646799147353207E-16 ) ) ;
#198 = DIRECTION ( 'NONE',  ( 0.0000000000000000000, 1.000000000000000000, 0.0000000000000000000 ) ) ;
#199 = APPROVAL ( #64, 'UNSPECIFIED' ) ;
#200 = DIRECTION ( 'NONE',  ( -3.491481338843133355E-15, 1.224646799147353207E-16, -1.000000000000000000 ) ) ;
#201 = DIRECTION ( 'NONE',  ( -3.491481338843133355E-15, 1.224646799147353207E-16, -1.000000000000000000 ) ) ;
#202 = CARTESIAN_POINT ( 'NONE',  ( 6.941812510639765788E-14, -2.434860062649754471E-15, 19.88214123733470728 ) ) ;
#203 = ADVANCED_FACE ( 'NONE', ( #154, #12 ), #257, .T. ) ;
#204 = CARTESIAN_POINT ( 'NONE',  ( 1.745740669421566678E-13, -6.123233995736766085E-15, 50.00000000000000000 ) ) ;
#205 =( LENGTH_UNIT ( ) NAMED_UNIT ( * ) SI_UNIT ( .MILLI., .METRE. ) );
#206 = AXIS2_PLACEMENT_3D ( 'NONE', #10, #170, #77 ) ;
#207 = AXIS2_PLACEMENT_3D ( 'NONE', #273, #105, #181 ) ;
#208 = DATE_TIME_ROLE ( 'classification_date' ) ;
#209 = EDGE_CURVE ( 'NONE', #176, #176, #220, .T. ) ;
#210 = EDGE_LOOP ( 'NONE', ( #187 ) ) ;
#211 = PERSON ( 'UNSPECIFIED', 'UNSPECIFIED', 'UNSPECIFIED', ('UNSPECIFIED'), ('UNSPECIFIED'), ('UNSPECIFIED') ) ;
#212 = DESIGN_CONTEXT ( 'detailed design', #31, 'design' ) ;
#213 = PERSON_AND_ORGANIZATION ( #211, #162 ) ;
#214 = CLOSED_SHELL ( 'NONE', ( #88, #53, #139, #216, #203, #62, #83, #1 ) ) ;
#215 = DATE_TIME_ROLE ( 'creation_date' ) ;
#216 = ADVANCED_FACE ( 'NONE', ( #291, #298 ), #168, .F. ) ;
#217 = FACE_OUTER_BOUND ( 'NONE', #255, .T. ) ;
#218 = CALENDAR_DATE ( 2021, 1, 12 ) ;
#219 = FACE_BOUND ( 'NONE', #69, .T. ) ;
#220 = CIRCLE ( 'NONE', #122, 0.6256624327025946952 ) ;
#221 = DIRECTION ( 'NONE',  ( 0.0000000000000000000, 1.000000000000000000, 0.0000000000000000000 ) ) ;
#222 = CARTESIAN_POINT ( 'NONE',  ( 1.745740669421566678E-13, 8.998558695971067645E-33, 50.00000000000000000 ) ) ;
#223 = DIRECTION ( 'NONE',  ( 0.0000000000000000000, 1.000000000000000000, 0.0000000000000000000 ) ) ;
#224 = VERTEX_POINT ( 'NONE', #276 ) ;
#225 = DIRECTION ( 'NONE',  ( -3.491481338843133355E-15, 1.224646799147353207E-16, -1.000000000000000000 ) ) ;
#226 = VERTEX_POINT ( 'NONE', #57 ) ;
#227 = DIRECTION ( 'NONE',  ( 4.275831445896958607E-31, 1.000000000000000000, 1.224646799147353207E-16 ) ) ;
#228 = APPROVAL_PERSON_ORGANIZATION ( #302, #186, #90 ) ;
#229 = EDGE_CURVE ( 'NONE', #226, #226, #157, .T. ) ;
#230 = DIRECTION ( 'NONE',  ( -3.491481338843133355E-15, 1.224646799147353207E-16, -1.000000000000000000 ) ) ;
#231 = CC_DESIGN_PERSON_AND_ORGANIZATION_ASSIGNMENT ( #65, #43, ( #272 ) ) ;
#232 = COORDINATED_UNIVERSAL_TIME_OFFSET ( 1, 0, .AHEAD. ) ;
#233 = AXIS2_PLACEMENT_3D ( 'NONE', #13, #106, #103 ) ;
#234 = COORDINATED_UNIVERSAL_TIME_OFFSET ( 1, 0, .AHEAD. ) ;
#235 = EDGE_LOOP ( 'NONE', ( #259 ) ) ;
#236 = APPROVAL_DATE_TIME ( #23, #18 ) ;
#237 = ADVANCED_FACE ( 'NONE', ( #84 ), #82, .T. ) ;
#238 = LOCAL_TIME ( 15, 3, 49.00000000000000000, #46 ) ;
#239 = CARTESIAN_POINT ( 'NONE',  ( 2.444036937190193349E-14, 5.774075163248139200E-33, 7.000000000000000000 ) ) ;
#240 = FACE_OUTER_BOUND ( 'NONE', #97, .T. ) ;
#241 = CC_DESIGN_PERSON_AND_ORGANIZATION_ASSIGNMENT ( #300, #87, ( #63 ) ) ;
#242 = DIRECTION ( 'NONE',  ( 3.491481338843133355E-15, -1.224646799147353207E-16, 1.000000000000000000 ) ) ;
#243 = CONICAL_SURFACE ( 'NONE', #6, 0.6699999999999990408, 0.5235987755982912661 ) ;
#244 = ORIENTED_EDGE ( 'NONE', *, *, #289, .F. ) ;
#245 = EDGE_LOOP ( 'NONE', ( #244 ) ) ;
#246 = DIRECTION ( 'NONE',  ( 0.0000000000000000000, 1.000000000000000000, 0.0000000000000000000 ) ) ;
#247 = AXIS2_PLACEMENT_3D ( 'NONE', #61, #201, #246 ) ;
#248 = CARTESIAN_POINT ( 'NONE',  ( 5.237222008264700033E-14, 0.6699999999999982636, 15.00000000000000000 ) ) ;
#249 = VERTEX_POINT ( 'NONE', #38 ) ;
#250 = EDGE_CURVE ( 'NONE', #150, #150, #114, .T. ) ;
#251 = CIRCLE ( 'NONE', #167, 0.6699999999999990408 ) ;
#252 = DIRECTION ( 'NONE',  ( -3.491481338843133355E-15, 1.224646799147353207E-16, -1.000000000000000000 ) ) ;
#253 = AXIS2_PLACEMENT_3D ( 'NONE', #39, #131, #180 ) ;
#254 = CALENDAR_DATE ( 2021, 1, 12 ) ;
#255 = EDGE_LOOP ( 'NONE', ( #165 ) ) ;
#256 = COORDINATED_UNIVERSAL_TIME_OFFSET ( 1, 0, .AHEAD. ) ;
#257 = CONICAL_SURFACE ( 'NONE', #288, 1.499999999999996447, 0.1745329251994261754 ) ;
#258 = CARTESIAN_POINT ( 'NONE',  ( 1.735266225405037467E-13, 1.499999999999995559, 49.70000000000000284 ) ) ;
#259 = ORIENTED_EDGE ( 'NONE', *, *, #229, .T. ) ;
#260 = DIRECTION ( 'NONE',  ( 1.000000000000000000, 0.0000000000000000000, 0.0000000000000000000 ) ) ;
#261 = EDGE_CURVE ( 'NONE', #37, #37, #7, .T. ) ;
#262 = EDGE_LOOP ( 'NONE', ( #269 ) ) ;
#263 = AXIS2_PLACEMENT_3D ( 'NONE', #275, #252, #134 ) ;
#264 = ORIENTED_EDGE ( 'NONE', *, *, #11, .T. ) ;
#265 = EDGE_CURVE ( 'NONE', #249, #249, #179, .T. ) ;
#266 = ORIENTED_EDGE ( 'NONE', *, *, #229, .F. ) ;
#267 = DIRECTION ( 'NONE',  ( -3.491481338843133355E-15, 1.224646799147353207E-16, -1.000000000000000000 ) ) ;
#268 = FACE_OUTER_BOUND ( 'NONE', #119, .T. ) ;
#269 = ORIENTED_EDGE ( 'NONE', *, *, #209, .F. ) ;
#270 = CC_DESIGN_PERSON_AND_ORGANIZATION_ASSIGNMENT ( #107, #24, ( #70 ) ) ;
#271 = CARTESIAN_POINT ( 'NONE',  ( -1.892735826383160481E-31, 0.6256624327025946952, -5.421010862427520937E-17 ) ) ;
#272 = SECURITY_CLASSIFICATION ( '', '', #277 ) ;
#273 = CARTESIAN_POINT ( 'NONE',  ( 5.237222008264700033E-14, -1.836970198721029589E-15, 15.00000000000000000 ) ) ;
#274 = DIRECTION ( 'NONE',  ( 3.491481338843133355E-15, -1.224646799147353207E-16, 1.000000000000000000 ) ) ;
#275 = CARTESIAN_POINT ( 'NONE',  ( 5.358479882634335789E-14, -1.879501735712543302E-15, 15.34729635533384595 ) ) ;
#276 = CARTESIAN_POINT ( 'NONE',  ( 8.728703347107835360E-16, 0.7699999999999992406, 0.2500000000000000555 ) ) ;
#277 = SECURITY_CLASSIFICATION_LEVEL ( 'unclassified' ) ;
#278 = CALENDAR_DATE ( 2021, 1, 12 ) ;
#279 = ORIENTED_EDGE ( 'NONE', *, *, #209, .T. ) ;
#280 = AXIS2_PLACEMENT_3D ( 'NONE', #98, #194, #85 ) ;
#281 = ADVANCED_FACE ( 'NONE', ( #17 ), #33, .F. ) ;
#282 = DIRECTION ( 'NONE',  ( 4.275831445896958607E-31, 1.000000000000000000, 1.224646799147352961E-16 ) ) ;
#283 = CC_DESIGN_PERSON_AND_ORGANIZATION_ASSIGNMENT ( #135, #19, ( #63 ) ) ;
#284 = EDGE_LOOP ( 'NONE', ( #166 ) ) ;
#285 = DATE_AND_TIME ( #218, #296 ) ;
#286 = ORIENTED_EDGE ( 'NONE', *, *, #261, .F. ) ;
#287 = DIRECTION ( 'NONE',  ( -3.491481338843133355E-15, 1.224646799147353207E-16, -1.000000000000000000 ) ) ;
#288 = AXIS2_PLACEMENT_3D ( 'NONE', #202, #156, #129 ) ;
#289 = EDGE_CURVE ( 'NONE', #14, #14, #108, .T. ) ;
#290 = EDGE_LOOP ( 'NONE', ( #112 ) ) ;
#291 = FACE_OUTER_BOUND ( 'NONE', #189, .T. ) ;
#292 = CARTESIAN_POINT ( 'NONE',  ( 1.735266225405037467E-13, -6.086494591762345225E-15, 49.70000000000000284 ) ) ;
#293 = EDGE_CURVE ( 'NONE', #164, #164, #133, .T. ) ;
#294 = CONICAL_SURFACE ( 'NONE', #29, 1.200000000000001732, 0.7853981633974453924 ) ;
#295 = CC_DESIGN_APPROVAL ( #18, ( #70 ) ) ;
#296 = LOCAL_TIME ( 15, 3, 49.00000000000000000, #234 ) ;
#297 = CARTESIAN_POINT ( 'NONE',  ( 6.941812510639765788E-14, -2.434860062649754471E-15, 19.88214123733470728 ) ) ;
#298 = FACE_OUTER_BOUND ( 'NONE', #148, .T. ) ;
#299 = DIRECTION ( 'NONE',  ( 0.0000000000000000000, 1.000000000000000000, 0.0000000000000000000 ) ) ;
#300 = PERSON_AND_ORGANIZATION ( #211, #162 ) ;
#301 =( GEOMETRIC_REPRESENTATION_CONTEXT ( 3 ) GLOBAL_UNCERTAINTY_ASSIGNED_CONTEXT ( ( #163 ) ) GLOBAL_UNIT_ASSIGNED_CONTEXT ( ( #205, #111, #91 ) ) REPRESENTATION_CONTEXT ( 'NONE', 'WORKASPACE' ) );
#302 = PERSON_AND_ORGANIZATION ( #211, #162 ) ;
#303 = EDGE_LOOP ( 'NONE', ( #266 ) ) ;
ENDSEC;
END-ISO-10303-21;
