ISO-10303-21;
HEADER;
FILE_DESCRIPTION (( 'STEP AP203' ),
    '1' );
FILE_NAME ('327033.step',
    '2021-12-01T14:03:49',
    ( '' ),
    ( '' ),
    'SwSTEP 2.0',
    'SolidWorks 2019',
    '' );
FILE_SCHEMA (( 'CONFIG_CONTROL_DESIGN' ));
ENDSEC;

DATA;
#1 = VERTEX_POINT ( 'NONE', #93 ) ;
#2 = CC_DESIGN_PERSON_AND_ORGANIZATION_ASSIGNMENT ( #260, #28, ( #224 ) ) ;
#3 = DIRECTION ( 'NONE',  ( 0.0000000000000000000, 1.000000000000000000, 0.0000000000000000000 ) ) ;
#4 = VERTEX_POINT ( 'NONE', #208 ) ;
#5 = PERSON_AND_ORGANIZATION_ROLE ( 'creator' ) ;
#6 = DATE_AND_TIME ( #30, #181 ) ;
#7 = AXIS2_PLACEMENT_3D ( 'NONE', #43, #60, #131 ) ;
#8 = ADVANCED_BREP_SHAPE_REPRESENTATION ( '327033', ( #133, #233, #199 ), #298 ) ;
#9 = EDGE_LOOP ( 'NONE', ( #193 ) ) ;
#10 = COORDINATED_UNIVERSAL_TIME_OFFSET ( 1, 0, .AHEAD. ) ;
#11 = ADVANCED_FACE ( 'NONE', ( #290, #79 ), #126, .T. ) ;
#12 = EDGE_LOOP ( 'NONE', ( #78 ) ) ;
#13 = CONICAL_SURFACE ( 'NONE', #36, 1.499999999999996447, 0.1745329251994260922 ) ;
#14 = ORIENTED_EDGE ( 'NONE', *, *, #249, .T. ) ;
#15 = ADVANCED_FACE ( 'NONE', ( #88 ), #301, .F. ) ;
#16 = FACE_BOUND ( 'NONE', #76, .T. ) ;
#17 = FACE_OUTER_BOUND ( 'NONE', #127, .T. ) ;
#18 = LOCAL_TIME ( 15, 3, 49.00000000000000000, #142 ) ;
#19 = DIRECTION ( 'NONE',  ( -3.491481338843133355E-15, 1.224646799147353207E-16, -1.000000000000000000 ) ) ;
#20 = EDGE_CURVE ( 'NONE', #1, #1, #259, .T. ) ;
#21 = DIRECTION ( 'NONE',  ( -3.491481338843133355E-15, 1.224646799147353207E-16, -1.000000000000000000 ) ) ;
#22 = AXIS2_PLACEMENT_3D ( 'NONE', #271, #134, #84 ) ;
#23 = DIRECTION ( 'NONE',  ( -3.491481338843133355E-15, 1.224646799147353207E-16, -1.000000000000000000 ) ) ;
#24 = CARTESIAN_POINT ( 'NONE',  ( 2.444036937190193349E-14, 0.7649999999999991251, 7.000000000000000000 ) ) ;
#25 = CARTESIAN_POINT ( 'NONE',  ( 2.504511167915743435E-14, 0.6649999999999979261, 7.173205080756891228 ) ) ;
#26 = CYLINDRICAL_SURFACE ( 'NONE', #302, 1.499999999999998890 ) ;
#27 = APPROVAL_STATUS ( 'not_yet_approved' ) ;
#28 = PERSON_AND_ORGANIZATION_ROLE ( 'creator' ) ;
#29 = ORIENTED_EDGE ( 'NONE', *, *, #249, .F. ) ;
#30 = CALENDAR_DATE ( 2021, 1, 12 ) ;
#31 = ORIENTED_EDGE ( 'NONE', *, *, #73, .F. ) ;
#32 = APPROVAL_ROLE ( '' ) ;
#33 = ORIENTED_EDGE ( 'NONE', *, *, #293, .T. ) ;
#34 = DATE_AND_TIME ( #243, #161 ) ;
#35 = EDGE_LOOP ( 'NONE', ( #264 ) ) ;
#36 = AXIS2_PLACEMENT_3D ( 'NONE', #39, #130, #178 ) ;
#37 = CC_DESIGN_PERSON_AND_ORGANIZATION_ASSIGNMENT ( #213, #5, ( #266 ) ) ;
#38 = CARTESIAN_POINT ( 'NONE',  ( 1.745740669421566678E-13, 8.998558695971067645E-33, 50.00000000000000000 ) ) ;
#39 = CARTESIAN_POINT ( 'NONE',  ( 6.951713097960024221E-14, -2.438332721213483654E-15, 19.91049764643279829 ) ) ;
#40 = CARTESIAN_POINT ( 'NONE',  ( 8.728703347107829444E-16, -3.061616997868381785E-17, 0.2499999999999998890 ) ) ;
#41 = CARTESIAN_POINT ( 'NONE',  ( 2.504511167915743435E-14, -8.784642641776457383E-16, 7.173205080756891228 ) ) ;
#42 = ADVANCED_FACE ( 'NONE', ( #63, #225 ), #13, .T. ) ;
#43 = CARTESIAN_POINT ( 'NONE',  ( -2.273291886709910076E-31, 7.973634576289565285E-33, -6.510966739014971147E-17 ) ) ;
#44 = ADVANCED_FACE ( 'NONE', ( #17, #221 ), #116, .T. ) ;
#45 = CIRCLE ( 'NONE', #156, 0.6649999999999999245 ) ;
#46 = CARTESIAN_POINT ( 'NONE',  ( 8.728703347107829444E-16, -3.061616997868381785E-17, 0.2499999999999998890 ) ) ;
#47 = PERSON ( 'UNSPECIFIED', 'UNSPECIFIED', 'UNSPECIFIED', ('UNSPECIFIED'), ('UNSPECIFIED'), ('UNSPECIFIED') ) ;
#48 = CONICAL_SURFACE ( 'NONE', #241, 0.6649999999999988143, 0.5235987755982960401 ) ;
#49 = EDGE_LOOP ( 'NONE', ( #166 ) ) ;
#50 = CALENDAR_DATE ( 2021, 1, 12 ) ;
#51 = EDGE_LOOP ( 'NONE', ( #122 ) ) ;
#52 = EDGE_CURVE ( 'NONE', #280, #280, #113, .T. ) ;
#53 = APPROVAL_ROLE ( '' ) ;
#54 = COORDINATED_UNIVERSAL_TIME_OFFSET ( 1, 0, .AHEAD. ) ;
#55 = EDGE_LOOP ( 'NONE', ( #33 ) ) ;
#56 = DIRECTION ( 'NONE',  ( 1.000000000000000000, 0.0000000000000000000, 0.0000000000000000000 ) ) ;
#57 = EDGE_LOOP ( 'NONE', ( #286 ) ) ;
#58 = DIRECTION ( 'NONE',  ( 3.491481338843133355E-15, -1.224646799147353207E-16, 1.000000000000000000 ) ) ;
#59 = AXIS2_PLACEMENT_3D ( 'NONE', #110, #65, #296 ) ;
#60 = DIRECTION ( 'NONE',  ( 3.491481338843133355E-15, -1.224646799147353207E-16, 1.000000000000000000 ) ) ;
#61 = DIRECTION ( 'NONE',  ( -4.275831445896958607E-31, -1.000000000000000000, -1.224646799147353207E-16 ) ) ;
#62 = ADVANCED_FACE ( 'NONE', ( #176, #274 ), #155, .T. ) ;
#63 = FACE_BOUND ( 'NONE', #168, .T. ) ;
#64 = APPROVAL_PERSON_ORGANIZATION ( #121, #297, #242 ) ;
#65 = DIRECTION ( 'NONE',  ( 3.491481338843133355E-15, -1.224646799147353207E-16, 1.000000000000000000 ) ) ;
#66 = APPLICATION_CONTEXT ( 'configuration controlled 3d designs of mechanical parts and assemblies' ) ;
#67 = VERTEX_POINT ( 'NONE', #92 ) ;
#68 = CC_DESIGN_DATE_AND_TIME_ASSIGNMENT ( #6, #217, ( #105 ) ) ;
#69 =( NAMED_UNIT ( * ) SI_UNIT ( $, .STERADIAN. ) SOLID_ANGLE_UNIT ( ) );
#70 = TOROIDAL_SURFACE ( 'NONE', #22, 2.665000000000000036, 2.000000000000000000 ) ;
#71 = DIRECTION ( 'NONE',  ( 0.0000000000000000000, 1.000000000000000000, 0.0000000000000000000 ) ) ;
#72 = DIRECTION ( 'NONE',  ( 4.275831445896958607E-31, 1.000000000000000000, 1.224646799147353454E-16 ) ) ;
#73 = EDGE_CURVE ( 'NONE', #136, #136, #222, .T. ) ;
#74 =( NAMED_UNIT ( * ) PLANE_ANGLE_UNIT ( ) SI_UNIT ( $, .RADIAN. ) );
#75 = CIRCLE ( 'NONE', #247, 0.7649999999999991251 ) ;
#76 = EDGE_LOOP ( 'NONE', ( #102 ) ) ;
#77 = APPROVAL_DATE_TIME ( #34, #138 ) ;
#78 = ORIENTED_EDGE ( 'NONE', *, *, #52, .T. ) ;
#79 = FACE_OUTER_BOUND ( 'NONE', #261, .T. ) ;
#80 = APPROVAL_DATE_TIME ( #165, #297 ) ;
#81 = AXIS2_PLACEMENT_3D ( 'NONE', #184, #115, #228 ) ;
#82 = EDGE_LOOP ( 'NONE', ( #244 ) ) ;
#83 = ORIENTED_EDGE ( 'NONE', *, *, #281, .T. ) ;
#84 = DIRECTION ( 'NONE',  ( 4.275831445896958607E-31, 1.000000000000000000, 1.224646799147353207E-16 ) ) ;
#85 = DIRECTION ( 'NONE',  ( 0.0000000000000000000, 1.000000000000000000, 0.0000000000000000000 ) ) ;
#86 = AXIS2_PLACEMENT_3D ( 'NONE', #173, #58, #61 ) ;
#87 = APPROVAL_PERSON_ORGANIZATION ( #191, #138, #32 ) ;
#88 = FACE_OUTER_BOUND ( 'NONE', #55, .T. ) ;
#89 = DIRECTION ( 'NONE',  ( -3.491481338843133355E-15, 1.224646799147353207E-16, -1.000000000000000000 ) ) ;
#90 = DIRECTION ( 'NONE',  ( -3.491481338843133355E-15, 1.224646799147353207E-16, -1.000000000000000000 ) ) ;
#91 = CC_DESIGN_DATE_AND_TIME_ASSIGNMENT ( #167, #103, ( #224 ) ) ;
#92 = CARTESIAN_POINT ( 'NONE',  ( 1.735266225405037467E-13, 1.499999999999995559, 49.70000000000000284 ) ) ;
#93 = CARTESIAN_POINT ( 'NONE',  ( -1.892735826383160481E-31, 0.6206624327025948018, -5.421010862427520937E-17 ) ) ;
#94 = CIRCLE ( 'NONE', #169, 0.6649999999999988143 ) ;
#95 = DIRECTION ( 'NONE',  ( 0.0000000000000000000, 1.000000000000000000, 0.0000000000000000000 ) ) ;
#96 = VERTEX_POINT ( 'NONE', #283 ) ;
#97 = PRODUCT_DEFINITION_SHAPE ( 'NONE', 'NONE',  #224 ) ;
#98 = PERSON_AND_ORGANIZATION_ROLE ( 'design_supplier' ) ;
#99 = CIRCLE ( 'NONE', #215, 0.7649999999999999023 ) ;
#100 = EDGE_LOOP ( 'NONE', ( #239 ) ) ;
#101 = APPROVAL_STATUS ( 'not_yet_approved' ) ;
#102 = ORIENTED_EDGE ( 'NONE', *, *, #174, .T. ) ;
#103 = DATE_TIME_ROLE ( 'creation_date' ) ;
#104 = EDGE_LOOP ( 'NONE', ( #189 ) ) ;
#105 = SECURITY_CLASSIFICATION ( '', '', #171 ) ;
#106 = DIRECTION ( 'NONE',  ( 0.0000000000000000000, 1.000000000000000000, 0.0000000000000000000 ) ) ;
#107 = FACE_OUTER_BOUND ( 'NONE', #12, .T. ) ;
#108 = DIRECTION ( 'NONE',  ( 4.275831445896958607E-31, 1.000000000000000000, 1.224646799147353207E-16 ) ) ;
#109 = CIRCLE ( 'NONE', #287, 1.499999999999996447 ) ;
#110 = CARTESIAN_POINT ( 'NONE',  ( 2.444036937190193349E-14, 5.736581168681592486E-33, 7.000000000000000000 ) ) ;
#111 = CARTESIAN_POINT ( 'NONE',  ( 5.358479882634335789E-14, -1.879501735712543302E-15, 15.34729635533384595 ) ) ;
#112 = VERTEX_POINT ( 'NONE', #303 ) ;
#113 = CIRCLE ( 'NONE', #160, 0.6953844939755811083 ) ;
#114 = FACE_OUTER_BOUND ( 'NONE', #82, .T. ) ;
#115 = DIRECTION ( 'NONE',  ( -3.491481338843133355E-15, 1.224646799147353207E-16, -1.000000000000000000 ) ) ;
#116 = CONICAL_SURFACE ( 'NONE', #123, 1.200000000000001732, 0.7853981633974453924 ) ;
#117 = VERTEX_POINT ( 'NONE', #25 ) ;
#118 = DESIGN_CONTEXT ( 'detailed design', #232, 'design' ) ;
#119 = DATE_AND_TIME ( #195, #18 ) ;
#120 = PRODUCT_RELATED_PRODUCT_CATEGORY ( 'detail', '', ( #245 ) ) ;
#121 = PERSON_AND_ORGANIZATION ( #47, #279 ) ;
#122 = ORIENTED_EDGE ( 'NONE', *, *, #236, .F. ) ;
#123 = AXIS2_PLACEMENT_3D ( 'NONE', #154, #90, #85 ) ;
#124 = APPLICATION_PROTOCOL_DEFINITION ( 'international standard', 'config_control_design', 1994, #232 ) ;
#125 = CALENDAR_DATE ( 2021, 1, 12 ) ;
#126 = CYLINDRICAL_SURFACE ( 'NONE', #272, 0.6649999999999993694 ) ;
#127 = EDGE_LOOP ( 'NONE', ( #246 ) ) ;
#128 = EDGE_CURVE ( 'NONE', #96, #96, #75, .T. ) ;
#129 = DIRECTION ( 'NONE',  ( -3.491481338843133355E-15, 1.224646799147353207E-16, -1.000000000000000000 ) ) ;
#130 = DIRECTION ( 'NONE',  ( 3.491481338843133355E-15, -1.224646799147353207E-16, 1.000000000000000000 ) ) ;
#131 = DIRECTION ( 'NONE',  ( -4.275831445896958607E-31, -1.000000000000000000, -1.224646799147353207E-16 ) ) ;
#132 = CC_DESIGN_APPROVAL ( #297, ( #266 ) ) ;
#133 = MANIFOLD_SOLID_BREP ( 'Corps-Déplacer/Copier1[1]', #284 ) ;
#134 = DIRECTION ( 'NONE',  ( -3.491481338843133355E-15, 1.224646799147353207E-16, -1.000000000000000000 ) ) ;
#135 = CARTESIAN_POINT ( 'NONE',  ( -4.546583773419820153E-31, 1.594726915257913057E-32, -1.302193347802994229E-16 ) ) ;
#136 = VERTEX_POINT ( 'NONE', #162 ) ;
#137 = CARTESIAN_POINT ( 'NONE',  ( 5.358479882634335789E-14, 0.6953844939755792209, 15.34729635533384595 ) ) ;
#138 = APPROVAL ( #101, 'UNSPECIFIED' ) ;
#139 = VERTEX_POINT ( 'NONE', #158 ) ;
#140 = DIRECTION ( 'NONE',  ( 3.491481338843133355E-15, -1.224646799147353207E-16, 1.000000000000000000 ) ) ;
#141 = DIRECTION ( 'NONE',  ( -3.491481338843133355E-15, 1.224646799147353207E-16, -1.000000000000000000 ) ) ;
#142 = COORDINATED_UNIVERSAL_TIME_OFFSET ( 1, 0, .AHEAD. ) ;
#143 = EDGE_LOOP ( 'NONE', ( #149 ) ) ;
#144 = PERSON_AND_ORGANIZATION_ROLE ( 'design_owner' ) ;
#145 = EDGE_LOOP ( 'NONE', ( #268 ) ) ;
#146 = APPROVAL_PERSON_ORGANIZATION ( #192, #196, #53 ) ;
#147 = EDGE_LOOP ( 'NONE', ( #29 ) ) ;
#148 = MECHANICAL_CONTEXT ( 'NONE', #66, 'mechanical' ) ;
#149 = ORIENTED_EDGE ( 'NONE', *, *, #128, .T. ) ;
#150 = CONICAL_SURFACE ( 'NONE', #229, 0.7649999999999991251, 0.5235987755982923764 ) ;
#151 = DIRECTION ( 'NONE',  ( 0.0000000000000000000, 1.000000000000000000, 0.0000000000000000000 ) ) ;
#152 = ADVANCED_FACE ( 'NONE', ( #220 ), #277, .F. ) ;
#153 = DIRECTION ( 'NONE',  ( 4.275831445896958607E-31, 1.000000000000000000, 1.224646799147353207E-16 ) ) ;
#154 = CARTESIAN_POINT ( 'NONE',  ( 1.745740669421566678E-13, -6.123233995736766085E-15, 50.00000000000000000 ) ) ;
#155 = CYLINDRICAL_SURFACE ( 'NONE', #206, 0.7649999999999994582 ) ;
#156 = AXIS2_PLACEMENT_3D ( 'NONE', #254, #21, #95 ) ;
#157 = DIRECTION ( 'NONE',  ( -3.491481338843133355E-15, 1.224646799147353207E-16, -1.000000000000000000 ) ) ;
#158 = CARTESIAN_POINT ( 'NONE',  ( 2.444036937190193349E-14, 0.7649999999999991251, 7.000000000000000000 ) ) ;
#159 = CARTESIAN_POINT ( 'NONE',  ( 1.735266225405037467E-13, -6.086494591762345225E-15, 49.70000000000000284 ) ) ;
#160 = AXIS2_PLACEMENT_3D ( 'NONE', #111, #273, #223 ) ;
#161 = LOCAL_TIME ( 15, 3, 49.00000000000000000, #288 ) ;
#162 = CARTESIAN_POINT ( 'NONE',  ( 1.745740669421566678E-13, 1.199999999999995515, 50.00000000000000000 ) ) ;
#163 = DIRECTION ( 'NONE',  ( -3.491481338843133355E-15, 1.224646799147353207E-16, -1.000000000000000000 ) ) ;
#164 = CIRCLE ( 'NONE', #81, 0.7649999999999999023 ) ;
#165 = DATE_AND_TIME ( #50, #235 ) ;
#166 = ORIENTED_EDGE ( 'NONE', *, *, #293, .F. ) ;
#167 = DATE_AND_TIME ( #125, #194 ) ;
#168 = EDGE_LOOP ( 'NONE', ( #265 ) ) ;
#169 = AXIS2_PLACEMENT_3D ( 'NONE', #197, #19, #151 ) ;
#170 = CC_DESIGN_PERSON_AND_ORGANIZATION_ASSIGNMENT ( #214, #267, ( #105 ) ) ;
#171 = SECURITY_CLASSIFICATION_LEVEL ( 'unclassified' ) ;
#172 = EDGE_LOOP ( 'NONE', ( #14 ) ) ;
#173 = CARTESIAN_POINT ( 'NONE',  ( 2.444036937190193349E-14, 5.736581168681592486E-33, 7.000000000000000000 ) ) ;
#174 = EDGE_CURVE ( 'NONE', #117, #117, #94, .T. ) ;
#175 = CIRCLE ( 'NONE', #292, 1.500000000000001554 ) ;
#176 = FACE_OUTER_BOUND ( 'NONE', #9, .T. ) ;
#177 = DIRECTION ( 'NONE',  ( 5.035110965718269427E-31, 1.000000000000000000, 1.417257741811118528E-16 ) ) ;
#178 = DIRECTION ( 'NONE',  ( 0.0000000000000000000, -1.000000000000000000, 0.0000000000000000000 ) ) ;
#179 = ADVANCED_FACE ( 'NONE', ( #295, #107 ), #70, .F. ) ;
#180 = CARTESIAN_POINT ( 'NONE',  ( 1.745740669421566678E-13, -6.123233995736766085E-15, 50.00000000000000000 ) ) ;
#181 = LOCAL_TIME ( 15, 3, 49.00000000000000000, #54 ) ;
#182 = DIRECTION ( 'NONE',  ( 0.0000000000000000000, 1.000000000000000000, 0.0000000000000000000 ) ) ;
#183 = CARTESIAN_POINT ( 'NONE',  ( 2.444036937190193349E-14, -8.572527594031473190E-16, 7.000000000000000000 ) ) ;
#184 = CARTESIAN_POINT ( 'NONE',  ( 2.444036937190193349E-14, -8.572527594031473190E-16, 7.000000000000000000 ) ) ;
#185 = CC_DESIGN_APPROVAL ( #196, ( #224 ) ) ;
#186 =( LENGTH_UNIT ( ) NAMED_UNIT ( * ) SI_UNIT ( .MILLI., .METRE. ) );
#187 = FACE_OUTER_BOUND ( 'NONE', #143, .T. ) ;
#188 = APPROVAL_STATUS ( 'not_yet_approved' ) ;
#189 = ORIENTED_EDGE ( 'NONE', *, *, #20, .T. ) ;
#190 = AXIS2_PLACEMENT_3D ( 'NONE', #135, #248, #153 ) ;
#191 = PERSON_AND_ORGANIZATION ( #47, #279 ) ;
#192 = PERSON_AND_ORGANIZATION ( #47, #279 ) ;
#193 = ORIENTED_EDGE ( 'NONE', *, *, #128, .F. ) ;
#194 = LOCAL_TIME ( 15, 3, 49.00000000000000000, #10 ) ;
#195 = CALENDAR_DATE ( 2021, 1, 12 ) ;
#196 = APPROVAL ( #188, 'UNSPECIFIED' ) ;
#197 = CARTESIAN_POINT ( 'NONE',  ( 2.504511167915743435E-14, -8.784642641776457383E-16, 7.173205080756891228 ) ) ;
#198 = PLANE ( 'NONE',  #86 ) ;
#199 = AXIS2_PLACEMENT_3D ( 'NONE', #263, #237, #56 ) ;
#200 = CC_DESIGN_APPROVAL ( #138, ( #105 ) ) ;
#201 = CARTESIAN_POINT ( 'NONE',  ( 0.0000000000000000000, 0.0000000000000000000, 0.0000000000000000000 ) ) ;
#202 = FACE_OUTER_BOUND ( 'NONE', #216, .T. ) ;
#203 = ADVANCED_FACE ( 'NONE', ( #275 ), #198, .T. ) ;
#204 = DIRECTION ( 'NONE',  ( 4.275831445896958607E-31, 1.000000000000000000, 1.224646799147353207E-16 ) ) ;
#205 = DIRECTION ( 'NONE',  ( 0.0000000000000000000, 1.000000000000000000, 0.0000000000000000000 ) ) ;
#206 = AXIS2_PLACEMENT_3D ( 'NONE', #250, #157, #108 ) ;
#207 = ADVANCED_FACE ( 'NONE', ( #202 ), #300, .F. ) ;
#208 = CARTESIAN_POINT ( 'NONE',  ( 6.951713097960024221E-14, 1.499999999999994005, 19.91049764643279829 ) ) ;
#209 = FACE_BOUND ( 'NONE', #35, .T. ) ;
#210 = AXIS2_PLACEMENT_3D ( 'NONE', #38, #129, #204 ) ;
#211 = CARTESIAN_POINT ( 'NONE',  ( 6.951713097960024221E-14, -2.438332721213483654E-15, 19.91049764643279829 ) ) ;
#212 = CC_DESIGN_PERSON_AND_ORGANIZATION_ASSIGNMENT ( #289, #144, ( #245 ) ) ;
#213 = PERSON_AND_ORGANIZATION ( #47, #279 ) ;
#214 = PERSON_AND_ORGANIZATION ( #47, #279 ) ;
#215 = AXIS2_PLACEMENT_3D ( 'NONE', #183, #163, #71 ) ;
#216 = EDGE_LOOP ( 'NONE', ( #31 ) ) ;
#217 = DATE_TIME_ROLE ( 'classification_date' ) ;
#218 = EDGE_LOOP ( 'NONE', ( #294 ) ) ;
#219 = AXIS2_PLACEMENT_3D ( 'NONE', #180, #299, #106 ) ;
#220 = FACE_OUTER_BOUND ( 'NONE', #104, .T. ) ;
#221 = FACE_BOUND ( 'NONE', #57, .T. ) ;
#222 = CIRCLE ( 'NONE', #219, 1.200000000000001732 ) ;
#223 = DIRECTION ( 'NONE',  ( 0.0000000000000000000, 1.000000000000000000, 0.0000000000000000000 ) ) ;
#224 = PRODUCT_DEFINITION ( 'UNKNOWN', '', #266, #118 ) ;
#225 = FACE_OUTER_BOUND ( 'NONE', #100, .T. ) ;
#226 = DIRECTION ( 'NONE',  ( 4.275831445896958607E-31, 1.000000000000000000, 1.224646799147353207E-16 ) ) ;
#227 = ADVANCED_FACE ( 'NONE', ( #251, #16 ), #48, .T. ) ;
#228 = DIRECTION ( 'NONE',  ( 0.0000000000000000000, 1.000000000000000000, 0.0000000000000000000 ) ) ;
#229 = AXIS2_PLACEMENT_3D ( 'NONE', #46, #140, #255 ) ;
#230 = CC_DESIGN_SECURITY_CLASSIFICATION ( #105, ( #266 ) ) ;
#231 = CARTESIAN_POINT ( 'NONE',  ( 0.0000000000000000000, 0.0000000000000000000, 0.0000000000000000000 ) ) ;
#232 = APPLICATION_CONTEXT ( 'configuration controlled 3d designs of mechanical parts and assemblies' ) ;
#233 = MANIFOLD_SOLID_BREP ( 'Corps-Déplacer/Copier1[2]', #234 ) ;
#234 = CLOSED_SHELL ( 'NONE', ( #152, #262, #62, #203 ) ) ;
#235 = LOCAL_TIME ( 15, 3, 49.00000000000000000, #291 ) ;
#236 = EDGE_CURVE ( 'NONE', #4, #4, #109, .T. ) ;
#237 = DIRECTION ( 'NONE',  ( 0.0000000000000000000, 0.0000000000000000000, 1.000000000000000000 ) ) ;
#238 = APPROVAL_DATE_TIME ( #119, #196 ) ;
#239 = ORIENTED_EDGE ( 'NONE', *, *, #236, .T. ) ;
#240 = SHAPE_DEFINITION_REPRESENTATION ( #97, #8 ) ;
#241 = AXIS2_PLACEMENT_3D ( 'NONE', #41, #278, #182 ) ;
#242 = APPROVAL_ROLE ( '' ) ;
#243 = CALENDAR_DATE ( 2021, 1, 12 ) ;
#244 = ORIENTED_EDGE ( 'NONE', *, *, #256, .T. ) ;
#245 = PRODUCT ( '327033', '327033', '', ( #148 ) ) ;
#246 = ORIENTED_EDGE ( 'NONE', *, *, #256, .F. ) ;
#247 = AXIS2_PLACEMENT_3D ( 'NONE', #40, #252, #177 ) ;
#248 = DIRECTION ( 'NONE',  ( -3.491481338843133355E-15, 1.224646799147353207E-16, -1.000000000000000000 ) ) ;
#249 = EDGE_CURVE ( 'NONE', #139, #139, #164, .T. ) ;
#250 = CARTESIAN_POINT ( 'NONE',  ( 0.0000000000000000000, 0.0000000000000000000, 0.0000000000000000000 ) ) ;
#251 = FACE_OUTER_BOUND ( 'NONE', #49, .T. ) ;
#252 = DIRECTION ( 'NONE',  ( -3.491481338843133355E-15, 1.224646799147353207E-16, -1.000000000000000000 ) ) ;
#253 = DIRECTION ( 'NONE',  ( -3.491481338843133355E-15, 1.224646799147353207E-16, -1.000000000000000000 ) ) ;
#254 = CARTESIAN_POINT ( 'NONE',  ( 5.237222008264700033E-14, -1.836970198721029589E-15, 15.00000000000000000 ) ) ;
#255 = DIRECTION ( 'NONE',  ( -5.035110965718269427E-31, -1.000000000000000000, -1.417257741811118528E-16 ) ) ;
#256 = EDGE_CURVE ( 'NONE', #67, #67, #175, .T. ) ;
#257 = VERTEX_POINT ( 'NONE', #24 ) ;
#258 = APPLICATION_PROTOCOL_DEFINITION ( 'international standard', 'config_control_design', 1994, #66 ) ;
#259 = CIRCLE ( 'NONE', #190, 0.6206624327025948018 ) ;
#260 = PERSON_AND_ORGANIZATION ( #47, #279 ) ;
#261 = EDGE_LOOP ( 'NONE', ( #83 ) ) ;
#262 = ADVANCED_FACE ( 'NONE', ( #209, #187 ), #150, .T. ) ;
#263 = CARTESIAN_POINT ( 'NONE',  ( 0.0000000000000000000, 0.0000000000000000000, 0.0000000000000000000 ) ) ;
#264 = ORIENTED_EDGE ( 'NONE', *, *, #20, .F. ) ;
#265 = ORIENTED_EDGE ( 'NONE', *, *, #52, .F. ) ;
#266 = PRODUCT_DEFINITION_FORMATION_WITH_SPECIFIED_SOURCE ( 'ANY', '', #245, .NOT_KNOWN. ) ;
#267 = PERSON_AND_ORGANIZATION_ROLE ( 'classification_officer' ) ;
#268 = ORIENTED_EDGE ( 'NONE', *, *, #281, .F. ) ;
#269 = PERSON_AND_ORGANIZATION ( #47, #279 ) ;
#270 = ADVANCED_FACE ( 'NONE', ( #282, #114 ), #26, .T. ) ;
#271 = CARTESIAN_POINT ( 'NONE',  ( 5.237222008264700033E-14, -1.734723475976807094E-15, 15.00000000000000000 ) ) ;
#272 = AXIS2_PLACEMENT_3D ( 'NONE', #201, #89, #226 ) ;
#273 = DIRECTION ( 'NONE',  ( -3.491481338843133355E-15, 1.224646799147353207E-16, -1.000000000000000000 ) ) ;
#274 = FACE_OUTER_BOUND ( 'NONE', #172, .T. ) ;
#275 = FACE_OUTER_BOUND ( 'NONE', #147, .T. ) ;
#276 = UNCERTAINTY_MEASURE_WITH_UNIT (LENGTH_MEASURE( 1.000000000000000082E-05 ), #186, 'distance_accuracy_value', 'NONE');
#277 = PLANE ( 'NONE',  #7 ) ;
#278 = DIRECTION ( 'NONE',  ( -3.491481338843133355E-15, 1.224646799147353207E-16, -1.000000000000000000 ) ) ;
#279 = ORGANIZATION ( 'UNSPECIFIED', 'UNSPECIFIED', '' ) ;
#280 = VERTEX_POINT ( 'NONE', #137 ) ;
#281 = EDGE_CURVE ( 'NONE', #112, #112, #45, .T. ) ;
#282 = FACE_OUTER_BOUND ( 'NONE', #51, .T. ) ;
#283 = CARTESIAN_POINT ( 'NONE',  ( 8.728703347107833388E-16, 0.7649999999999991251, 0.2500000000000000000 ) ) ;
#284 = CLOSED_SHELL ( 'NONE', ( #15, #227, #11, #179, #42, #270, #44, #207 ) ) ;
#285 = CC_DESIGN_PERSON_AND_ORGANIZATION_ASSIGNMENT ( #269, #98, ( #266 ) ) ;
#286 = ORIENTED_EDGE ( 'NONE', *, *, #73, .T. ) ;
#287 = AXIS2_PLACEMENT_3D ( 'NONE', #211, #23, #205 ) ;
#288 = COORDINATED_UNIVERSAL_TIME_OFFSET ( 1, 0, .AHEAD. ) ;
#289 = PERSON_AND_ORGANIZATION ( #47, #279 ) ;
#290 = FACE_OUTER_BOUND ( 'NONE', #218, .T. ) ;
#291 = COORDINATED_UNIVERSAL_TIME_OFFSET ( 1, 0, .AHEAD. ) ;
#292 = AXIS2_PLACEMENT_3D ( 'NONE', #159, #141, #3 ) ;
#293 = EDGE_CURVE ( 'NONE', #257, #257, #99, .T. ) ;
#294 = ORIENTED_EDGE ( 'NONE', *, *, #174, .F. ) ;
#295 = FACE_OUTER_BOUND ( 'NONE', #145, .T. ) ;
#296 = DIRECTION ( 'NONE',  ( -4.275831445896958607E-31, -1.000000000000000000, -1.224646799147353207E-16 ) ) ;
#297 = APPROVAL ( #27, 'UNSPECIFIED' ) ;
#298 =( GEOMETRIC_REPRESENTATION_CONTEXT ( 3 ) GLOBAL_UNCERTAINTY_ASSIGNED_CONTEXT ( ( #276 ) ) GLOBAL_UNIT_ASSIGNED_CONTEXT ( ( #186, #74, #69 ) ) REPRESENTATION_CONTEXT ( 'NONE', 'WORKASPACE' ) );
#299 = DIRECTION ( 'NONE',  ( -3.491481338843133355E-15, 1.224646799147353207E-16, -1.000000000000000000 ) ) ;
#300 = PLANE ( 'NONE',  #210 ) ;
#301 = PLANE ( 'NONE',  #59 ) ;
#302 = AXIS2_PLACEMENT_3D ( 'NONE', #231, #253, #72 ) ;
#303 = CARTESIAN_POINT ( 'NONE',  ( 5.237222008264700033E-14, 0.6649999999999980371, 15.00000000000000000 ) ) ;
ENDSEC;
END-ISO-10303-21;
