ISO-10303-21;
HEADER;
FILE_DESCRIPTION (( 'STEP AP203' ),
    '1' );
FILE_NAME ('327032.step',
    '2021-12-01T10:40:28',
    ( '' ),
    ( '' ),
    'SwSTEP 2.0',
    'SolidWorks 2019',
    '' );
FILE_SCHEMA (( 'CONFIG_CONTROL_DESIGN' ));
ENDSEC;

DATA;
#1 = DIRECTION ( 'NONE',  ( 4.275831445896958607E-31, 1.000000000000000000, 1.224646799147353207E-16 ) ) ;
#2 = DIRECTION ( 'NONE',  ( 4.275831445896958607E-31, 1.000000000000000000, 1.224646799147353207E-16 ) ) ;
#3 = CIRCLE ( 'NONE', #28, 1.200000000000003286 ) ;
#4 = CARTESIAN_POINT ( 'NONE',  ( -1.262786501829875365E-31, 4.429258808482838076E-33, -3.616764287929108104E-17 ) ) ;
#5 = CC_DESIGN_APPROVAL ( #85, ( #205 ) ) ;
#6 = PERSON_AND_ORGANIZATION ( #253, #17 ) ;
#7 = DIRECTION ( 'NONE',  ( -3.491481338843133355E-15, 1.224646799147353207E-16, -1.000000000000000000 ) ) ;
#8 = FACE_BOUND ( 'NONE', #183, .T. ) ;
#9 = DIRECTION ( 'NONE',  ( 0.0000000000000000000, 1.000000000000000000, 0.0000000000000000000 ) ) ;
#10 = AXIS2_PLACEMENT_3D ( 'NONE', #55, #268, #117 ) ;
#11 =( NAMED_UNIT ( * ) SI_UNIT ( $, .STERADIAN. ) SOLID_ANGLE_UNIT ( ) );
#12 = ORIENTED_EDGE ( 'NONE', *, *, #49, .F. ) ;
#13 = PERSON_AND_ORGANIZATION_ROLE ( 'classification_officer' ) ;
#14 = EDGE_CURVE ( 'NONE', #101, #101, #103, .T. ) ;
#15 = APPROVAL_ROLE ( '' ) ;
#16 = EDGE_LOOP ( 'NONE', ( #126 ) ) ;
#17 = ORGANIZATION ( 'UNSPECIFIED', 'UNSPECIFIED', '' ) ;
#18 = DIRECTION ( 'NONE',  ( -4.275831445896958607E-31, -1.000000000000000000, -1.224646799147353207E-16 ) ) ;
#19 = VERTEX_POINT ( 'NONE', #148 ) ;
#20 = FACE_BOUND ( 'NONE', #292, .T. ) ;
#21 = ADVANCED_FACE ( 'NONE', ( #20, #68 ), #185, .T. ) ;
#22 = ORIENTED_EDGE ( 'NONE', *, *, #119, .T. ) ;
#23 = DIRECTION ( 'NONE',  ( 0.0000000000000000000, 1.000000000000000000, 0.0000000000000000000 ) ) ;
#24 = PLANE ( 'NONE',  #288 ) ;
#25 = APPROVAL_ROLE ( '' ) ;
#26 = DIRECTION ( 'NONE',  ( -3.491481338843133355E-15, 1.224646799147353207E-16, -1.000000000000000000 ) ) ;
#27 = DATE_AND_TIME ( #262, #30 ) ;
#28 = AXIS2_PLACEMENT_3D ( 'NONE', #72, #162, #257 ) ;
#29 = VERTEX_POINT ( 'NONE', #84 ) ;
#30 = LOCAL_TIME ( 11, 40, 28.00000000000000000, #141 ) ;
#31 = CARTESIAN_POINT ( 'NONE',  ( 2.444036937190193349E-14, 5.511617201282314256E-33, 7.000000000000000000 ) ) ;
#32 = FACE_OUTER_BOUND ( 'NONE', #224, .T. ) ;
#33 = CIRCLE ( 'NONE', #174, 0.6399999999999991251 ) ;
#34 = CARTESIAN_POINT ( 'NONE',  ( 2.444036937190193349E-14, 0.7349999999999990985, 7.000000000000000000 ) ) ;
#35 = ADVANCED_FACE ( 'NONE', ( #112 ), #278, .F. ) ;
#36 = PERSON_AND_ORGANIZATION ( #253, #17 ) ;
#37 = CALENDAR_DATE ( 2021, 1, 12 ) ;
#38 = AXIS2_PLACEMENT_3D ( 'NONE', #275, #131, #18 ) ;
#39 = AXIS2_PLACEMENT_3D ( 'NONE', #76, #240, #53 ) ;
#40 = EDGE_LOOP ( 'NONE', ( #46 ) ) ;
#41 = CC_DESIGN_PERSON_AND_ORGANIZATION_ASSIGNMENT ( #36, #155, ( #122 ) ) ;
#42 = EDGE_LOOP ( 'NONE', ( #153 ) ) ;
#43 = FACE_OUTER_BOUND ( 'NONE', #139, .T. ) ;
#44 = CC_DESIGN_DATE_AND_TIME_ASSIGNMENT ( #296, #152, ( #205 ) ) ;
#45 = CARTESIAN_POINT ( 'NONE',  ( 5.358479882634335789E-14, -1.879501735712543302E-15, 15.34729635533384595 ) ) ;
#46 = ORIENTED_EDGE ( 'NONE', *, *, #14, .T. ) ;
#47 = EDGE_LOOP ( 'NONE', ( #246 ) ) ;
#48 = AXIS2_PLACEMENT_3D ( 'NONE', #283, #168, #2 ) ;
#49 = EDGE_CURVE ( 'NONE', #116, #116, #3, .T. ) ;
#50 = CYLINDRICAL_SURFACE ( 'NONE', #270, 1.500000000000000444 ) ;
#51 = PLANE ( 'NONE',  #233 ) ;
#52 = CIRCLE ( 'NONE', #210, 0.6400000000000000133 ) ;
#53 = DIRECTION ( 'NONE',  ( 0.0000000000000000000, 1.000000000000000000, 0.0000000000000000000 ) ) ;
#54 = FACE_OUTER_BOUND ( 'NONE', #42, .T. ) ;
#55 = CARTESIAN_POINT ( 'NONE',  ( -2.525573003659750730E-31, 8.858517616965676152E-33, -7.233528575858216207E-17 ) ) ;
#56 = CC_DESIGN_APPROVAL ( #178, ( #122 ) ) ;
#57 = ADVANCED_FACE ( 'NONE', ( #198, #259 ), #195, .T. ) ;
#58 = APPROVAL_STATUS ( 'not_yet_approved' ) ;
#59 = EDGE_LOOP ( 'NONE', ( #206 ) ) ;
#60 = APPROVAL_DATE_TIME ( #124, #178 ) ;
#61 = PERSON_AND_ORGANIZATION ( #253, #17 ) ;
#62 = ORIENTED_EDGE ( 'NONE', *, *, #258, .F. ) ;
#63 = APPROVAL_PERSON_ORGANIZATION ( #221, #85, #25 ) ;
#64 = EDGE_LOOP ( 'NONE', ( #113 ) ) ;
#65 = COORDINATED_UNIVERSAL_TIME_OFFSET ( 1, 0, .AHEAD. ) ;
#66 = CLOSED_SHELL ( 'NONE', ( #97, #249, #191, #222, #57, #285, #186, #35 ) ) ;
#67 = DIRECTION ( 'NONE',  ( 4.275831445896958607E-31, 1.000000000000000000, 1.224646799147353207E-16 ) ) ;
#68 = FACE_OUTER_BOUND ( 'NONE', #197, .T. ) ;
#69 = CONICAL_SURFACE ( 'NONE', #39, 1.200000000000003286, 0.7853981633974453924 ) ;
#70 = EDGE_CURVE ( 'NONE', #188, #188, #52, .T. ) ;
#71 = DIRECTION ( 'NONE',  ( -3.491481338843133355E-15, 1.224646799147353207E-16, -1.000000000000000000 ) ) ;
#72 = CARTESIAN_POINT ( 'NONE',  ( 1.326762908760390423E-13, -4.653657836759941941E-15, 38.00000000000000000 ) ) ;
#73 = MANIFOLD_SOLID_BREP ( 'Corps-Déplacer/Copier1[2]', #189 ) ;
#74 = ORIENTED_EDGE ( 'NONE', *, *, #166, .T. ) ;
#75 = CC_DESIGN_PERSON_AND_ORGANIZATION_ASSIGNMENT ( #150, #128, ( #122 ) ) ;
#76 = CARTESIAN_POINT ( 'NONE',  ( 1.326762908760390423E-13, -4.653657836759941941E-15, 38.00000000000000000 ) ) ;
#77 = VERTEX_POINT ( 'NONE', #238 ) ;
#78 = ADVANCED_FACE ( 'NONE', ( #88, #43 ), #180, .T. ) ;
#79 = DIRECTION ( 'NONE',  ( 0.0000000000000000000, 1.000000000000000000, 0.0000000000000000000 ) ) ;
#80 = CIRCLE ( 'NONE', #177, 1.500000000000003331 ) ;
#81 = FACE_OUTER_BOUND ( 'NONE', #269, .T. ) ;
#82 = MANIFOLD_SOLID_BREP ( 'Corps-Déplacer/Copier1[1]', #66 ) ;
#83 = CYLINDRICAL_SURFACE ( 'NONE', #106, 0.6399999999999994582 ) ;
#84 = CARTESIAN_POINT ( 'NONE',  ( 8.728703347107835360E-16, 0.7349999999999990985, 0.2500000000000000555 ) ) ;
#85 = APPROVAL ( #281, 'UNSPECIFIED' ) ;
#86 = ORIENTED_EDGE ( 'NONE', *, *, #14, .F. ) ;
#87 = PRODUCT_DEFINITION ( 'UNKNOWN', '', #122, #100 ) ;
#88 = FACE_OUTER_BOUND ( 'NONE', #231, .T. ) ;
#89 = EDGE_LOOP ( 'NONE', ( #86 ) ) ;
#90 = CARTESIAN_POINT ( 'NONE',  ( 1.316288464743861212E-13, -4.616918432785521081E-15, 37.69999999999999574 ) ) ;
#91 = AXIS2_PLACEMENT_3D ( 'NONE', #182, #255, #280 ) ;
#92 = DIRECTION ( 'NONE',  ( 0.0000000000000000000, 1.000000000000000000, 0.0000000000000000000 ) ) ;
#93 = DATE_AND_TIME ( #200, #294 ) ;
#94 = ORIENTED_EDGE ( 'NONE', *, *, #303, .F. ) ;
#95 = CARTESIAN_POINT ( 'NONE',  ( 1.326762908760390423E-13, 1.199999999999998845, 38.00000000000000000 ) ) ;
#96 = DIRECTION ( 'NONE',  ( -4.275831445896958607E-31, -1.000000000000000000, -1.224646799147353207E-16 ) ) ;
#97 = ADVANCED_FACE ( 'NONE', ( #282 ), #179, .F. ) ;
#98 = DIRECTION ( 'NONE',  ( 5.240625699012893205E-31, 1.000000000000000000, 1.475104996578919435E-16 ) ) ;
#99 = CARTESIAN_POINT ( 'NONE',  ( 2.501487456379466246E-14, -8.774036889389208913E-16, 7.164544826719046355 ) ) ;
#100 = DESIGN_CONTEXT ( 'detailed design', #227, 'design' ) ;
#101 = VERTEX_POINT ( 'NONE', #171 ) ;
#102 = CARTESIAN_POINT ( 'NONE',  ( 0.0000000000000000000, 0.0000000000000000000, 0.0000000000000000000 ) ) ;
#103 = CIRCLE ( 'NONE', #274, 0.6703844939755810861 ) ;
#104 = PERSON_AND_ORGANIZATION_ROLE ( 'design_owner' ) ;
#105 = ORIENTED_EDGE ( 'NONE', *, *, #218, .F. ) ;
#106 = AXIS2_PLACEMENT_3D ( 'NONE', #289, #144, #192 ) ;
#107 = COORDINATED_UNIVERSAL_TIME_OFFSET ( 1, 0, .AHEAD. ) ;
#108 = LOCAL_TIME ( 11, 40, 28.00000000000000000, #65 ) ;
#109 = ORIENTED_EDGE ( 'NONE', *, *, #119, .F. ) ;
#110 = DIRECTION ( 'NONE',  ( 1.000000000000000000, 0.0000000000000000000, 0.0000000000000000000 ) ) ;
#111 = SHAPE_DEFINITION_REPRESENTATION ( #145, #146 ) ;
#112 = FACE_OUTER_BOUND ( 'NONE', #254, .T. ) ;
#113 = ORIENTED_EDGE ( 'NONE', *, *, #218, .T. ) ;
#114 = CONICAL_SURFACE ( 'NONE', #234, 0.6399999999999991251, 0.5235987755982947078 ) ;
#115 = DIRECTION ( 'NONE',  ( -3.491481338843133355E-15, 1.224646799147353207E-16, -1.000000000000000000 ) ) ;
#116 = VERTEX_POINT ( 'NONE', #95 ) ;
#117 = DIRECTION ( 'NONE',  ( 4.275831445896959482E-31, 1.000000000000000000, 1.224646799147353454E-16 ) ) ;
#118 = FACE_OUTER_BOUND ( 'NONE', #299, .T. ) ;
#119 = EDGE_CURVE ( 'NONE', #77, #77, #80, .T. ) ;
#120 = DIRECTION ( 'NONE',  ( 3.491481338843133355E-15, -1.224646799147353207E-16, 1.000000000000000000 ) ) ;
#121 = DIRECTION ( 'NONE',  ( -3.491481338843133355E-15, 1.224646799147353207E-16, -1.000000000000000000 ) ) ;
#122 = PRODUCT_DEFINITION_FORMATION_WITH_SPECIFIED_SOURCE ( 'ANY', '', #173, .NOT_KNOWN. ) ;
#123 = PERSON_AND_ORGANIZATION ( #253, #17 ) ;
#124 = DATE_AND_TIME ( #273, #108 ) ;
#125 = LOCAL_TIME ( 11, 40, 28.00000000000000000, #107 ) ;
#126 = ORIENTED_EDGE ( 'NONE', *, *, #303, .T. ) ;
#127 = ORIENTED_EDGE ( 'NONE', *, *, #243, .F. ) ;
#128 = PERSON_AND_ORGANIZATION_ROLE ( 'creator' ) ;
#129 = PERSON_AND_ORGANIZATION ( #253, #17 ) ;
#130 = CC_DESIGN_PERSON_AND_ORGANIZATION_ASSIGNMENT ( #129, #104, ( #173 ) ) ;
#131 = DIRECTION ( 'NONE',  ( 3.491481338843133355E-15, -1.224646799147353207E-16, 1.000000000000000000 ) ) ;
#132 = DIRECTION ( 'NONE',  ( -3.491481338843133355E-15, 1.224646799147353207E-16, -1.000000000000000000 ) ) ;
#133 = ORIENTED_EDGE ( 'NONE', *, *, #166, .F. ) ;
#134 = COORDINATED_UNIVERSAL_TIME_OFFSET ( 1, 0, .AHEAD. ) ;
#135 = CALENDAR_DATE ( 2021, 1, 12 ) ;
#136 = CARTESIAN_POINT ( 'NONE',  ( 1.326762908760390423E-13, 8.998558695971103225E-33, 38.00000000000000000 ) ) ;
#137 = AXIS2_PLACEMENT_3D ( 'NONE', #163, #297, #232 ) ;
#138 = CIRCLE ( 'NONE', #10, 0.5906624327025946641 ) ;
#139 = EDGE_LOOP ( 'NONE', ( #252 ) ) ;
#140 = AXIS2_PLACEMENT_3D ( 'NONE', #136, #202, #67 ) ;
#141 = COORDINATED_UNIVERSAL_TIME_OFFSET ( 1, 0, .AHEAD. ) ;
#142 = DIRECTION ( 'NONE',  ( 4.275831445896958607E-31, 1.000000000000000000, 1.224646799147353207E-16 ) ) ;
#143 = AXIS2_PLACEMENT_3D ( 'NONE', #165, #235, #286 ) ;
#144 = DIRECTION ( 'NONE',  ( -3.491481338843133355E-15, 1.224646799147353207E-16, -1.000000000000000000 ) ) ;
#145 = PRODUCT_DEFINITION_SHAPE ( 'NONE', 'NONE',  #87 ) ;
#146 = ADVANCED_BREP_SHAPE_REPRESENTATION ( '327032', ( #82, #73, #211 ), #187 ) ;
#147 = DIRECTION ( 'NONE',  ( 3.491481338843133355E-15, -1.224646799147353207E-16, 1.000000000000000000 ) ) ;
#148 = CARTESIAN_POINT ( 'NONE',  ( 2.501487456379466246E-14, 0.6399999999999982370, 7.164544826719046355 ) ) ;
#149 = EDGE_LOOP ( 'NONE', ( #22 ) ) ;
#150 = PERSON_AND_ORGANIZATION ( #253, #17 ) ;
#151 = APPROVAL_ROLE ( '' ) ;
#152 = DATE_TIME_ROLE ( 'classification_date' ) ;
#153 = ORIENTED_EDGE ( 'NONE', *, *, #213, .F. ) ;
#154 = APPROVAL_PERSON_ORGANIZATION ( #61, #178, #15 ) ;
#155 = PERSON_AND_ORGANIZATION_ROLE ( 'design_supplier' ) ;
#156 = ORIENTED_EDGE ( 'NONE', *, *, #243, .T. ) ;
#157 = EDGE_LOOP ( 'NONE', ( #156 ) ) ;
#158 = DIRECTION ( 'NONE',  ( 0.0000000000000000000, 1.000000000000000000, 0.0000000000000000000 ) ) ;
#159 = CC_DESIGN_PERSON_AND_ORGANIZATION_ASSIGNMENT ( #6, #161, ( #87 ) ) ;
#160 = EDGE_LOOP ( 'NONE', ( #248 ) ) ;
#161 = PERSON_AND_ORGANIZATION_ROLE ( 'creator' ) ;
#162 = DIRECTION ( 'NONE',  ( -3.491481338843133355E-15, 1.224646799147353207E-16, -1.000000000000000000 ) ) ;
#163 = CARTESIAN_POINT ( 'NONE',  ( 7.001216034561318911E-14, -2.455696014032129175E-15, 20.05227969192325688 ) ) ;
#164 = TOROIDAL_SURFACE ( 'NONE', #48, 2.640000000000000124, 2.000000000000000000 ) ;
#165 = CARTESIAN_POINT ( 'NONE',  ( 2.444036937190193349E-14, -8.572527594031473190E-16, 7.000000000000000000 ) ) ;
#166 = EDGE_CURVE ( 'NONE', #29, #29, #216, .T. ) ;
#167 = DIRECTION ( 'NONE',  ( -3.491481338843133355E-15, 1.224646799147353207E-16, -1.000000000000000000 ) ) ;
#168 = DIRECTION ( 'NONE',  ( -3.491481338843133355E-15, 1.224646799147353207E-16, -1.000000000000000000 ) ) ;
#169 = CARTESIAN_POINT ( 'NONE',  ( 0.0000000000000000000, 0.0000000000000000000, 0.0000000000000000000 ) ) ;
#170 = LOCAL_TIME ( 11, 40, 28.00000000000000000, #181 ) ;
#171 = CARTESIAN_POINT ( 'NONE',  ( 5.358479882634335789E-14, 0.6703844939755791987, 15.34729635533384595 ) ) ;
#172 = VERTEX_POINT ( 'NONE', #247 ) ;
#173 = PRODUCT ( '327032', '327032', '', ( #300 ) ) ;
#174 = AXIS2_PLACEMENT_3D ( 'NONE', #193, #167, #263 ) ;
#175 = APPROVAL_STATUS ( 'not_yet_approved' ) ;
#176 = CARTESIAN_POINT ( 'NONE',  ( 0.0000000000000000000, 0.5906624327025946641, 0.0000000000000000000 ) ) ;
#177 = AXIS2_PLACEMENT_3D ( 'NONE', #90, #199, #158 ) ;
#178 = APPROVAL ( #175, 'UNSPECIFIED' ) ;
#179 = PLANE ( 'NONE',  #38 ) ;
#180 = CYLINDRICAL_SURFACE ( 'NONE', #204, 0.7349999999999995426 ) ;
#181 = COORDINATED_UNIVERSAL_TIME_OFFSET ( 1, 0, .AHEAD. ) ;
#182 = CARTESIAN_POINT ( 'NONE',  ( 8.728703347107831416E-16, -3.061616997868382402E-17, 0.2499999999999999445 ) ) ;
#183 = EDGE_LOOP ( 'NONE', ( #203 ) ) ;
#184 = FACE_OUTER_BOUND ( 'NONE', #40, .T. ) ;
#185 = CONICAL_SURFACE ( 'NONE', #91, 0.7349999999999990985, 0.5235987755982927094 ) ;
#186 = ADVANCED_FACE ( 'NONE', ( #32, #264 ), #69, .T. ) ;
#187 =( GEOMETRIC_REPRESENTATION_CONTEXT ( 3 ) GLOBAL_UNCERTAINTY_ASSIGNED_CONTEXT ( ( #236 ) ) GLOBAL_UNIT_ASSIGNED_CONTEXT ( ( #291, #245, #11 ) ) REPRESENTATION_CONTEXT ( 'NONE', 'WORKASPACE' ) );
#188 = VERTEX_POINT ( 'NONE', #284 ) ;
#189 = CLOSED_SHELL ( 'NONE', ( #298, #21, #78, #207 ) ) ;
#190 = DIRECTION ( 'NONE',  ( -4.275831445896958607E-31, -1.000000000000000000, -1.224646799147353207E-16 ) ) ;
#191 = ADVANCED_FACE ( 'NONE', ( #118, #208 ), #83, .T. ) ;
#192 = DIRECTION ( 'NONE',  ( 4.275831445896958607E-31, 1.000000000000000000, 1.224646799147353207E-16 ) ) ;
#193 = CARTESIAN_POINT ( 'NONE',  ( 2.501487456379466246E-14, -8.774036889389208913E-16, 7.164544826719046355 ) ) ;
#194 = PERSON_AND_ORGANIZATION ( #253, #17 ) ;
#195 = CONICAL_SURFACE ( 'NONE', #137, 1.499999999999997780, 0.1745329251994260367 ) ;
#196 = CC_DESIGN_DATE_AND_TIME_ASSIGNMENT ( #272, #250, ( #87 ) ) ;
#197 = EDGE_LOOP ( 'NONE', ( #74 ) ) ;
#198 = FACE_BOUND ( 'NONE', #89, .T. ) ;
#199 = DIRECTION ( 'NONE',  ( -3.491481338843133355E-15, 1.224646799147353207E-16, -1.000000000000000000 ) ) ;
#200 = CALENDAR_DATE ( 2021, 1, 12 ) ;
#201 = APPLICATION_PROTOCOL_DEFINITION ( 'international standard', 'config_control_design', 1994, #266 ) ;
#202 = DIRECTION ( 'NONE',  ( -3.491481338843133355E-15, 1.224646799147353207E-16, -1.000000000000000000 ) ) ;
#203 = ORIENTED_EDGE ( 'NONE', *, *, #258, .T. ) ;
#204 = AXIS2_PLACEMENT_3D ( 'NONE', #277, #115, #1 ) ;
#205 = SECURITY_CLASSIFICATION ( '', '', #225 ) ;
#206 = ORIENTED_EDGE ( 'NONE', *, *, #49, .T. ) ;
#207 = ADVANCED_FACE ( 'NONE', ( #54 ), #51, .T. ) ;
#208 = FACE_OUTER_BOUND ( 'NONE', #47, .T. ) ;
#209 = CARTESIAN_POINT ( 'NONE',  ( 2.444036937190193349E-14, -8.572527594031473190E-16, 7.000000000000000000 ) ) ;
#210 = AXIS2_PLACEMENT_3D ( 'NONE', #228, #71, #23 ) ;
#211 = AXIS2_PLACEMENT_3D ( 'NONE', #102, #226, #110 ) ;
#212 = DIRECTION ( 'NONE',  ( -3.491481338843133355E-15, 1.224646799147353207E-16, -1.000000000000000000 ) ) ;
#213 = EDGE_CURVE ( 'NONE', #172, #172, #279, .T. ) ;
#214 = FACE_OUTER_BOUND ( 'NONE', #160, .T. ) ;
#215 = FACE_OUTER_BOUND ( 'NONE', #149, .T. ) ;
#216 = CIRCLE ( 'NONE', #251, 0.7349999999999990985 ) ;
#217 = CIRCLE ( 'NONE', #260, 0.7349999999999999867 ) ;
#218 = EDGE_CURVE ( 'NONE', #276, #276, #138, .T. ) ;
#219 = VERTEX_POINT ( 'NONE', #242 ) ;
#220 = CIRCLE ( 'NONE', #244, 1.499999999999997780 ) ;
#221 = PERSON_AND_ORGANIZATION ( #253, #17 ) ;
#222 = ADVANCED_FACE ( 'NONE', ( #214, #184 ), #164, .F. ) ;
#223 = EDGE_LOOP ( 'NONE', ( #127 ) ) ;
#224 = EDGE_LOOP ( 'NONE', ( #109 ) ) ;
#225 = SECURITY_CLASSIFICATION_LEVEL ( 'unclassified' ) ;
#226 = DIRECTION ( 'NONE',  ( 0.0000000000000000000, 0.0000000000000000000, 1.000000000000000000 ) ) ;
#227 = APPLICATION_CONTEXT ( 'configuration controlled 3d designs of mechanical parts and assemblies' ) ;
#228 = CARTESIAN_POINT ( 'NONE',  ( 5.237222008264700033E-14, -1.836970198721029589E-15, 15.00000000000000000 ) ) ;
#229 = APPROVAL_DATE_TIME ( #93, #85 ) ;
#230 = APPROVAL ( #58, 'UNSPECIFIED' ) ;
#231 = EDGE_LOOP ( 'NONE', ( #133 ) ) ;
#232 = DIRECTION ( 'NONE',  ( 0.0000000000000000000, -1.000000000000000000, 0.0000000000000000000 ) ) ;
#233 = AXIS2_PLACEMENT_3D ( 'NONE', #31, #120, #190 ) ;
#234 = AXIS2_PLACEMENT_3D ( 'NONE', #99, #212, #261 ) ;
#235 = DIRECTION ( 'NONE',  ( -3.491481338843133355E-15, 1.224646799147353207E-16, -1.000000000000000000 ) ) ;
#236 = UNCERTAINTY_MEASURE_WITH_UNIT (LENGTH_MEASURE( 1.000000000000000082E-05 ), #291, 'distance_accuracy_value', 'NONE');
#237 = FACE_OUTER_BOUND ( 'NONE', #223, .T. ) ;
#238 = CARTESIAN_POINT ( 'NONE',  ( 1.316288464743861212E-13, 1.499999999999998668, 37.69999999999999574 ) ) ;
#239 = APPROVAL_PERSON_ORGANIZATION ( #194, #230, #151 ) ;
#240 = DIRECTION ( 'NONE',  ( -3.491481338843133355E-15, 1.224646799147353207E-16, -1.000000000000000000 ) ) ;
#241 = CARTESIAN_POINT ( 'NONE',  ( 7.001216034561318911E-14, -2.455696014032129175E-15, 20.05227969192325688 ) ) ;
#242 = CARTESIAN_POINT ( 'NONE',  ( 7.001216034561318911E-14, 1.499999999999995559, 20.05227969192325688 ) ) ;
#243 = EDGE_CURVE ( 'NONE', #295, #295, #217, .T. ) ;
#244 = AXIS2_PLACEMENT_3D ( 'NONE', #241, #121, #9 ) ;
#245 =( NAMED_UNIT ( * ) PLANE_ANGLE_UNIT ( ) SI_UNIT ( $, .RADIAN. ) );
#246 = ORIENTED_EDGE ( 'NONE', *, *, #70, .T. ) ;
#247 = CARTESIAN_POINT ( 'NONE',  ( 2.444036937190193349E-14, 0.7349999999999990985, 7.000000000000000000 ) ) ;
#248 = ORIENTED_EDGE ( 'NONE', *, *, #70, .F. ) ;
#249 = ADVANCED_FACE ( 'NONE', ( #237, #8 ), #114, .T. ) ;
#250 = DATE_TIME_ROLE ( 'creation_date' ) ;
#251 = AXIS2_PLACEMENT_3D ( 'NONE', #301, #7, #98 ) ;
#252 = ORIENTED_EDGE ( 'NONE', *, *, #213, .T. ) ;
#253 = PERSON ( 'UNSPECIFIED', 'UNSPECIFIED', 'UNSPECIFIED', ('UNSPECIFIED'), ('UNSPECIFIED'), ('UNSPECIFIED') ) ;
#254 = EDGE_LOOP ( 'NONE', ( #12 ) ) ;
#255 = DIRECTION ( 'NONE',  ( 3.491481338843133355E-15, -1.224646799147353207E-16, 1.000000000000000000 ) ) ;
#256 = CC_DESIGN_APPROVAL ( #230, ( #87 ) ) ;
#257 = DIRECTION ( 'NONE',  ( 0.0000000000000000000, 1.000000000000000000, 0.0000000000000000000 ) ) ;
#258 = EDGE_CURVE ( 'NONE', #19, #19, #33, .T. ) ;
#259 = FACE_OUTER_BOUND ( 'NONE', #16, .T. ) ;
#260 = AXIS2_PLACEMENT_3D ( 'NONE', #209, #287, #79 ) ;
#261 = DIRECTION ( 'NONE',  ( 0.0000000000000000000, 1.000000000000000000, 0.0000000000000000000 ) ) ;
#262 = CALENDAR_DATE ( 2021, 1, 12 ) ;
#263 = DIRECTION ( 'NONE',  ( 0.0000000000000000000, 1.000000000000000000, 0.0000000000000000000 ) ) ;
#264 = FACE_BOUND ( 'NONE', #59, .T. ) ;
#265 = CC_DESIGN_SECURITY_CLASSIFICATION ( #205, ( #122 ) ) ;
#266 = APPLICATION_CONTEXT ( 'configuration controlled 3d designs of mechanical parts and assemblies' ) ;
#267 = FACE_OUTER_BOUND ( 'NONE', #64, .T. ) ;
#268 = DIRECTION ( 'NONE',  ( -3.491481338843133355E-15, 1.224646799147353207E-16, -1.000000000000000000 ) ) ;
#269 = EDGE_LOOP ( 'NONE', ( #94 ) ) ;
#270 = AXIS2_PLACEMENT_3D ( 'NONE', #169, #26, #142 ) ;
#271 = APPLICATION_PROTOCOL_DEFINITION ( 'international standard', 'config_control_design', 1994, #227 ) ;
#272 = DATE_AND_TIME ( #135, #170 ) ;
#273 = CALENDAR_DATE ( 2021, 1, 12 ) ;
#274 = AXIS2_PLACEMENT_3D ( 'NONE', #45, #132, #92 ) ;
#275 = CARTESIAN_POINT ( 'NONE',  ( 2.444036937190193349E-14, 5.511617201282314256E-33, 7.000000000000000000 ) ) ;
#276 = VERTEX_POINT ( 'NONE', #176 ) ;
#277 = CARTESIAN_POINT ( 'NONE',  ( 0.0000000000000000000, 0.0000000000000000000, 0.0000000000000000000 ) ) ;
#278 = PLANE ( 'NONE',  #140 ) ;
#279 = CIRCLE ( 'NONE', #143, 0.7349999999999999867 ) ;
#280 = DIRECTION ( 'NONE',  ( -5.240625699012893205E-31, -1.000000000000000000, -1.475104996578919435E-16 ) ) ;
#281 = APPROVAL_STATUS ( 'not_yet_approved' ) ;
#282 = FACE_OUTER_BOUND ( 'NONE', #157, .T. ) ;
#283 = CARTESIAN_POINT ( 'NONE',  ( 5.237222008264700033E-14, -1.734723475976807094E-15, 15.00000000000000000 ) ) ;
#284 = CARTESIAN_POINT ( 'NONE',  ( 5.237222008264700033E-14, 0.6399999999999982370, 15.00000000000000000 ) ) ;
#285 = ADVANCED_FACE ( 'NONE', ( #81, #215 ), #50, .T. ) ;
#286 = DIRECTION ( 'NONE',  ( 0.0000000000000000000, 1.000000000000000000, 0.0000000000000000000 ) ) ;
#287 = DIRECTION ( 'NONE',  ( -3.491481338843133355E-15, 1.224646799147353207E-16, -1.000000000000000000 ) ) ;
#288 = AXIS2_PLACEMENT_3D ( 'NONE', #4, #147, #96 ) ;
#289 = CARTESIAN_POINT ( 'NONE',  ( 0.0000000000000000000, 0.0000000000000000000, 0.0000000000000000000 ) ) ;
#290 = CC_DESIGN_PERSON_AND_ORGANIZATION_ASSIGNMENT ( #123, #13, ( #205 ) ) ;
#291 =( LENGTH_UNIT ( ) NAMED_UNIT ( * ) SI_UNIT ( .MILLI., .METRE. ) );
#292 = EDGE_LOOP ( 'NONE', ( #105 ) ) ;
#293 = PRODUCT_RELATED_PRODUCT_CATEGORY ( 'detail', '', ( #173 ) ) ;
#294 = LOCAL_TIME ( 11, 40, 28.00000000000000000, #134 ) ;
#295 = VERTEX_POINT ( 'NONE', #34 ) ;
#296 = DATE_AND_TIME ( #37, #125 ) ;
#297 = DIRECTION ( 'NONE',  ( 3.491481338843133355E-15, -1.224646799147353207E-16, 1.000000000000000000 ) ) ;
#298 = ADVANCED_FACE ( 'NONE', ( #267 ), #24, .F. ) ;
#299 = EDGE_LOOP ( 'NONE', ( #62 ) ) ;
#300 = MECHANICAL_CONTEXT ( 'NONE', #266, 'mechanical' ) ;
#301 = CARTESIAN_POINT ( 'NONE',  ( 8.728703347107831416E-16, -3.061616997868382402E-17, 0.2499999999999999445 ) ) ;
#302 = APPROVAL_DATE_TIME ( #27, #230 ) ;
#303 = EDGE_CURVE ( 'NONE', #219, #219, #220, .T. ) ;
ENDSEC;
END-ISO-10303-21;
