ISO-10303-21;
HEADER;
FILE_DESCRIPTION (( 'STEP AP203' ),
    '1' );
FILE_NAME ('327031.step',
    '2021-12-01T10:40:27',
    ( '' ),
    ( '' ),
    'SwSTEP 2.0',
    'SolidWorks 2019',
    '' );
FILE_SCHEMA (( 'CONFIG_CONTROL_DESIGN' ));
ENDSEC;

DATA;
#1 = CARTESIAN_POINT ( 'NONE',  ( 2.498463744843188742E-14, -8.763431137001960443E-16, 7.155884572681202371 ) ) ;
#2 = PLANE ( 'NONE',  #72 ) ;
#3 = CIRCLE ( 'NONE', #170, 1.499999999999997780 ) ;
#4 = APPROVAL ( #8, 'UNSPECIFIED' ) ;
#5 = APPLICATION_PROTOCOL_DEFINITION ( 'international standard', 'config_control_design', 1994, #41 ) ;
#6 = CC_DESIGN_APPROVAL ( #117, ( #79 ) ) ;
#7 = CONICAL_SURFACE ( 'NONE', #258, 1.200000000000003286, 0.7853981633974453924 ) ;
#8 = APPROVAL_STATUS ( 'not_yet_approved' ) ;
#9 = ORIENTED_EDGE ( 'NONE', *, *, #83, .F. ) ;
#10 = CARTESIAN_POINT ( 'NONE',  ( -1.892735826383161356E-31, 0.5856624327025946597, -5.421010862427522170E-17 ) ) ;
#11 = FACE_BOUND ( 'NONE', #136, .T. ) ;
#12 = APPROVAL ( #14, 'UNSPECIFIED' ) ;
#13 = AXIS2_PLACEMENT_3D ( 'NONE', #187, #135, #279 ) ;
#14 = APPROVAL_STATUS ( 'not_yet_approved' ) ;
#15 = EDGE_LOOP ( 'NONE', ( #171 ) ) ;
#16 = DIRECTION ( 'NONE',  ( -3.491481338843133355E-15, 1.224646799147353207E-16, -1.000000000000000000 ) ) ;
#17 = CALENDAR_DATE ( 2021, 1, 12 ) ;
#18 = DATE_TIME_ROLE ( 'classification_date' ) ;
#19 = PERSON_AND_ORGANIZATION_ROLE ( 'creator' ) ;
#20 = CIRCLE ( 'NONE', #33, 0.5856624327025946597 ) ;
#21 = TOROIDAL_SURFACE ( 'NONE', #300, 2.640000000000000124, 2.000000000000000000 ) ;
#22 = DIRECTION ( 'NONE',  ( 0.0000000000000000000, 1.000000000000000000, 0.0000000000000000000 ) ) ;
#23 = FACE_OUTER_BOUND ( 'NONE', #36, .T. ) ;
#24 = VERTEX_POINT ( 'NONE', #225 ) ;
#25 = EDGE_LOOP ( 'NONE', ( #118 ) ) ;
#26 = DIRECTION ( 'NONE',  ( -3.491481338843133355E-15, 1.224646799147353207E-16, -1.000000000000000000 ) ) ;
#27 = EDGE_CURVE ( 'NONE', #185, #185, #280, .T. ) ;
#28 = DIRECTION ( 'NONE',  ( 0.0000000000000000000, 1.000000000000000000, 0.0000000000000000000 ) ) ;
#29 = CIRCLE ( 'NONE', #138, 0.6400000000000000133 ) ;
#30 = DIRECTION ( 'NONE',  ( -3.491481338843133355E-15, 1.224646799147353207E-16, -1.000000000000000000 ) ) ;
#31 = DESIGN_CONTEXT ( 'detailed design', #99, 'design' ) ;
#32 = CYLINDRICAL_SURFACE ( 'NONE', #189, 1.500000000000000444 ) ;
#33 = AXIS2_PLACEMENT_3D ( 'NONE', #184, #120, #256 ) ;
#34 =( NAMED_UNIT ( * ) PLANE_ANGLE_UNIT ( ) SI_UNIT ( $, .RADIAN. ) );
#35 = AXIS2_PLACEMENT_3D ( 'NONE', #1, #30, #201 ) ;
#36 = EDGE_LOOP ( 'NONE', ( #46 ) ) ;
#37 = EDGE_CURVE ( 'NONE', #53, #53, #101, .T. ) ;
#38 = DIRECTION ( 'NONE',  ( 0.0000000000000000000, 1.000000000000000000, 0.0000000000000000000 ) ) ;
#39 = DIRECTION ( 'NONE',  ( 5.276520395581474893E-31, 1.000000000000000000, 1.485208455459597030E-16 ) ) ;
#40 = LOCAL_TIME ( 11, 40, 27.00000000000000000, #176 ) ;
#41 = APPLICATION_CONTEXT ( 'configuration controlled 3d designs of mechanical parts and assemblies' ) ;
#42 = PERSON_AND_ORGANIZATION ( #244, #198 ) ;
#43 = CC_DESIGN_DATE_AND_TIME_ASSIGNMENT ( #129, #173, ( #73 ) ) ;
#44 = PRODUCT_DEFINITION_SHAPE ( 'NONE', 'NONE',  #73 ) ;
#45 = FACE_OUTER_BOUND ( 'NONE', #239, .T. ) ;
#46 = ORIENTED_EDGE ( 'NONE', *, *, #27, .F. ) ;
#47 = DIRECTION ( 'NONE',  ( -3.491481338843133355E-15, 1.224646799147353207E-16, -1.000000000000000000 ) ) ;
#48 = CARTESIAN_POINT ( 'NONE',  ( 8.728703347107835360E-16, 0.7299999999999990941, 0.2500000000000000555 ) ) ;
#49 = CARTESIAN_POINT ( 'NONE',  ( 5.237222008264700033E-14, -1.734723475976807094E-15, 15.00000000000000000 ) ) ;
#50 = DIRECTION ( 'NONE',  ( -4.275831445896958607E-31, -1.000000000000000000, -1.224646799147353207E-16 ) ) ;
#51 = EDGE_LOOP ( 'NONE', ( #159 ) ) ;
#52 = DIRECTION ( 'NONE',  ( 3.491481338843133355E-15, -1.224646799147353207E-16, 1.000000000000000000 ) ) ;
#53 = VERTEX_POINT ( 'NONE', #92 ) ;
#54 = AXIS2_PLACEMENT_3D ( 'NONE', #227, #71, #97 ) ;
#55 = FACE_BOUND ( 'NONE', #297, .T. ) ;
#56 = EDGE_CURVE ( 'NONE', #153, #153, #141, .T. ) ;
#57 = VERTEX_POINT ( 'NONE', #237 ) ;
#58 = EDGE_LOOP ( 'NONE', ( #150 ) ) ;
#59 = DATE_AND_TIME ( #260, #183 ) ;
#60 = DIRECTION ( 'NONE',  ( 3.491481338843133355E-15, -1.224646799147353207E-16, 1.000000000000000000 ) ) ;
#61 = PERSON_AND_ORGANIZATION_ROLE ( 'classification_officer' ) ;
#62 = CARTESIAN_POINT ( 'NONE',  ( 7.001216034561318911E-14, -2.455696014032129175E-15, 20.05227969192325688 ) ) ;
#63 = PERSON_AND_ORGANIZATION ( #244, #198 ) ;
#64 = PRODUCT_DEFINITION_FORMATION_WITH_SPECIFIED_SOURCE ( 'ANY', '', #287, .NOT_KNOWN. ) ;
#65 = DIRECTION ( 'NONE',  ( -4.275831445896958607E-31, -1.000000000000000000, -1.224646799147353207E-16 ) ) ;
#66 = AXIS2_PLACEMENT_3D ( 'NONE', #177, #67, #22 ) ;
#67 = DIRECTION ( 'NONE',  ( -3.491481338843133355E-15, 1.224646799147353207E-16, -1.000000000000000000 ) ) ;
#68 = FACE_OUTER_BOUND ( 'NONE', #145, .T. ) ;
#69 = COORDINATED_UNIVERSAL_TIME_OFFSET ( 1, 0, .AHEAD. ) ;
#70 = DIRECTION ( 'NONE',  ( -3.491481338843133355E-15, 1.224646799147353207E-16, -1.000000000000000000 ) ) ;
#71 = DIRECTION ( 'NONE',  ( -3.491481338843133355E-15, 1.224646799147353207E-16, -1.000000000000000000 ) ) ;
#72 = AXIS2_PLACEMENT_3D ( 'NONE', #82, #236, #50 ) ;
#73 = PRODUCT_DEFINITION ( 'UNKNOWN', '', #64, #31 ) ;
#74 = CARTESIAN_POINT ( 'NONE',  ( 1.326762908760390423E-13, 8.998558695971103225E-33, 38.00000000000000000 ) ) ;
#75 = ORIENTED_EDGE ( 'NONE', *, *, #121, .F. ) ;
#76 = MANIFOLD_SOLID_BREP ( 'Corps-Déplacer/Copier1[1]', #296 ) ;
#77 = DIRECTION ( 'NONE',  ( 0.0000000000000000000, 1.000000000000000000, 0.0000000000000000000 ) ) ;
#78 = ADVANCED_FACE ( 'NONE', ( #146 ), #130, .F. ) ;
#79 = SECURITY_CLASSIFICATION ( '', '', #262 ) ;
#80 = MANIFOLD_SOLID_BREP ( 'Corps-Déplacer/Copier1[2]', #206 ) ;
#81 =( NAMED_UNIT ( * ) SI_UNIT ( $, .STERADIAN. ) SOLID_ANGLE_UNIT ( ) );
#82 = CARTESIAN_POINT ( 'NONE',  ( 2.444036937190193349E-14, 5.474123206715767542E-33, 7.000000000000000000 ) ) ;
#83 = EDGE_CURVE ( 'NONE', #209, #209, #3, .T. ) ;
#84 = AXIS2_PLACEMENT_3D ( 'NONE', #265, #147, #149 ) ;
#85 = DATE_AND_TIME ( #293, #40 ) ;
#86 = CONICAL_SURFACE ( 'NONE', #255, 0.7299999999999990941, 0.5235987755982925984 ) ;
#87 = APPROVAL_DATE_TIME ( #59, #4 ) ;
#88 = EDGE_LOOP ( 'NONE', ( #197 ) ) ;
#89 = DATE_AND_TIME ( #266, #234 ) ;
#90 = ORIENTED_EDGE ( 'NONE', *, *, #83, .T. ) ;
#91 = DIRECTION ( 'NONE',  ( -3.491481338843133355E-15, 1.224646799147353207E-16, -1.000000000000000000 ) ) ;
#92 = CARTESIAN_POINT ( 'NONE',  ( 2.498463744843188742E-14, 0.6399999999999982370, 7.155884572681202371 ) ) ;
#93 = EDGE_LOOP ( 'NONE', ( #214 ) ) ;
#94 = FACE_OUTER_BOUND ( 'NONE', #251, .T. ) ;
#95 = CARTESIAN_POINT ( 'NONE',  ( 7.001216034561318911E-14, -2.455696014032129175E-15, 20.05227969192325688 ) ) ;
#96 = FACE_BOUND ( 'NONE', #161, .T. ) ;
#97 = DIRECTION ( 'NONE',  ( 0.0000000000000000000, 1.000000000000000000, 0.0000000000000000000 ) ) ;
#98 = ADVANCED_FACE ( 'NONE', ( #126, #11 ), #7, .T. ) ;
#99 = APPLICATION_CONTEXT ( 'configuration controlled 3d designs of mechanical parts and assemblies' ) ;
#100 = DIRECTION ( 'NONE',  ( 0.0000000000000000000, 0.0000000000000000000, 1.000000000000000000 ) ) ;
#101 = CIRCLE ( 'NONE', #271, 0.6399999999999991251 ) ;
#102 = COORDINATED_UNIVERSAL_TIME_OFFSET ( 1, 0, .AHEAD. ) ;
#103 = EDGE_LOOP ( 'NONE', ( #9 ) ) ;
#104 = AXIS2_PLACEMENT_3D ( 'NONE', #231, #282, #77 ) ;
#105 = AXIS2_PLACEMENT_3D ( 'NONE', #203, #233, #115 ) ;
#106 = DIRECTION ( 'NONE',  ( 0.0000000000000000000, 1.000000000000000000, 0.0000000000000000000 ) ) ;
#107 = CC_DESIGN_PERSON_AND_ORGANIZATION_ASSIGNMENT ( #192, #167, ( #287 ) ) ;
#108 = PERSON_AND_ORGANIZATION_ROLE ( 'creator' ) ;
#109 = ORIENTED_EDGE ( 'NONE', *, *, #56, .F. ) ;
#110 = APPROVAL_DATE_TIME ( #268, #117 ) ;
#111 = CC_DESIGN_PERSON_AND_ORGANIZATION_ASSIGNMENT ( #127, #221, ( #64 ) ) ;
#112 = DIRECTION ( 'NONE',  ( -3.491481338843133355E-15, 1.224646799147353207E-16, -1.000000000000000000 ) ) ;
#113 = EDGE_LOOP ( 'NONE', ( #222 ) ) ;
#114 = CARTESIAN_POINT ( 'NONE',  ( 8.728703347107831416E-16, -3.061616997868382402E-17, 0.2499999999999999445 ) ) ;
#115 = DIRECTION ( 'NONE',  ( 4.275831445896958607E-31, 1.000000000000000000, 1.224646799147353207E-16 ) ) ;
#116 =( GEOMETRIC_REPRESENTATION_CONTEXT ( 3 ) GLOBAL_UNCERTAINTY_ASSIGNED_CONTEXT ( ( #284 ) ) GLOBAL_UNIT_ASSIGNED_CONTEXT ( ( #212, #34, #81 ) ) REPRESENTATION_CONTEXT ( 'NONE', 'WORKASPACE' ) );
#117 = APPROVAL ( #224, 'UNSPECIFIED' ) ;
#118 = ORIENTED_EDGE ( 'NONE', *, *, #166, .F. ) ;
#119 = PLANE ( 'NONE',  #13 ) ;
#120 = DIRECTION ( 'NONE',  ( -3.491481338843133355E-15, 1.224646799147353207E-16, -1.000000000000000000 ) ) ;
#121 = EDGE_CURVE ( 'NONE', #228, #228, #210, .T. ) ;
#122 = DIRECTION ( 'NONE',  ( 1.000000000000000000, 0.0000000000000000000, 0.0000000000000000000 ) ) ;
#123 = ADVANCED_FACE ( 'NONE', ( #128, #267 ), #86, .T. ) ;
#124 = CONICAL_SURFACE ( 'NONE', #35, 0.6399999999999991251, 0.5235987755982942637 ) ;
#125 = CC_DESIGN_PERSON_AND_ORGANIZATION_ASSIGNMENT ( #63, #19, ( #64 ) ) ;
#126 = FACE_OUTER_BOUND ( 'NONE', #25, .T. ) ;
#127 = PERSON_AND_ORGANIZATION ( #244, #198 ) ;
#128 = FACE_BOUND ( 'NONE', #113, .T. ) ;
#129 = DATE_AND_TIME ( #17, #165 ) ;
#130 = PLANE ( 'NONE',  #286 ) ;
#131 = EDGE_LOOP ( 'NONE', ( #75 ) ) ;
#132 = FACE_OUTER_BOUND ( 'NONE', #51, .T. ) ;
#133 = DIRECTION ( 'NONE',  ( -3.491481338843133355E-15, 1.224646799147353207E-16, -1.000000000000000000 ) ) ;
#134 = VERTEX_POINT ( 'NONE', #202 ) ;
#135 = DIRECTION ( 'NONE',  ( 3.491481338843133355E-15, -1.224646799147353207E-16, 1.000000000000000000 ) ) ;
#136 = EDGE_LOOP ( 'NONE', ( #276 ) ) ;
#137 = DIRECTION ( 'NONE',  ( 4.275831445896958607E-31, 1.000000000000000000, 1.224646799147353207E-16 ) ) ;
#138 = AXIS2_PLACEMENT_3D ( 'NONE', #180, #155, #160 ) ;
#139 = EDGE_LOOP ( 'NONE', ( #272 ) ) ;
#140 = PLANE ( 'NONE',  #277 ) ;
#141 = CIRCLE ( 'NONE', #84, 0.7299999999999999822 ) ;
#142 = CARTESIAN_POINT ( 'NONE',  ( 1.326762908760390423E-13, 1.199999999999998845, 38.00000000000000000 ) ) ;
#143 = CARTESIAN_POINT ( 'NONE',  ( 0.0000000000000000000, 0.0000000000000000000, 0.0000000000000000000 ) ) ;
#144 = APPLICATION_PROTOCOL_DEFINITION ( 'international standard', 'config_control_design', 1994, #99 ) ;
#145 = EDGE_LOOP ( 'NONE', ( #232 ) ) ;
#146 = FACE_OUTER_BOUND ( 'NONE', #15, .T. ) ;
#147 = DIRECTION ( 'NONE',  ( -3.491481338843133355E-15, 1.224646799147353207E-16, -1.000000000000000000 ) ) ;
#148 = CIRCLE ( 'NONE', #104, 0.6703844939755810861 ) ;
#149 = DIRECTION ( 'NONE',  ( 0.0000000000000000000, 1.000000000000000000, 0.0000000000000000000 ) ) ;
#150 = ORIENTED_EDGE ( 'NONE', *, *, #247, .F. ) ;
#151 = PERSON_AND_ORGANIZATION ( #244, #198 ) ;
#152 = FACE_OUTER_BOUND ( 'NONE', #179, .T. ) ;
#153 = VERTEX_POINT ( 'NONE', #250 ) ;
#154 = DIRECTION ( 'NONE',  ( 0.0000000000000000000, 1.000000000000000000, 0.0000000000000000000 ) ) ;
#155 = DIRECTION ( 'NONE',  ( -3.491481338843133355E-15, 1.224646799147353207E-16, -1.000000000000000000 ) ) ;
#156 = AXIS2_PLACEMENT_3D ( 'NONE', #303, #133, #28 ) ;
#157 = ADVANCED_FACE ( 'NONE', ( #299, #45 ), #245, .T. ) ;
#158 = FACE_OUTER_BOUND ( 'NONE', #205, .T. ) ;
#159 = ORIENTED_EDGE ( 'NONE', *, *, #37, .F. ) ;
#160 = DIRECTION ( 'NONE',  ( 0.0000000000000000000, 1.000000000000000000, 0.0000000000000000000 ) ) ;
#161 = EDGE_LOOP ( 'NONE', ( #226 ) ) ;
#162 = CYLINDRICAL_SURFACE ( 'NONE', #105, 0.6399999999999994582 ) ;
#163 = APPROVAL_PERSON_ORGANIZATION ( #194, #4, #288 ) ;
#164 = ADVANCED_FACE ( 'NONE', ( #132, #235 ), #162, .T. ) ;
#165 = LOCAL_TIME ( 11, 40, 27.00000000000000000, #69 ) ;
#166 = EDGE_CURVE ( 'NONE', #134, #134, #275, .T. ) ;
#167 = PERSON_AND_ORGANIZATION_ROLE ( 'design_owner' ) ;
#168 = CARTESIAN_POINT ( 'NONE',  ( 5.358479882634335789E-14, 0.6703844939755791987, 15.34729635533384595 ) ) ;
#169 = MECHANICAL_CONTEXT ( 'NONE', #41, 'mechanical' ) ;
#170 = AXIS2_PLACEMENT_3D ( 'NONE', #62, #223, #38 ) ;
#171 = ORIENTED_EDGE ( 'NONE', *, *, #263, .T. ) ;
#172 = CARTESIAN_POINT ( 'NONE',  ( -2.198464836406713577E-31, 7.711176614323739656E-33, -6.296653549164184194E-17 ) ) ;
#173 = DATE_TIME_ROLE ( 'creation_date' ) ;
#174 = CC_DESIGN_SECURITY_CLASSIFICATION ( #79, ( #64 ) ) ;
#175 = AXIS2_PLACEMENT_3D ( 'NONE', #289, #242, #39 ) ;
#176 = COORDINATED_UNIVERSAL_TIME_OFFSET ( 1, 0, .AHEAD. ) ;
#177 = CARTESIAN_POINT ( 'NONE',  ( 1.326762908760390423E-13, -4.653657836759941941E-15, 38.00000000000000000 ) ) ;
#178 = PERSON_AND_ORGANIZATION ( #244, #198 ) ;
#179 = EDGE_LOOP ( 'NONE', ( #261 ) ) ;
#180 = CARTESIAN_POINT ( 'NONE',  ( 5.237222008264700033E-14, -1.836970198721029589E-15, 15.00000000000000000 ) ) ;
#181 = ADVANCED_FACE ( 'NONE', ( #249, #96 ), #124, .T. ) ;
#182 = FACE_OUTER_BOUND ( 'NONE', #139, .T. ) ;
#183 = LOCAL_TIME ( 11, 40, 27.00000000000000000, #102 ) ;
#184 = CARTESIAN_POINT ( 'NONE',  ( -4.396929672813427153E-31, 1.542235322864747931E-32, -1.259330709832836839E-16 ) ) ;
#185 = VERTEX_POINT ( 'NONE', #142 ) ;
#186 = ORIENTED_EDGE ( 'NONE', *, *, #121, .T. ) ;
#187 = CARTESIAN_POINT ( 'NONE',  ( 2.444036937190193349E-14, 5.474123206715767542E-33, 7.000000000000000000 ) ) ;
#188 = CC_DESIGN_PERSON_AND_ORGANIZATION_ASSIGNMENT ( #42, #61, ( #79 ) ) ;
#189 = AXIS2_PLACEMENT_3D ( 'NONE', #208, #112, #200 ) ;
#190 = CC_DESIGN_PERSON_AND_ORGANIZATION_ASSIGNMENT ( #178, #108, ( #73 ) ) ;
#191 = AXIS2_PLACEMENT_3D ( 'NONE', #143, #100, #122 ) ;
#192 = PERSON_AND_ORGANIZATION ( #244, #198 ) ;
#193 = ADVANCED_BREP_SHAPE_REPRESENTATION ( '327031', ( #76, #80, #191 ), #116 ) ;
#194 = PERSON_AND_ORGANIZATION ( #244, #198 ) ;
#195 = APPROVAL_ROLE ( '' ) ;
#196 = ADVANCED_FACE ( 'NONE', ( #55, #94 ), #259, .T. ) ;
#197 = ORIENTED_EDGE ( 'NONE', *, *, #247, .T. ) ;
#198 = ORGANIZATION ( 'UNSPECIFIED', 'UNSPECIFIED', '' ) ;
#199 = CARTESIAN_POINT ( 'NONE',  ( 2.498463744843188742E-14, -8.763431137001960443E-16, 7.155884572681202371 ) ) ;
#200 = DIRECTION ( 'NONE',  ( 4.275831445896958607E-31, 1.000000000000000000, 1.224646799147353207E-16 ) ) ;
#201 = DIRECTION ( 'NONE',  ( 0.0000000000000000000, 1.000000000000000000, 0.0000000000000000000 ) ) ;
#202 = CARTESIAN_POINT ( 'NONE',  ( 1.316288464743861212E-13, 1.499999999999998668, 37.69999999999999574 ) ) ;
#203 = CARTESIAN_POINT ( 'NONE',  ( 0.0000000000000000000, 0.0000000000000000000, 0.0000000000000000000 ) ) ;
#204 = CC_DESIGN_APPROVAL ( #12, ( #64 ) ) ;
#205 = EDGE_LOOP ( 'NONE', ( #109 ) ) ;
#206 = CLOSED_SHELL ( 'NONE', ( #78, #123, #157, #301 ) ) ;
#207 = DIRECTION ( 'NONE',  ( 0.0000000000000000000, -1.000000000000000000, 0.0000000000000000000 ) ) ;
#208 = CARTESIAN_POINT ( 'NONE',  ( 0.0000000000000000000, 0.0000000000000000000, 0.0000000000000000000 ) ) ;
#209 = VERTEX_POINT ( 'NONE', #246 ) ;
#210 = CIRCLE ( 'NONE', #175, 0.7299999999999990941 ) ;
#211 = ADVANCED_FACE ( 'NONE', ( #182 ), #119, .F. ) ;
#212 =( LENGTH_UNIT ( ) NAMED_UNIT ( * ) SI_UNIT ( .MILLI., .METRE. ) );
#213 = ADVANCED_FACE ( 'NONE', ( #298, #68 ), #21, .F. ) ;
#214 = ORIENTED_EDGE ( 'NONE', *, *, #241, .F. ) ;
#215 = VERTEX_POINT ( 'NONE', #10 ) ;
#216 = COORDINATED_UNIVERSAL_TIME_OFFSET ( 1, 0, .AHEAD. ) ;
#217 = CC_DESIGN_APPROVAL ( #4, ( #73 ) ) ;
#218 = EDGE_LOOP ( 'NONE', ( #186 ) ) ;
#219 = CARTESIAN_POINT ( 'NONE',  ( 1.326762908760390423E-13, -4.653657836759941941E-15, 38.00000000000000000 ) ) ;
#220 = APPROVAL_ROLE ( '' ) ;
#221 = PERSON_AND_ORGANIZATION_ROLE ( 'design_supplier' ) ;
#222 = ORIENTED_EDGE ( 'NONE', *, *, #263, .F. ) ;
#223 = DIRECTION ( 'NONE',  ( -3.491481338843133355E-15, 1.224646799147353207E-16, -1.000000000000000000 ) ) ;
#224 = APPROVAL_STATUS ( 'not_yet_approved' ) ;
#225 = CARTESIAN_POINT ( 'NONE',  ( 2.444036937190193349E-14, 0.7299999999999990941, 7.000000000000000000 ) ) ;
#226 = ORIENTED_EDGE ( 'NONE', *, *, #37, .T. ) ;
#227 = CARTESIAN_POINT ( 'NONE',  ( 1.316288464743861212E-13, -4.616918432785521081E-15, 37.69999999999999574 ) ) ;
#228 = VERTEX_POINT ( 'NONE', #48 ) ;
#229 = EDGE_CURVE ( 'NONE', #264, #264, #148, .T. ) ;
#230 = FACE_OUTER_BOUND ( 'NONE', #103, .T. ) ;
#231 = CARTESIAN_POINT ( 'NONE',  ( 5.358479882634335789E-14, -1.879501735712543302E-15, 15.34729635533384595 ) ) ;
#232 = ORIENTED_EDGE ( 'NONE', *, *, #229, .T. ) ;
#233 = DIRECTION ( 'NONE',  ( -3.491481338843133355E-15, 1.224646799147353207E-16, -1.000000000000000000 ) ) ;
#234 = LOCAL_TIME ( 11, 40, 27.00000000000000000, #216 ) ;
#235 = FACE_OUTER_BOUND ( 'NONE', #88, .T. ) ;
#236 = DIRECTION ( 'NONE',  ( 3.491481338843133355E-15, -1.224646799147353207E-16, 1.000000000000000000 ) ) ;
#237 = CARTESIAN_POINT ( 'NONE',  ( 5.237222008264700033E-14, 0.6399999999999982370, 15.00000000000000000 ) ) ;
#238 = CC_DESIGN_DATE_AND_TIME_ASSIGNMENT ( #89, #18, ( #79 ) ) ;
#239 = EDGE_LOOP ( 'NONE', ( #294 ) ) ;
#240 = APPROVAL_DATE_TIME ( #85, #12 ) ;
#241 = EDGE_CURVE ( 'NONE', #24, #24, #257, .T. ) ;
#242 = DIRECTION ( 'NONE',  ( -3.491481338843133355E-15, 1.224646799147353207E-16, -1.000000000000000000 ) ) ;
#243 = CALENDAR_DATE ( 2021, 1, 12 ) ;
#244 = PERSON ( 'UNSPECIFIED', 'UNSPECIFIED', 'UNSPECIFIED', ('UNSPECIFIED'), ('UNSPECIFIED'), ('UNSPECIFIED') ) ;
#245 = CYLINDRICAL_SURFACE ( 'NONE', #292, 0.7299999999999995381 ) ;
#246 = CARTESIAN_POINT ( 'NONE',  ( 7.001216034561318911E-14, 1.499999999999995559, 20.05227969192325688 ) ) ;
#247 = EDGE_CURVE ( 'NONE', #57, #57, #29, .T. ) ;
#248 = DIRECTION ( 'NONE',  ( 4.275831445896958607E-31, 1.000000000000000000, 1.224646799147353207E-16 ) ) ;
#249 = FACE_OUTER_BOUND ( 'NONE', #93, .T. ) ;
#250 = CARTESIAN_POINT ( 'NONE',  ( 2.444036937190193349E-14, 0.7299999999999990941, 7.000000000000000000 ) ) ;
#251 = EDGE_LOOP ( 'NONE', ( #90 ) ) ;
#252 = DIRECTION ( 'NONE',  ( 4.275831445896958607E-31, 1.000000000000000000, 1.224646799147353207E-16 ) ) ;
#253 = PRODUCT_RELATED_PRODUCT_CATEGORY ( 'detail', '', ( #287 ) ) ;
#254 = ORIENTED_EDGE ( 'NONE', *, *, #229, .F. ) ;
#255 = AXIS2_PLACEMENT_3D ( 'NONE', #114, #52, #281 ) ;
#256 = DIRECTION ( 'NONE',  ( 4.275831445896958607E-31, 1.000000000000000000, 1.224646799147353207E-16 ) ) ;
#257 = CIRCLE ( 'NONE', #156, 0.7299999999999999822 ) ;
#258 = AXIS2_PLACEMENT_3D ( 'NONE', #219, #16, #106 ) ;
#259 = CONICAL_SURFACE ( 'NONE', #278, 1.499999999999997780, 0.1745329251994260367 ) ;
#260 = CALENDAR_DATE ( 2021, 1, 12 ) ;
#261 = ORIENTED_EDGE ( 'NONE', *, *, #166, .T. ) ;
#262 = SECURITY_CLASSIFICATION_LEVEL ( 'unclassified' ) ;
#263 = EDGE_CURVE ( 'NONE', #215, #215, #20, .T. ) ;
#264 = VERTEX_POINT ( 'NONE', #168 ) ;
#265 = CARTESIAN_POINT ( 'NONE',  ( 2.444036937190193349E-14, -8.572527594031473190E-16, 7.000000000000000000 ) ) ;
#266 = CALENDAR_DATE ( 2021, 1, 12 ) ;
#267 = FACE_OUTER_BOUND ( 'NONE', #218, .T. ) ;
#268 = DATE_AND_TIME ( #243, #269 ) ;
#269 = LOCAL_TIME ( 11, 40, 27.00000000000000000, #291 ) ;
#270 = SHAPE_DEFINITION_REPRESENTATION ( #44, #193 ) ;
#271 = AXIS2_PLACEMENT_3D ( 'NONE', #199, #70, #154 ) ;
#272 = ORIENTED_EDGE ( 'NONE', *, *, #241, .T. ) ;
#273 = CARTESIAN_POINT ( 'NONE',  ( 0.0000000000000000000, 0.0000000000000000000, 0.0000000000000000000 ) ) ;
#274 = DIRECTION ( 'NONE',  ( 3.491481338843133355E-15, -1.224646799147353207E-16, 1.000000000000000000 ) ) ;
#275 = CIRCLE ( 'NONE', #54, 1.500000000000003331 ) ;
#276 = ORIENTED_EDGE ( 'NONE', *, *, #27, .T. ) ;
#277 = AXIS2_PLACEMENT_3D ( 'NONE', #74, #47, #252 ) ;
#278 = AXIS2_PLACEMENT_3D ( 'NONE', #95, #274, #207 ) ;
#279 = DIRECTION ( 'NONE',  ( -4.275831445896958607E-31, -1.000000000000000000, -1.224646799147353207E-16 ) ) ;
#280 = CIRCLE ( 'NONE', #66, 1.200000000000003286 ) ;
#281 = DIRECTION ( 'NONE',  ( -5.276520395581474893E-31, -1.000000000000000000, -1.485208455459597030E-16 ) ) ;
#282 = DIRECTION ( 'NONE',  ( -3.491481338843133355E-15, 1.224646799147353207E-16, -1.000000000000000000 ) ) ;
#283 = APPROVAL_PERSON_ORGANIZATION ( #151, #117, #220 ) ;
#284 = UNCERTAINTY_MEASURE_WITH_UNIT (LENGTH_MEASURE( 1.000000000000000082E-05 ), #212, 'distance_accuracy_value', 'NONE');
#285 = ADVANCED_FACE ( 'NONE', ( #23 ), #140, .F. ) ;
#286 = AXIS2_PLACEMENT_3D ( 'NONE', #172, #60, #65 ) ;
#287 = PRODUCT ( '327031', '327031', '', ( #169 ) ) ;
#288 = APPROVAL_ROLE ( '' ) ;
#289 = CARTESIAN_POINT ( 'NONE',  ( 8.728703347107831416E-16, -3.061616997868382402E-17, 0.2499999999999999445 ) ) ;
#290 = PERSON_AND_ORGANIZATION ( #244, #198 ) ;
#291 = COORDINATED_UNIVERSAL_TIME_OFFSET ( 1, 0, .AHEAD. ) ;
#292 = AXIS2_PLACEMENT_3D ( 'NONE', #273, #91, #248 ) ;
#293 = CALENDAR_DATE ( 2021, 1, 12 ) ;
#294 = ORIENTED_EDGE ( 'NONE', *, *, #56, .T. ) ;
#295 = ADVANCED_FACE ( 'NONE', ( #230, #152 ), #32, .T. ) ;
#296 = CLOSED_SHELL ( 'NONE', ( #211, #181, #164, #213, #196, #295, #98, #285 ) ) ;
#297 = EDGE_LOOP ( 'NONE', ( #254 ) ) ;
#298 = FACE_OUTER_BOUND ( 'NONE', #58, .T. ) ;
#299 = FACE_OUTER_BOUND ( 'NONE', #131, .T. ) ;
#300 = AXIS2_PLACEMENT_3D ( 'NONE', #49, #26, #137 ) ;
#301 = ADVANCED_FACE ( 'NONE', ( #158 ), #2, .T. ) ;
#302 = APPROVAL_PERSON_ORGANIZATION ( #290, #12, #195 ) ;
#303 = CARTESIAN_POINT ( 'NONE',  ( 2.444036937190193349E-14, -8.572527594031473190E-16, 7.000000000000000000 ) ) ;
ENDSEC;
END-ISO-10303-21;
