ISO-10303-21;
HEADER;
FILE_DESCRIPTION (( 'STEP AP203' ),
    '1' );
FILE_NAME ('327030.step',
    '2021-12-01T10:40:26',
    ( '' ),
    ( '' ),
    'SwSTEP 2.0',
    'SolidWorks 2019',
    '' );
FILE_SCHEMA (( 'CONFIG_CONTROL_DESIGN' ));
ENDSEC;

DATA;
#1 = CYLINDRICAL_SURFACE ( 'NONE', #288, 0.6349999999999996758 ) ;
#2 = CARTESIAN_POINT ( 'NONE',  ( 1.326762908760390423E-13, 8.998558695971103225E-33, 38.00000000000000000 ) ) ;
#3 = FACE_OUTER_BOUND ( 'NONE', #94, .T. ) ;
#4 = AXIS2_PLACEMENT_3D ( 'NONE', #41, #21, #161 ) ;
#5 = PERSON_AND_ORGANIZATION ( #45, #145 ) ;
#6 = APPROVAL_PERSON_ORGANIZATION ( #167, #205, #34 ) ;
#7 = CALENDAR_DATE ( 2021, 1, 12 ) ;
#8 = COORDINATED_UNIVERSAL_TIME_OFFSET ( 1, 0, .AHEAD. ) ;
#9 = CARTESIAN_POINT ( 'NONE',  ( 2.444036937190193349E-14, 5.399135217582674798E-33, 7.000000000000000000 ) ) ;
#10 = ADVANCED_FACE ( 'NONE', ( #271, #226 ), #68, .T. ) ;
#11 = AXIS2_PLACEMENT_3D ( 'NONE', #278, #53, #185 ) ;
#12 = LOCAL_TIME ( 11, 40, 26.00000000000000000, #216 ) ;
#13 = APPROVAL_DATE_TIME ( #103, #236 ) ;
#14 = DIRECTION ( 'NONE',  ( 0.0000000000000000000, 0.0000000000000000000, 1.000000000000000000 ) ) ;
#15 = CARTESIAN_POINT ( 'NONE',  ( 2.495440033306911238E-14, 0.6349999999999982325, 7.147224318643358387 ) ) ;
#16 = PERSON_AND_ORGANIZATION_ROLE ( 'design_supplier' ) ;
#17 = CC_DESIGN_PERSON_AND_ORGANIZATION_ASSIGNMENT ( #197, #156, ( #64 ) ) ;
#18 = EDGE_LOOP ( 'NONE', ( #157 ) ) ;
#19 = ORIENTED_EDGE ( 'NONE', *, *, #275, .T. ) ;
#20 = CC_DESIGN_APPROVAL ( #205, ( #48 ) ) ;
#21 = DIRECTION ( 'NONE',  ( -3.491481338843133355E-15, 1.224646799147353207E-16, -1.000000000000000000 ) ) ;
#22 = CC_DESIGN_PERSON_AND_ORGANIZATION_ASSIGNMENT ( #178, #91, ( #211 ) ) ;
#23 = DIRECTION ( 'NONE',  ( 5.349805401075662251E-31, 1.000000000000000000, 1.505836350674313713E-16 ) ) ;
#24 = FACE_OUTER_BOUND ( 'NONE', #246, .T. ) ;
#25 = CIRCLE ( 'NONE', #273, 0.6350000000000002309 ) ;
#26 = DIRECTION ( 'NONE',  ( 4.275831445896958607E-31, 1.000000000000000000, 1.224646799147353207E-16 ) ) ;
#27 = DIRECTION ( 'NONE',  ( 4.275831445896958607E-31, 1.000000000000000000, 1.224646799147353207E-16 ) ) ;
#28 = DIRECTION ( 'NONE',  ( 1.000000000000000000, 0.0000000000000000000, 0.0000000000000000000 ) ) ;
#29 = PERSON_AND_ORGANIZATION_ROLE ( 'creator' ) ;
#30 = DIRECTION ( 'NONE',  ( -3.491481338843133355E-15, 1.224646799147353207E-16, -1.000000000000000000 ) ) ;
#31 = EDGE_CURVE ( 'NONE', #177, #177, #76, .T. ) ;
#32 = VERTEX_POINT ( 'NONE', #126 ) ;
#33 = DATE_TIME_ROLE ( 'classification_date' ) ;
#34 = APPROVAL_ROLE ( '' ) ;
#35 = CIRCLE ( 'NONE', #173, 0.7199999999999999734 ) ;
#36 = DIRECTION ( 'NONE',  ( 3.491481338843133355E-15, -1.224646799147353207E-16, 1.000000000000000000 ) ) ;
#37 = CALENDAR_DATE ( 2021, 1, 12 ) ;
#38 = ADVANCED_FACE ( 'NONE', ( #55, #256 ), #302, .T. ) ;
#39 = AXIS2_PLACEMENT_3D ( 'NONE', #210, #149, #51 ) ;
#40 = AXIS2_PLACEMENT_3D ( 'NONE', #171, #129, #130 ) ;
#41 = CARTESIAN_POINT ( 'NONE',  ( 2.444036937190193349E-14, -8.572527594031473190E-16, 7.000000000000000000 ) ) ;
#42 = EDGE_CURVE ( 'NONE', #224, #224, #109, .T. ) ;
#43 = EDGE_LOOP ( 'NONE', ( #252 ) ) ;
#44 = ORIENTED_EDGE ( 'NONE', *, *, #193, .F. ) ;
#45 = PERSON ( 'UNSPECIFIED', 'UNSPECIFIED', 'UNSPECIFIED', ('UNSPECIFIED'), ('UNSPECIFIED'), ('UNSPECIFIED') ) ;
#46 = AXIS2_PLACEMENT_3D ( 'NONE', #2, #301, #27 ) ;
#47 = CARTESIAN_POINT ( 'NONE',  ( 0.0000000000000000000, 0.0000000000000000000, 0.0000000000000000000 ) ) ;
#48 = PRODUCT_DEFINITION ( 'UNKNOWN', '', #211, #230 ) ;
#49 = FACE_OUTER_BOUND ( 'NONE', #43, .T. ) ;
#50 = DIRECTION ( 'NONE',  ( -4.275831445896958607E-31, -1.000000000000000000, -1.224646799147353207E-16 ) ) ;
#51 = DIRECTION ( 'NONE',  ( 0.0000000000000000000, 1.000000000000000000, 0.0000000000000000000 ) ) ;
#52 = CC_DESIGN_DATE_AND_TIME_ASSIGNMENT ( #263, #124, ( #48 ) ) ;
#53 = DIRECTION ( 'NONE',  ( -3.491481338843133355E-15, 1.224646799147353207E-16, -1.000000000000000000 ) ) ;
#54 = CALENDAR_DATE ( 2021, 1, 12 ) ;
#55 = FACE_OUTER_BOUND ( 'NONE', #179, .T. ) ;
#56 =( NAMED_UNIT ( * ) PLANE_ANGLE_UNIT ( ) SI_UNIT ( $, .RADIAN. ) );
#57 = CARTESIAN_POINT ( 'NONE',  ( 5.358479882634335789E-14, 0.6653844939755806376, 15.34729635533384595 ) ) ;
#58 = APPROVAL_STATUS ( 'not_yet_approved' ) ;
#59 = AXIS2_PLACEMENT_3D ( 'NONE', #146, #97, #276 ) ;
#60 = APPROVAL_PERSON_ORGANIZATION ( #100, #236, #132 ) ;
#61 = PLANE ( 'NONE',  #111 ) ;
#62 = MECHANICAL_CONTEXT ( 'NONE', #72, 'mechanical' ) ;
#63 = FACE_OUTER_BOUND ( 'NONE', #225, .T. ) ;
#64 = PRODUCT ( '327030', '327030', '', ( #62 ) ) ;
#65 = CARTESIAN_POINT ( 'NONE',  ( 2.444036937190193349E-14, 0.7199999999999990852, 7.000000000000000000 ) ) ;
#66 = EDGE_LOOP ( 'NONE', ( #251 ) ) ;
#67 = PERSON_AND_ORGANIZATION ( #45, #145 ) ;
#68 = CYLINDRICAL_SURFACE ( 'NONE', #144, 0.7199999999999995293 ) ;
#69 = ADVANCED_BREP_SHAPE_REPRESENTATION ( '327030', ( #277, #83, #187 ), #147 ) ;
#70 = DIRECTION ( 'NONE',  ( 4.275831445896958607E-31, 1.000000000000000000, 1.224646799147353207E-16 ) ) ;
#71 = ADVANCED_FACE ( 'NONE', ( #213 ), #148, .F. ) ;
#72 = APPLICATION_CONTEXT ( 'configuration controlled 3d designs of mechanical parts and assemblies' ) ;
#73 = DIRECTION ( 'NONE',  ( 3.491481338843133355E-15, -1.224646799147353207E-16, 1.000000000000000000 ) ) ;
#74 = DIRECTION ( 'NONE',  ( -3.491481338843133355E-15, 1.224646799147353207E-16, -1.000000000000000000 ) ) ;
#75 = CARTESIAN_POINT ( 'NONE',  ( 5.237222008264700033E-14, -1.836970198721029589E-15, 15.00000000000000000 ) ) ;
#76 = CIRCLE ( 'NONE', #4, 0.7199999999999999734 ) ;
#77 = CC_DESIGN_APPROVAL ( #297, ( #211 ) ) ;
#78 = FACE_OUTER_BOUND ( 'NONE', #18, .T. ) ;
#79 = CARTESIAN_POINT ( 'NONE',  ( 5.237222008264700033E-14, 0.6349999999999984546, 15.00000000000000000 ) ) ;
#80 = CC_DESIGN_PERSON_AND_ORGANIZATION_ASSIGNMENT ( #243, #29, ( #48 ) ) ;
#81 = DATE_AND_TIME ( #7, #12 ) ;
#82 = AXIS2_PLACEMENT_3D ( 'NONE', #287, #30, #105 ) ;
#83 = MANIFOLD_SOLID_BREP ( 'Corps-Déplacer/Copier1[2]', #92 ) ;
#84 = CARTESIAN_POINT ( 'NONE',  ( 1.316288464743861212E-13, -4.616918432785521081E-15, 37.69999999999999574 ) ) ;
#85 = PRODUCT_DEFINITION_SHAPE ( 'NONE', 'NONE',  #48 ) ;
#86 = AXIS2_PLACEMENT_3D ( 'NONE', #219, #36, #134 ) ;
#87 = PERSON_AND_ORGANIZATION ( #45, #145 ) ;
#88 = ORIENTED_EDGE ( 'NONE', *, *, #31, .T. ) ;
#89 = ADVANCED_FACE ( 'NONE', ( #3, #299 ), #233, .T. ) ;
#90 = ORIENTED_EDGE ( 'NONE', *, *, #300, .F. ) ;
#91 = PERSON_AND_ORGANIZATION_ROLE ( 'creator' ) ;
#92 = CLOSED_SHELL ( 'NONE', ( #71, #253, #10, #231 ) ) ;
#93 = AXIS2_PLACEMENT_3D ( 'NONE', #244, #153, #242 ) ;
#94 = EDGE_LOOP ( 'NONE', ( #227 ) ) ;
#95 = ORIENTED_EDGE ( 'NONE', *, *, #162, .T. ) ;
#96 = CARTESIAN_POINT ( 'NONE',  ( 2.444036937190193349E-14, -8.572527594031473190E-16, 7.000000000000000000 ) ) ;
#97 = DIRECTION ( 'NONE',  ( -3.491481338843133355E-15, 1.224646799147353207E-16, -1.000000000000000000 ) ) ;
#98 = DIRECTION ( 'NONE',  ( -3.491481338843133355E-15, 1.224646799147353207E-16, -1.000000000000000000 ) ) ;
#99 = DIRECTION ( 'NONE',  ( -3.491481338843133355E-15, 1.224646799147353207E-16, -1.000000000000000000 ) ) ;
#100 = PERSON_AND_ORGANIZATION ( #45, #145 ) ;
#101 = VERTEX_POINT ( 'NONE', #261 ) ;
#102 = ADVANCED_FACE ( 'NONE', ( #121, #212 ), #294, .F. ) ;
#103 = DATE_AND_TIME ( #37, #176 ) ;
#104 = VERTEX_POINT ( 'NONE', #174 ) ;
#105 = DIRECTION ( 'NONE',  ( 0.0000000000000000000, 1.000000000000000000, 0.0000000000000000000 ) ) ;
#106 = SHAPE_DEFINITION_REPRESENTATION ( #85, #69 ) ;
#107 = FACE_OUTER_BOUND ( 'NONE', #143, .T. ) ;
#108 = AXIS2_PLACEMENT_3D ( 'NONE', #169, #151, #118 ) ;
#109 = CIRCLE ( 'NONE', #11, 0.6349999999999990097 ) ;
#110 = SECURITY_CLASSIFICATION_LEVEL ( 'unclassified' ) ;
#111 = AXIS2_PLACEMENT_3D ( 'NONE', #9, #262, #264 ) ;
#112 = CC_DESIGN_PERSON_AND_ORGANIZATION_ASSIGNMENT ( #67, #16, ( #211 ) ) ;
#113 = ORIENTED_EDGE ( 'NONE', *, *, #42, .F. ) ;
#114 = ORIENTED_EDGE ( 'NONE', *, *, #31, .F. ) ;
#115 = EDGE_LOOP ( 'NONE', ( #160 ) ) ;
#116 = ORIENTED_EDGE ( 'NONE', *, *, #42, .T. ) ;
#117 = ADVANCED_FACE ( 'NONE', ( #49 ), #190, .F. ) ;
#118 = DIRECTION ( 'NONE',  ( -5.349805401075662251E-31, -1.000000000000000000, -1.505836350674313713E-16 ) ) ;
#119 = DIRECTION ( 'NONE',  ( -3.491481338843133355E-15, 1.224646799147353207E-16, -1.000000000000000000 ) ) ;
#120 = APPROVAL_PERSON_ORGANIZATION ( #5, #297, #141 ) ;
#121 = FACE_OUTER_BOUND ( 'NONE', #208, .T. ) ;
#122 = DIRECTION ( 'NONE',  ( 0.0000000000000000000, 1.000000000000000000, 0.0000000000000000000 ) ) ;
#123 = DIRECTION ( 'NONE',  ( -3.491481338843133355E-15, 1.224646799147353207E-16, -1.000000000000000000 ) ) ;
#124 = DATE_TIME_ROLE ( 'creation_date' ) ;
#125 = CIRCLE ( 'NONE', #138, 0.5756624327025946508 ) ;
#126 = CARTESIAN_POINT ( 'NONE',  ( 7.011116621881576082E-14, 1.499999999999995559, 20.08063610102134433 ) ) ;
#127 = EDGE_CURVE ( 'NONE', #152, #152, #254, .T. ) ;
#128 = FACE_BOUND ( 'NONE', #204, .T. ) ;
#129 = DIRECTION ( 'NONE',  ( -3.491481338843133355E-15, 1.224646799147353207E-16, -1.000000000000000000 ) ) ;
#130 = DIRECTION ( 'NONE',  ( 0.0000000000000000000, 1.000000000000000000, 0.0000000000000000000 ) ) ;
#131 = CLOSED_SHELL ( 'NONE', ( #285, #290, #136, #102, #266, #89, #38, #117 ) ) ;
#132 = APPROVAL_ROLE ( '' ) ;
#133 = COORDINATED_UNIVERSAL_TIME_OFFSET ( 1, 0, .AHEAD. ) ;
#134 = DIRECTION ( 'NONE',  ( 0.0000000000000000000, -1.000000000000000000, 0.0000000000000000000 ) ) ;
#135 = DATE_AND_TIME ( #250, #296 ) ;
#136 = ADVANCED_FACE ( 'NONE', ( #24, #237 ), #1, .T. ) ;
#137 = EDGE_LOOP ( 'NONE', ( #44 ) ) ;
#138 = AXIS2_PLACEMENT_3D ( 'NONE', #214, #99, #260 ) ;
#139 = CIRCLE ( 'NONE', #229, 0.7199999999999990852 ) ;
#140 = ORIENTED_EDGE ( 'NONE', *, *, #127, .T. ) ;
#141 = APPROVAL_ROLE ( '' ) ;
#142 = EDGE_LOOP ( 'NONE', ( #88 ) ) ;
#143 = EDGE_LOOP ( 'NONE', ( #114 ) ) ;
#144 = AXIS2_PLACEMENT_3D ( 'NONE', #47, #158, #248 ) ;
#145 = ORGANIZATION ( 'UNSPECIFIED', 'UNSPECIFIED', '' ) ;
#146 = CARTESIAN_POINT ( 'NONE',  ( 5.358479882634335789E-14, -1.879501735712543302E-15, 15.34729635533384595 ) ) ;
#147 =( GEOMETRIC_REPRESENTATION_CONTEXT ( 3 ) GLOBAL_UNCERTAINTY_ASSIGNED_CONTEXT ( ( #234 ) ) GLOBAL_UNIT_ASSIGNED_CONTEXT ( ( #217, #56, #170 ) ) REPRESENTATION_CONTEXT ( 'NONE', 'WORKASPACE' ) );
#148 = PLANE ( 'NONE',  #175 ) ;
#149 = DIRECTION ( 'NONE',  ( -3.491481338843133355E-15, 1.224646799147353207E-16, -1.000000000000000000 ) ) ;
#150 = APPROVAL_DATE_TIME ( #241, #205 ) ;
#151 = DIRECTION ( 'NONE',  ( 3.491481338843133355E-15, -1.224646799147353207E-16, 1.000000000000000000 ) ) ;
#152 = VERTEX_POINT ( 'NONE', #57 ) ;
#153 = DIRECTION ( 'NONE',  ( -3.491481338843133355E-15, 1.224646799147353207E-16, -1.000000000000000000 ) ) ;
#154 = AXIS2_PLACEMENT_3D ( 'NONE', #84, #286, #289 ) ;
#155 = CARTESIAN_POINT ( 'NONE',  ( 0.0000000000000000000, 0.0000000000000000000, 0.0000000000000000000 ) ) ;
#156 = PERSON_AND_ORGANIZATION_ROLE ( 'design_owner' ) ;
#157 = ORIENTED_EDGE ( 'NONE', *, *, #193, .T. ) ;
#158 = DIRECTION ( 'NONE',  ( -3.491481338843133355E-15, 1.224646799147353207E-16, -1.000000000000000000 ) ) ;
#159 = LOCAL_TIME ( 11, 40, 26.00000000000000000, #8 ) ;
#160 = ORIENTED_EDGE ( 'NONE', *, *, #184, .F. ) ;
#161 = DIRECTION ( 'NONE',  ( 0.0000000000000000000, 1.000000000000000000, 0.0000000000000000000 ) ) ;
#162 = EDGE_CURVE ( 'NONE', #199, #199, #125, .T. ) ;
#163 = FACE_OUTER_BOUND ( 'NONE', #115, .T. ) ;
#164 = CARTESIAN_POINT ( 'NONE',  ( 8.728703347107831416E-16, -3.061616997868382402E-17, 0.2499999999999999445 ) ) ;
#165 = CC_DESIGN_SECURITY_CLASSIFICATION ( #284, ( #211 ) ) ;
#166 = PLANE ( 'NONE',  #235 ) ;
#167 = PERSON_AND_ORGANIZATION ( #45, #145 ) ;
#168 = CC_DESIGN_PERSON_AND_ORGANIZATION_ASSIGNMENT ( #87, #220, ( #284 ) ) ;
#169 = CARTESIAN_POINT ( 'NONE',  ( 8.728703347107831416E-16, -3.061616997868382402E-17, 0.2499999999999999445 ) ) ;
#170 =( NAMED_UNIT ( * ) SI_UNIT ( $, .STERADIAN. ) SOLID_ANGLE_UNIT ( ) );
#171 = CARTESIAN_POINT ( 'NONE',  ( 7.011116621881576082E-14, -2.459168672595857175E-15, 20.08063610102134433 ) ) ;
#172 = CONICAL_SURFACE ( 'NONE', #82, 0.6349999999999990097, 0.5235987755982937086 ) ;
#173 = AXIS2_PLACEMENT_3D ( 'NONE', #96, #74, #122 ) ;
#174 = CARTESIAN_POINT ( 'NONE',  ( 8.728703347107835360E-16, 0.7199999999999990852, 0.2500000000000000555 ) ) ;
#175 = AXIS2_PLACEMENT_3D ( 'NONE', #272, #73, #50 ) ;
#176 = LOCAL_TIME ( 11, 40, 26.00000000000000000, #196 ) ;
#177 = VERTEX_POINT ( 'NONE', #65 ) ;
#178 = PERSON_AND_ORGANIZATION ( #45, #145 ) ;
#179 = EDGE_LOOP ( 'NONE', ( #90 ) ) ;
#180 = ORIENTED_EDGE ( 'NONE', *, *, #127, .F. ) ;
#181 = AXIS2_PLACEMENT_3D ( 'NONE', #258, #238, #70 ) ;
#182 = ORIENTED_EDGE ( 'NONE', *, *, #218, .F. ) ;
#183 = EDGE_LOOP ( 'NONE', ( #293 ) ) ;
#184 = EDGE_CURVE ( 'NONE', #189, #189, #35, .T. ) ;
#185 = DIRECTION ( 'NONE',  ( 0.0000000000000000000, 1.000000000000000000, 0.0000000000000000000 ) ) ;
#186 = AXIS2_PLACEMENT_3D ( 'NONE', #191, #188, #257 ) ;
#187 = AXIS2_PLACEMENT_3D ( 'NONE', #155, #14, #28 ) ;
#188 = DIRECTION ( 'NONE',  ( -3.491481338843133355E-15, 1.224646799147353207E-16, -1.000000000000000000 ) ) ;
#189 = VERTEX_POINT ( 'NONE', #228 ) ;
#190 = PLANE ( 'NONE',  #46 ) ;
#191 = CARTESIAN_POINT ( 'NONE',  ( 5.237222008264700033E-14, -1.734723475976807094E-15, 15.00000000000000000 ) ) ;
#192 = CARTESIAN_POINT ( 'NONE',  ( 1.326762908760390423E-13, 1.199999999999998845, 38.00000000000000000 ) ) ;
#193 = EDGE_CURVE ( 'NONE', #104, #104, #139, .T. ) ;
#194 = DIRECTION ( 'NONE',  ( -4.275831445896958607E-31, -1.000000000000000000, -1.224646799147353207E-16 ) ) ;
#195 = APPROVAL_STATUS ( 'not_yet_approved' ) ;
#196 = COORDINATED_UNIVERSAL_TIME_OFFSET ( 1, 0, .AHEAD. ) ;
#197 = PERSON_AND_ORGANIZATION ( #45, #145 ) ;
#198 = CC_DESIGN_APPROVAL ( #236, ( #284 ) ) ;
#199 = VERTEX_POINT ( 'NONE', #270 ) ;
#200 = APPLICATION_PROTOCOL_DEFINITION ( 'international standard', 'config_control_design', 1994, #72 ) ;
#201 = EDGE_LOOP ( 'NONE', ( #180 ) ) ;
#202 = ORIENTED_EDGE ( 'NONE', *, *, #218, .T. ) ;
#203 = COORDINATED_UNIVERSAL_TIME_OFFSET ( 1, 0, .AHEAD. ) ;
#204 = EDGE_LOOP ( 'NONE', ( #116 ) ) ;
#205 = APPROVAL ( #281, 'UNSPECIFIED' ) ;
#206 = EDGE_LOOP ( 'NONE', ( #202 ) ) ;
#207 = CIRCLE ( 'NONE', #40, 1.499999999999997780 ) ;
#208 = EDGE_LOOP ( 'NONE', ( #182 ) ) ;
#209 = FACE_BOUND ( 'NONE', #201, .T. ) ;
#210 = CARTESIAN_POINT ( 'NONE',  ( 1.326762908760390423E-13, -4.653657836759941941E-15, 38.00000000000000000 ) ) ;
#211 = PRODUCT_DEFINITION_FORMATION_WITH_SPECIFIED_SOURCE ( 'ANY', '', #64, .NOT_KNOWN. ) ;
#212 = FACE_OUTER_BOUND ( 'NONE', #292, .T. ) ;
#213 = FACE_OUTER_BOUND ( 'NONE', #267, .T. ) ;
#214 = CARTESIAN_POINT ( 'NONE',  ( -2.461435531971296149E-31, 8.633553649566397238E-33, -7.049831555986112400E-17 ) ) ;
#215 = CONICAL_SURFACE ( 'NONE', #86, 1.499999999999997780, 0.1745329251994258701 ) ;
#216 = COORDINATED_UNIVERSAL_TIME_OFFSET ( 1, 0, .AHEAD. ) ;
#217 =( LENGTH_UNIT ( ) NAMED_UNIT ( * ) SI_UNIT ( .MILLI., .METRE. ) );
#218 = EDGE_CURVE ( 'NONE', #239, #239, #25, .T. ) ;
#219 = CARTESIAN_POINT ( 'NONE',  ( 7.011116621881576082E-14, -2.459168672595857175E-15, 20.08063610102134433 ) ) ;
#220 = PERSON_AND_ORGANIZATION_ROLE ( 'classification_officer' ) ;
#221 = CALENDAR_DATE ( 2021, 1, 12 ) ;
#222 = FACE_OUTER_BOUND ( 'NONE', #142, .T. ) ;
#223 = PRODUCT_RELATED_PRODUCT_CATEGORY ( 'detail', '', ( #64 ) ) ;
#224 = VERTEX_POINT ( 'NONE', #15 ) ;
#225 = EDGE_LOOP ( 'NONE', ( #19 ) ) ;
#226 = FACE_OUTER_BOUND ( 'NONE', #265, .T. ) ;
#227 = ORIENTED_EDGE ( 'NONE', *, *, #275, .F. ) ;
#228 = CARTESIAN_POINT ( 'NONE',  ( 2.444036937190193349E-14, 0.7199999999999990852, 7.000000000000000000 ) ) ;
#229 = AXIS2_PLACEMENT_3D ( 'NONE', #164, #98, #23 ) ;
#230 = DESIGN_CONTEXT ( 'detailed design', #268, 'design' ) ;
#231 = ADVANCED_FACE ( 'NONE', ( #163 ), #166, .T. ) ;
#232 = CARTESIAN_POINT ( 'NONE',  ( 0.0000000000000000000, 0.0000000000000000000, 0.0000000000000000000 ) ) ;
#233 = CYLINDRICAL_SURFACE ( 'NONE', #181, 1.500000000000000444 ) ;
#234 = UNCERTAINTY_MEASURE_WITH_UNIT (LENGTH_MEASURE( 1.000000000000000082E-05 ), #217, 'distance_accuracy_value', 'NONE');
#235 = AXIS2_PLACEMENT_3D ( 'NONE', #240, #259, #194 ) ;
#236 = APPROVAL ( #58, 'UNSPECIFIED' ) ;
#237 = FACE_OUTER_BOUND ( 'NONE', #206, .T. ) ;
#238 = DIRECTION ( 'NONE',  ( -3.491481338843133355E-15, 1.224646799147353207E-16, -1.000000000000000000 ) ) ;
#239 = VERTEX_POINT ( 'NONE', #79 ) ;
#240 = CARTESIAN_POINT ( 'NONE',  ( 2.444036937190193349E-14, 5.399135217582674798E-33, 7.000000000000000000 ) ) ;
#241 = DATE_AND_TIME ( #54, #159 ) ;
#242 = DIRECTION ( 'NONE',  ( 0.0000000000000000000, 1.000000000000000000, 0.0000000000000000000 ) ) ;
#243 = PERSON_AND_ORGANIZATION ( #45, #145 ) ;
#244 = CARTESIAN_POINT ( 'NONE',  ( 1.326762908760390423E-13, -4.653657836759941941E-15, 38.00000000000000000 ) ) ;
#245 = APPLICATION_PROTOCOL_DEFINITION ( 'international standard', 'config_control_design', 1994, #268 ) ;
#246 = EDGE_LOOP ( 'NONE', ( #113 ) ) ;
#247 = CC_DESIGN_DATE_AND_TIME_ASSIGNMENT ( #81, #33, ( #284 ) ) ;
#248 = DIRECTION ( 'NONE',  ( 4.275831445896958607E-31, 1.000000000000000000, 1.224646799147353207E-16 ) ) ;
#249 = CIRCLE ( 'NONE', #93, 1.200000000000003286 ) ;
#250 = CALENDAR_DATE ( 2021, 1, 12 ) ;
#251 = ORIENTED_EDGE ( 'NONE', *, *, #300, .T. ) ;
#252 = ORIENTED_EDGE ( 'NONE', *, *, #282, .F. ) ;
#253 = ADVANCED_FACE ( 'NONE', ( #280, #78 ), #255, .T. ) ;
#254 = CIRCLE ( 'NONE', #59, 0.6653844939755825250 ) ;
#255 = CONICAL_SURFACE ( 'NONE', #108, 0.7199999999999990852, 0.5235987755982927094 ) ;
#256 = FACE_BOUND ( 'NONE', #298, .T. ) ;
#257 = DIRECTION ( 'NONE',  ( 4.275831445896958607E-31, 1.000000000000000000, 1.224646799147353207E-16 ) ) ;
#258 = CARTESIAN_POINT ( 'NONE',  ( 0.0000000000000000000, 0.0000000000000000000, 0.0000000000000000000 ) ) ;
#259 = DIRECTION ( 'NONE',  ( 3.491481338843133355E-15, -1.224646799147353207E-16, 1.000000000000000000 ) ) ;
#260 = DIRECTION ( 'NONE',  ( 4.275831445896958607E-31, 1.000000000000000000, 1.224646799147353454E-16 ) ) ;
#261 = CARTESIAN_POINT ( 'NONE',  ( 1.316288464743861212E-13, 1.499999999999998668, 37.69999999999999574 ) ) ;
#262 = DIRECTION ( 'NONE',  ( 3.491481338843133355E-15, -1.224646799147353207E-16, 1.000000000000000000 ) ) ;
#263 = DATE_AND_TIME ( #221, #279 ) ;
#264 = DIRECTION ( 'NONE',  ( -4.275831445896958607E-31, -1.000000000000000000, -1.224646799147353207E-16 ) ) ;
#265 = EDGE_LOOP ( 'NONE', ( #269 ) ) ;
#266 = ADVANCED_FACE ( 'NONE', ( #209, #63 ), #215, .T. ) ;
#267 = EDGE_LOOP ( 'NONE', ( #95 ) ) ;
#268 = APPLICATION_CONTEXT ( 'configuration controlled 3d designs of mechanical parts and assemblies' ) ;
#269 = ORIENTED_EDGE ( 'NONE', *, *, #184, .T. ) ;
#270 = CARTESIAN_POINT ( 'NONE',  ( 0.0000000000000000000, 0.5756624327025946508, 0.0000000000000000000 ) ) ;
#271 = FACE_OUTER_BOUND ( 'NONE', #137, .T. ) ;
#272 = CARTESIAN_POINT ( 'NONE',  ( -1.230717765985648075E-31, 4.316776824783198619E-33, -3.524915777993056200E-17 ) ) ;
#273 = AXIS2_PLACEMENT_3D ( 'NONE', #75, #119, #274 ) ;
#274 = DIRECTION ( 'NONE',  ( 0.0000000000000000000, 1.000000000000000000, 0.0000000000000000000 ) ) ;
#275 = EDGE_CURVE ( 'NONE', #32, #32, #207, .T. ) ;
#276 = DIRECTION ( 'NONE',  ( 0.0000000000000000000, 1.000000000000000000, 0.0000000000000000000 ) ) ;
#277 = MANIFOLD_SOLID_BREP ( 'Corps-Déplacer/Copier1[1]', #131 ) ;
#278 = CARTESIAN_POINT ( 'NONE',  ( 2.495440033306911238E-14, -8.752825384614710987E-16, 7.147224318643358387 ) ) ;
#279 = LOCAL_TIME ( 11, 40, 26.00000000000000000, #133 ) ;
#280 = FACE_BOUND ( 'NONE', #183, .T. ) ;
#281 = APPROVAL_STATUS ( 'not_yet_approved' ) ;
#282 = EDGE_CURVE ( 'NONE', #283, #283, #249, .T. ) ;
#283 = VERTEX_POINT ( 'NONE', #192 ) ;
#284 = SECURITY_CLASSIFICATION ( '', '', #110 ) ;
#285 = ADVANCED_FACE ( 'NONE', ( #222 ), #61, .F. ) ;
#286 = DIRECTION ( 'NONE',  ( -3.491481338843133355E-15, 1.224646799147353207E-16, -1.000000000000000000 ) ) ;
#287 = CARTESIAN_POINT ( 'NONE',  ( 2.495440033306911238E-14, -8.752825384614710987E-16, 7.147224318643358387 ) ) ;
#288 = AXIS2_PLACEMENT_3D ( 'NONE', #232, #123, #26 ) ;
#289 = DIRECTION ( 'NONE',  ( 0.0000000000000000000, 1.000000000000000000, 0.0000000000000000000 ) ) ;
#290 = ADVANCED_FACE ( 'NONE', ( #107, #128 ), #172, .T. ) ;
#291 = APPROVAL_DATE_TIME ( #135, #297 ) ;
#292 = EDGE_LOOP ( 'NONE', ( #140 ) ) ;
#293 = ORIENTED_EDGE ( 'NONE', *, *, #162, .F. ) ;
#294 = TOROIDAL_SURFACE ( 'NONE', #186, 2.635000000000000231, 1.999999999999999556 ) ;
#295 = ORIENTED_EDGE ( 'NONE', *, *, #282, .T. ) ;
#296 = LOCAL_TIME ( 11, 40, 26.00000000000000000, #203 ) ;
#297 = APPROVAL ( #195, 'UNSPECIFIED' ) ;
#298 = EDGE_LOOP ( 'NONE', ( #295 ) ) ;
#299 = FACE_OUTER_BOUND ( 'NONE', #66, .T. ) ;
#300 = EDGE_CURVE ( 'NONE', #101, #101, #303, .T. ) ;
#301 = DIRECTION ( 'NONE',  ( -3.491481338843133355E-15, 1.224646799147353207E-16, -1.000000000000000000 ) ) ;
#302 = CONICAL_SURFACE ( 'NONE', #39, 1.200000000000003286, 0.7853981633974453924 ) ;
#303 = CIRCLE ( 'NONE', #154, 1.500000000000003331 ) ;
ENDSEC;
END-ISO-10303-21;
