ISO-10303-21;
HEADER;
FILE_DESCRIPTION (( 'STEP AP203' ),
    '1' );
FILE_NAME ('327029.step',
    '2021-12-01T10:40:26',
    ( '' ),
    ( '' ),
    'SwSTEP 2.0',
    'SolidWorks 2019',
    '' );
FILE_SCHEMA (( 'CONFIG_CONTROL_DESIGN' ));
ENDSEC;

DATA;
#1 = DATE_AND_TIME ( #277, #180 ) ;
#2 = EDGE_LOOP ( 'NONE', ( #285 ) ) ;
#3 = APPROVAL ( #24, 'UNSPECIFIED' ) ;
#4 = EDGE_CURVE ( 'NONE', #203, #203, #292, .T. ) ;
#5 = DATE_AND_TIME ( #300, #264 ) ;
#6 = AXIS2_PLACEMENT_3D ( 'NONE', #53, #175, #12 ) ;
#7 =( GEOMETRIC_REPRESENTATION_CONTEXT ( 3 ) GLOBAL_UNCERTAINTY_ASSIGNED_CONTEXT ( ( #230 ) ) GLOBAL_UNIT_ASSIGNED_CONTEXT ( ( #182, #276, #245 ) ) REPRESENTATION_CONTEXT ( 'NONE', 'WORKASPACE' ) );
#8 = EDGE_LOOP ( 'NONE', ( #170 ) ) ;
#9 = CARTESIAN_POINT ( 'NONE',  ( 1.316288464743861212E-13, -4.616918432785521081E-15, 37.69999999999999574 ) ) ;
#10 = DIRECTION ( 'NONE',  ( 0.0000000000000000000, -1.000000000000000000, 0.0000000000000000000 ) ) ;
#11 = DIRECTION ( 'NONE',  ( -4.275831445896958607E-31, -1.000000000000000000, -1.224646799147353207E-16 ) ) ;
#12 = DIRECTION ( 'NONE',  ( 4.275831445896958607E-31, 1.000000000000000000, 1.224646799147353207E-16 ) ) ;
#13 = DIRECTION ( 'NONE',  ( 0.0000000000000000000, 1.000000000000000000, 0.0000000000000000000 ) ) ;
#14 = AXIS2_PLACEMENT_3D ( 'NONE', #17, #40, #133 ) ;
#15 = DIRECTION ( 'NONE',  ( -3.491481338843133355E-15, 1.224646799147353207E-16, -1.000000000000000000 ) ) ;
#16 = CARTESIAN_POINT ( 'NONE',  ( -1.892735826383160919E-31, 0.5706624327025946464, -5.421010862427520937E-17 ) ) ;
#17 = CARTESIAN_POINT ( 'NONE',  ( 0.0000000000000000000, 0.0000000000000000000, 0.0000000000000000000 ) ) ;
#18 = CC_DESIGN_PERSON_AND_ORGANIZATION_ASSIGNMENT ( #118, #70, ( #172 ) ) ;
#19 = PERSON_AND_ORGANIZATION_ROLE ( 'creator' ) ;
#20 = DIRECTION ( 'NONE',  ( 0.0000000000000000000, 1.000000000000000000, 0.0000000000000000000 ) ) ;
#21 = DATE_AND_TIME ( #163, #106 ) ;
#22 = CIRCLE ( 'NONE', #229, 0.6350000000000002309 ) ;
#23 = ADVANCED_FACE ( 'NONE', ( #143 ), #303, .T. ) ;
#24 = APPROVAL_STATUS ( 'not_yet_approved' ) ;
#25 = APPROVAL_ROLE ( '' ) ;
#26 = EDGE_LOOP ( 'NONE', ( #168 ) ) ;
#27 = AXIS2_PLACEMENT_3D ( 'NONE', #184, #162, #100 ) ;
#28 = AXIS2_PLACEMENT_3D ( 'NONE', #63, #178, #299 ) ;
#29 = FACE_OUTER_BOUND ( 'NONE', #279, .T. ) ;
#30 = CARTESIAN_POINT ( 'NONE',  ( 2.492416321770633733E-14, -8.742219632227462517E-16, 7.138564064605513515 ) ) ;
#31 = DIRECTION ( 'NONE',  ( 3.491481338843133355E-15, -1.224646799147353207E-16, 1.000000000000000000 ) ) ;
#32 = AXIS2_PLACEMENT_3D ( 'NONE', #9, #243, #244 ) ;
#33 = AXIS2_PLACEMENT_3D ( 'NONE', #66, #294, #89 ) ;
#34 = CARTESIAN_POINT ( 'NONE',  ( 1.326762908760390423E-13, -4.653657836759941941E-15, 38.00000000000000000 ) ) ;
#35 = CC_DESIGN_PERSON_AND_ORGANIZATION_ASSIGNMENT ( #191, #19, ( #154 ) ) ;
#36 = CARTESIAN_POINT ( 'NONE',  ( 5.237222008264700033E-14, -1.836970198721029589E-15, 15.00000000000000000 ) ) ;
#37 = CARTESIAN_POINT ( 'NONE',  ( 2.444036937190193349E-14, 0.7149999999999990807, 7.000000000000000000 ) ) ;
#38 = CARTESIAN_POINT ( 'NONE',  ( 7.011116621881576082E-14, 1.499999999999995559, 20.08063610102134433 ) ) ;
#39 = AXIS2_PLACEMENT_3D ( 'NONE', #262, #49, #20 ) ;
#40 = DIRECTION ( 'NONE',  ( -3.491481338843133355E-15, 1.224646799147353207E-16, -1.000000000000000000 ) ) ;
#41 = PERSON_AND_ORGANIZATION ( #74, #226 ) ;
#42 = ORIENTED_EDGE ( 'NONE', *, *, #188, .F. ) ;
#43 = COORDINATED_UNIVERSAL_TIME_OFFSET ( 1, 0, .AHEAD. ) ;
#44 = EDGE_LOOP ( 'NONE', ( #236 ) ) ;
#45 = APPLICATION_PROTOCOL_DEFINITION ( 'international standard', 'config_control_design', 1994, #152 ) ;
#46 = LOCAL_TIME ( 11, 40, 26.00000000000000000, #282 ) ;
#47 = ORIENTED_EDGE ( 'NONE', *, *, #4, .F. ) ;
#48 = SHAPE_DEFINITION_REPRESENTATION ( #181, #217 ) ;
#49 = DIRECTION ( 'NONE',  ( -3.491481338843133355E-15, 1.224646799147353207E-16, -1.000000000000000000 ) ) ;
#50 = DIRECTION ( 'NONE',  ( 5.387216627656610840E-31, 1.000000000000000000, 1.516366674804903292E-16 ) ) ;
#51 = AXIS2_PLACEMENT_3D ( 'NONE', #102, #103, #148 ) ;
#52 = DIRECTION ( 'NONE',  ( 0.0000000000000000000, 1.000000000000000000, 0.0000000000000000000 ) ) ;
#53 = CARTESIAN_POINT ( 'NONE',  ( 0.0000000000000000000, 0.0000000000000000000, 0.0000000000000000000 ) ) ;
#54 = APPROVAL ( #235, 'UNSPECIFIED' ) ;
#55 = EDGE_CURVE ( 'NONE', #227, #227, #165, .T. ) ;
#56 = FACE_OUTER_BOUND ( 'NONE', #214, .T. ) ;
#57 = CIRCLE ( 'NONE', #51, 1.499999999999997780 ) ;
#58 = DIRECTION ( 'NONE',  ( -5.387216627656610840E-31, -1.000000000000000000, -1.516366674804903292E-16 ) ) ;
#59 = CARTESIAN_POINT ( 'NONE',  ( 1.326762908760390423E-13, 1.199999999999998845, 38.00000000000000000 ) ) ;
#60 = CARTESIAN_POINT ( 'NONE',  ( 5.358479882634335789E-14, 0.6653844939755806376, 15.34729635533384595 ) ) ;
#61 = CC_DESIGN_DATE_AND_TIME_ASSIGNMENT ( #167, #160, ( #172 ) ) ;
#62 = CC_DESIGN_APPROVAL ( #54, ( #198 ) ) ;
#63 = CARTESIAN_POINT ( 'NONE',  ( 2.444036937190193349E-14, 5.361641223016128085E-33, 7.000000000000000000 ) ) ;
#64 = ADVANCED_FACE ( 'NONE', ( #83, #174 ), #99, .T. ) ;
#65 = ADVANCED_FACE ( 'NONE', ( #84, #267 ), #67, .T. ) ;
#66 = CARTESIAN_POINT ( 'NONE',  ( 0.0000000000000000000, 0.0000000000000000000, 0.0000000000000000000 ) ) ;
#67 = CONICAL_SURFACE ( 'NONE', #105, 1.499999999999997780, 0.1745329251994258701 ) ;
#68 = COORDINATED_UNIVERSAL_TIME_OFFSET ( 1, 0, .AHEAD. ) ;
#69 = EDGE_LOOP ( 'NONE', ( #96 ) ) ;
#70 = PERSON_AND_ORGANIZATION_ROLE ( 'classification_officer' ) ;
#71 = ORIENTED_EDGE ( 'NONE', *, *, #208, .F. ) ;
#72 = DATE_AND_TIME ( #93, #90 ) ;
#73 = EDGE_LOOP ( 'NONE', ( #210 ) ) ;
#74 = PERSON ( 'UNSPECIFIED', 'UNSPECIFIED', 'UNSPECIFIED', ('UNSPECIFIED'), ('UNSPECIFIED'), ('UNSPECIFIED') ) ;
#75 = DIRECTION ( 'NONE',  ( 0.0000000000000000000, 0.0000000000000000000, 1.000000000000000000 ) ) ;
#76 = AXIS2_PLACEMENT_3D ( 'NONE', #86, #31, #11 ) ;
#77 = EDGE_LOOP ( 'NONE', ( #192 ) ) ;
#78 = PERSON_AND_ORGANIZATION ( #74, #226 ) ;
#79 = EDGE_LOOP ( 'NONE', ( #255 ) ) ;
#80 = DIRECTION ( 'NONE',  ( 4.275831445896959482E-31, 1.000000000000000000, 1.224646799147353207E-16 ) ) ;
#81 = MANIFOLD_SOLID_BREP ( 'Corps-Déplacer/Copier1[2]', #252 ) ;
#82 = DIRECTION ( 'NONE',  ( 0.0000000000000000000, 1.000000000000000000, 0.0000000000000000000 ) ) ;
#83 = FACE_OUTER_BOUND ( 'NONE', #73, .T. ) ;
#84 = FACE_BOUND ( 'NONE', #8, .T. ) ;
#85 = APPROVAL ( #169, 'UNSPECIFIED' ) ;
#86 = CARTESIAN_POINT ( 'NONE',  ( -2.166396100562486067E-31, 7.598694630624099515E-33, -6.204805039228132290E-17 ) ) ;
#87 = FACE_OUTER_BOUND ( 'NONE', #2, .T. ) ;
#88 = VERTEX_POINT ( 'NONE', #16 ) ;
#89 = DIRECTION ( 'NONE',  ( 4.275831445896958607E-31, 1.000000000000000000, 1.224646799147353207E-16 ) ) ;
#90 = LOCAL_TIME ( 11, 40, 26.00000000000000000, #280 ) ;
#91 = EDGE_CURVE ( 'NONE', #295, #295, #200, .T. ) ;
#92 = APPROVAL_PERSON_ORGANIZATION ( #234, #3, #25 ) ;
#93 = CALENDAR_DATE ( 2021, 1, 12 ) ;
#94 = EDGE_LOOP ( 'NONE', ( #71 ) ) ;
#95 = PERSON_AND_ORGANIZATION ( #74, #226 ) ;
#96 = ORIENTED_EDGE ( 'NONE', *, *, #55, .T. ) ;
#97 = ORIENTED_EDGE ( 'NONE', *, *, #206, .F. ) ;
#98 = ORIENTED_EDGE ( 'NONE', *, *, #208, .T. ) ;
#99 = CYLINDRICAL_SURFACE ( 'NONE', #6, 1.500000000000000444 ) ;
#100 = DIRECTION ( 'NONE',  ( -4.275831445896958607E-31, -1.000000000000000000, -1.224646799147353207E-16 ) ) ;
#101 = EDGE_CURVE ( 'NONE', #131, #131, #57, .T. ) ;
#102 = CARTESIAN_POINT ( 'NONE',  ( 7.011116621881576082E-14, -2.459168672595857175E-15, 20.08063610102134433 ) ) ;
#103 = DIRECTION ( 'NONE',  ( -3.491481338843133355E-15, 1.224646799147353207E-16, -1.000000000000000000 ) ) ;
#104 = CARTESIAN_POINT ( 'NONE',  ( -4.332792201124972135E-31, 1.519738926124819903E-32, -1.240961007845626458E-16 ) ) ;
#105 = AXIS2_PLACEMENT_3D ( 'NONE', #123, #221, #10 ) ;
#106 = LOCAL_TIME ( 11, 40, 26.00000000000000000, #43 ) ;
#107 = FACE_OUTER_BOUND ( 'NONE', #121, .T. ) ;
#108 = VERTEX_POINT ( 'NONE', #298 ) ;
#109 = ADVANCED_FACE ( 'NONE', ( #242, #287 ), #190, .T. ) ;
#110 = ADVANCED_FACE ( 'NONE', ( #149 ), #128, .F. ) ;
#111 = CONICAL_SURFACE ( 'NONE', #220, 0.7149999999999990807, 0.5235987755982925984 ) ;
#112 = CARTESIAN_POINT ( 'NONE',  ( 1.316288464743861212E-13, 1.499999999999998668, 37.69999999999999574 ) ) ;
#113 = PERSON_AND_ORGANIZATION ( #74, #226 ) ;
#114 = AXIS2_PLACEMENT_3D ( 'NONE', #104, #286, #80 ) ;
#115 = PERSON_AND_ORGANIZATION_ROLE ( 'design_supplier' ) ;
#116 = EDGE_LOOP ( 'NONE', ( #98 ) ) ;
#117 = DESIGN_CONTEXT ( 'detailed design', #152, 'design' ) ;
#118 = PERSON_AND_ORGANIZATION ( #74, #226 ) ;
#119 = ORIENTED_EDGE ( 'NONE', *, *, #91, .T. ) ;
#120 = COORDINATED_UNIVERSAL_TIME_OFFSET ( 1, 0, .AHEAD. ) ;
#121 = EDGE_LOOP ( 'NONE', ( #119 ) ) ;
#122 = AXIS2_PLACEMENT_3D ( 'NONE', #199, #197, #147 ) ;
#123 = CARTESIAN_POINT ( 'NONE',  ( 7.011116621881576082E-14, -2.459168672595857175E-15, 20.08063610102134433 ) ) ;
#124 = FACE_BOUND ( 'NONE', #256, .T. ) ;
#125 = PLANE ( 'NONE',  #122 ) ;
#126 = CIRCLE ( 'NONE', #183, 0.6349999999999990097 ) ;
#127 = CARTESIAN_POINT ( 'NONE',  ( 2.492416321770633733E-14, -8.742219632227462517E-16, 7.138564064605513515 ) ) ;
#128 = PLANE ( 'NONE',  #76 ) ;
#129 = DIRECTION ( 'NONE',  ( 4.275831445896958607E-31, 1.000000000000000000, 1.224646799147353207E-16 ) ) ;
#130 = CC_DESIGN_SECURITY_CLASSIFICATION ( #172, ( #154 ) ) ;
#131 = VERTEX_POINT ( 'NONE', #38 ) ;
#132 = VERTEX_POINT ( 'NONE', #271 ) ;
#133 = DIRECTION ( 'NONE',  ( 4.275831445896958607E-31, 1.000000000000000000, 1.224646799147353207E-16 ) ) ;
#134 = CONICAL_SURFACE ( 'NONE', #166, 0.6349999999999990097, 0.5235987755982930425 ) ;
#135 = FACE_OUTER_BOUND ( 'NONE', #77, .T. ) ;
#136 = CARTESIAN_POINT ( 'NONE',  ( 0.0000000000000000000, 0.0000000000000000000, 0.0000000000000000000 ) ) ;
#137 = EDGE_LOOP ( 'NONE', ( #212 ) ) ;
#138 = ORIENTED_EDGE ( 'NONE', *, *, #188, .T. ) ;
#139 = EDGE_CURVE ( 'NONE', #156, #156, #253, .T. ) ;
#140 = PERSON_AND_ORGANIZATION_ROLE ( 'design_owner' ) ;
#141 = CC_DESIGN_DATE_AND_TIME_ASSIGNMENT ( #1, #302, ( #198 ) ) ;
#142 = EDGE_LOOP ( 'NONE', ( #281 ) ) ;
#143 = FACE_OUTER_BOUND ( 'NONE', #137, .T. ) ;
#144 = AXIS2_PLACEMENT_3D ( 'NONE', #218, #216, #223 ) ;
#145 = AXIS2_PLACEMENT_3D ( 'NONE', #225, #15, #202 ) ;
#146 = FACE_OUTER_BOUND ( 'NONE', #215, .T. ) ;
#147 = DIRECTION ( 'NONE',  ( 4.275831445896958607E-31, 1.000000000000000000, 1.224646799147353207E-16 ) ) ;
#148 = DIRECTION ( 'NONE',  ( 0.0000000000000000000, 1.000000000000000000, 0.0000000000000000000 ) ) ;
#149 = FACE_OUTER_BOUND ( 'NONE', #79, .T. ) ;
#150 = AXIS2_PLACEMENT_3D ( 'NONE', #136, #75, #284 ) ;
#151 = ADVANCED_FACE ( 'NONE', ( #56, #291 ), #134, .T. ) ;
#152 = APPLICATION_CONTEXT ( 'configuration controlled 3d designs of mechanical parts and assemblies' ) ;
#153 = VERTEX_POINT ( 'NONE', #247 ) ;
#154 = PRODUCT_DEFINITION_FORMATION_WITH_SPECIFIED_SOURCE ( 'ANY', '', #269, .NOT_KNOWN. ) ;
#155 = ADVANCED_FACE ( 'NONE', ( #29 ), #125, .F. ) ;
#156 = VERTEX_POINT ( 'NONE', #59 ) ;
#157 = FACE_OUTER_BOUND ( 'NONE', #142, .T. ) ;
#158 = CYLINDRICAL_SURFACE ( 'NONE', #14, 0.6349999999999996758 ) ;
#159 = AXIS2_PLACEMENT_3D ( 'NONE', #171, #263, #50 ) ;
#160 = DATE_TIME_ROLE ( 'classification_date' ) ;
#161 = EDGE_LOOP ( 'NONE', ( #237 ) ) ;
#162 = DIRECTION ( 'NONE',  ( 3.491481338843133355E-15, -1.224646799147353207E-16, 1.000000000000000000 ) ) ;
#163 = CALENDAR_DATE ( 2021, 1, 12 ) ;
#164 = EDGE_CURVE ( 'NONE', #108, #108, #126, .T. ) ;
#165 = CIRCLE ( 'NONE', #32, 1.500000000000003331 ) ;
#166 = AXIS2_PLACEMENT_3D ( 'NONE', #127, #265, #52 ) ;
#167 = DATE_AND_TIME ( #209, #46 ) ;
#168 = ORIENTED_EDGE ( 'NONE', *, *, #164, .T. ) ;
#169 = APPROVAL_STATUS ( 'not_yet_approved' ) ;
#170 = ORIENTED_EDGE ( 'NONE', *, *, #91, .F. ) ;
#171 = CARTESIAN_POINT ( 'NONE',  ( 8.728703347107831416E-16, -3.061616997868382402E-17, 0.2499999999999999445 ) ) ;
#172 = SECURITY_CLASSIFICATION ( '', '', #259 ) ;
#173 = DIRECTION ( 'NONE',  ( 0.0000000000000000000, 1.000000000000000000, 0.0000000000000000000 ) ) ;
#174 = FACE_OUTER_BOUND ( 'NONE', #69, .T. ) ;
#175 = DIRECTION ( 'NONE',  ( -3.491481338843133355E-15, 1.224646799147353207E-16, -1.000000000000000000 ) ) ;
#176 = DIRECTION ( 'NONE',  ( 0.0000000000000000000, 1.000000000000000000, 0.0000000000000000000 ) ) ;
#177 = CC_DESIGN_APPROVAL ( #85, ( #172 ) ) ;
#178 = DIRECTION ( 'NONE',  ( 3.491481338843133355E-15, -1.224646799147353207E-16, 1.000000000000000000 ) ) ;
#179 = CARTESIAN_POINT ( 'NONE',  ( 5.237222008264700033E-14, -1.734723475976807094E-15, 15.00000000000000000 ) ) ;
#180 = LOCAL_TIME ( 11, 40, 26.00000000000000000, #68 ) ;
#181 = PRODUCT_DEFINITION_SHAPE ( 'NONE', 'NONE',  #198 ) ;
#182 =( LENGTH_UNIT ( ) NAMED_UNIT ( * ) SI_UNIT ( .MILLI., .METRE. ) );
#183 = AXIS2_PLACEMENT_3D ( 'NONE', #30, #290, #176 ) ;
#184 = CARTESIAN_POINT ( 'NONE',  ( 2.444036937190193349E-14, 5.361641223016128085E-33, 7.000000000000000000 ) ) ;
#185 = APPROVAL_ROLE ( '' ) ;
#186 = EDGE_LOOP ( 'NONE', ( #138 ) ) ;
#187 = ADVANCED_FACE ( 'NONE', ( #124, #239 ), #111, .T. ) ;
#188 = EDGE_CURVE ( 'NONE', #132, #132, #22, .T. ) ;
#189 = APPROVAL_DATE_TIME ( #21, #3 ) ;
#190 = CONICAL_SURFACE ( 'NONE', #288, 1.200000000000003286, 0.7853981633974453924 ) ;
#191 = PERSON_AND_ORGANIZATION ( #74, #226 ) ;
#192 = ORIENTED_EDGE ( 'NONE', *, *, #274, .T. ) ;
#193 = APPLICATION_CONTEXT ( 'configuration controlled 3d designs of mechanical parts and assemblies' ) ;
#194 = DIRECTION ( 'NONE',  ( -3.491481338843133355E-15, 1.224646799147353207E-16, -1.000000000000000000 ) ) ;
#195 = CC_DESIGN_APPROVAL ( #3, ( #154 ) ) ;
#196 = CARTESIAN_POINT ( 'NONE',  ( 1.326762908760390423E-13, -4.653657836759941941E-15, 38.00000000000000000 ) ) ;
#197 = DIRECTION ( 'NONE',  ( -3.491481338843133355E-15, 1.224646799147353207E-16, -1.000000000000000000 ) ) ;
#198 = PRODUCT_DEFINITION ( 'UNKNOWN', '', #154, #117 ) ;
#199 = CARTESIAN_POINT ( 'NONE',  ( 1.326762908760390423E-13, 8.998558695971103225E-33, 38.00000000000000000 ) ) ;
#200 = CIRCLE ( 'NONE', #144, 0.6653844939755825250 ) ;
#201 = CYLINDRICAL_SURFACE ( 'NONE', #33, 0.7149999999999995248 ) ;
#202 = DIRECTION ( 'NONE',  ( 0.0000000000000000000, 1.000000000000000000, 0.0000000000000000000 ) ) ;
#203 = VERTEX_POINT ( 'NONE', #228 ) ;
#204 = AXIS2_PLACEMENT_3D ( 'NONE', #196, #240, #173 ) ;
#205 = VERTEX_POINT ( 'NONE', #37 ) ;
#206 = EDGE_CURVE ( 'NONE', #88, #88, #293, .T. ) ;
#207 = ORIENTED_EDGE ( 'NONE', *, *, #139, .F. ) ;
#208 = EDGE_CURVE ( 'NONE', #153, #153, #283, .T. ) ;
#209 = CALENDAR_DATE ( 2021, 1, 12 ) ;
#210 = ORIENTED_EDGE ( 'NONE', *, *, #101, .F. ) ;
#211 = PERSON_AND_ORGANIZATION_ROLE ( 'creator' ) ;
#212 = ORIENTED_EDGE ( 'NONE', *, *, #274, .F. ) ;
#213 = APPROVAL_DATE_TIME ( #72, #54 ) ;
#214 = EDGE_LOOP ( 'NONE', ( #47 ) ) ;
#215 = EDGE_LOOP ( 'NONE', ( #42 ) ) ;
#216 = DIRECTION ( 'NONE',  ( -3.491481338843133355E-15, 1.224646799147353207E-16, -1.000000000000000000 ) ) ;
#217 = ADVANCED_BREP_SHAPE_REPRESENTATION ( '327029', ( #275, #81, #150 ), #7 ) ;
#218 = CARTESIAN_POINT ( 'NONE',  ( 5.358479882634335789E-14, -1.879501735712543302E-15, 15.34729635533384595 ) ) ;
#219 = CLOSED_SHELL ( 'NONE', ( #266, #151, #296, #222, #65, #64, #109, #155 ) ) ;
#220 = AXIS2_PLACEMENT_3D ( 'NONE', #289, #268, #58 ) ;
#221 = DIRECTION ( 'NONE',  ( 3.491481338843133355E-15, -1.224646799147353207E-16, 1.000000000000000000 ) ) ;
#222 = ADVANCED_FACE ( 'NONE', ( #146, #107 ), #272, .F. ) ;
#223 = DIRECTION ( 'NONE',  ( 0.0000000000000000000, 1.000000000000000000, 0.0000000000000000000 ) ) ;
#224 = DIRECTION ( 'NONE',  ( -3.491481338843133355E-15, 1.224646799147353207E-16, -1.000000000000000000 ) ) ;
#225 = CARTESIAN_POINT ( 'NONE',  ( 2.444036937190193349E-14, -8.572527594031473190E-16, 7.000000000000000000 ) ) ;
#226 = ORGANIZATION ( 'UNSPECIFIED', 'UNSPECIFIED', '' ) ;
#227 = VERTEX_POINT ( 'NONE', #112 ) ;
#228 = CARTESIAN_POINT ( 'NONE',  ( 2.444036937190193349E-14, 0.7149999999999990807, 7.000000000000000000 ) ) ;
#229 = AXIS2_PLACEMENT_3D ( 'NONE', #36, #224, #13 ) ;
#230 = UNCERTAINTY_MEASURE_WITH_UNIT (LENGTH_MEASURE( 1.000000000000000082E-05 ), #182, 'distance_accuracy_value', 'NONE');
#231 = MECHANICAL_CONTEXT ( 'NONE', #193, 'mechanical' ) ;
#232 = EDGE_LOOP ( 'NONE', ( #260 ) ) ;
#233 = PERSON_AND_ORGANIZATION ( #74, #226 ) ;
#234 = PERSON_AND_ORGANIZATION ( #74, #226 ) ;
#235 = APPROVAL_STATUS ( 'not_yet_approved' ) ;
#236 = ORIENTED_EDGE ( 'NONE', *, *, #101, .T. ) ;
#237 = ORIENTED_EDGE ( 'NONE', *, *, #139, .T. ) ;
#238 = APPROVAL_PERSON_ORGANIZATION ( #233, #54, #185 ) ;
#239 = FACE_OUTER_BOUND ( 'NONE', #116, .T. ) ;
#240 = DIRECTION ( 'NONE',  ( -3.491481338843133355E-15, 1.224646799147353207E-16, -1.000000000000000000 ) ) ;
#241 = ADVANCED_FACE ( 'NONE', ( #248, #135 ), #201, .T. ) ;
#242 = FACE_OUTER_BOUND ( 'NONE', #232, .T. ) ;
#243 = DIRECTION ( 'NONE',  ( -3.491481338843133355E-15, 1.224646799147353207E-16, -1.000000000000000000 ) ) ;
#244 = DIRECTION ( 'NONE',  ( 0.0000000000000000000, 1.000000000000000000, 0.0000000000000000000 ) ) ;
#245 =( NAMED_UNIT ( * ) SI_UNIT ( $, .STERADIAN. ) SOLID_ANGLE_UNIT ( ) );
#246 = PRODUCT_RELATED_PRODUCT_CATEGORY ( 'detail', '', ( #269 ) ) ;
#247 = CARTESIAN_POINT ( 'NONE',  ( 8.728703347107835360E-16, 0.7149999999999990807, 0.2500000000000000555 ) ) ;
#248 = FACE_OUTER_BOUND ( 'NONE', #94, .T. ) ;
#249 = CC_DESIGN_PERSON_AND_ORGANIZATION_ASSIGNMENT ( #113, #211, ( #198 ) ) ;
#250 = CC_DESIGN_PERSON_AND_ORGANIZATION_ASSIGNMENT ( #78, #140, ( #269 ) ) ;
#251 = FACE_OUTER_BOUND ( 'NONE', #186, .T. ) ;
#252 = CLOSED_SHELL ( 'NONE', ( #110, #187, #241, #23 ) ) ;
#253 = CIRCLE ( 'NONE', #204, 1.200000000000003286 ) ;
#254 = APPROVAL_ROLE ( '' ) ;
#255 = ORIENTED_EDGE ( 'NONE', *, *, #206, .T. ) ;
#256 = EDGE_LOOP ( 'NONE', ( #97 ) ) ;
#257 = APPLICATION_PROTOCOL_DEFINITION ( 'international standard', 'config_control_design', 1994, #193 ) ;
#258 = CIRCLE ( 'NONE', #145, 0.7149999999999999689 ) ;
#259 = SECURITY_CLASSIFICATION_LEVEL ( 'unclassified' ) ;
#260 = ORIENTED_EDGE ( 'NONE', *, *, #55, .F. ) ;
#261 = APPROVAL_DATE_TIME ( #5, #85 ) ;
#262 = CARTESIAN_POINT ( 'NONE',  ( 2.444036937190193349E-14, -8.572527594031473190E-16, 7.000000000000000000 ) ) ;
#263 = DIRECTION ( 'NONE',  ( -3.491481338843133355E-15, 1.224646799147353207E-16, -1.000000000000000000 ) ) ;
#264 = LOCAL_TIME ( 11, 40, 26.00000000000000000, #120 ) ;
#265 = DIRECTION ( 'NONE',  ( -3.491481338843133355E-15, 1.224646799147353207E-16, -1.000000000000000000 ) ) ;
#266 = ADVANCED_FACE ( 'NONE', ( #87 ), #273, .F. ) ;
#267 = FACE_OUTER_BOUND ( 'NONE', #44, .T. ) ;
#268 = DIRECTION ( 'NONE',  ( 3.491481338843133355E-15, -1.224646799147353207E-16, 1.000000000000000000 ) ) ;
#269 = PRODUCT ( '327029', '327029', '', ( #231 ) ) ;
#270 = DIRECTION ( 'NONE',  ( -3.491481338843133355E-15, 1.224646799147353207E-16, -1.000000000000000000 ) ) ;
#271 = CARTESIAN_POINT ( 'NONE',  ( 5.237222008264700033E-14, 0.6349999999999984546, 15.00000000000000000 ) ) ;
#272 = TOROIDAL_SURFACE ( 'NONE', #297, 2.635000000000000231, 1.999999999999999556 ) ;
#273 = PLANE ( 'NONE',  #28 ) ;
#274 = EDGE_CURVE ( 'NONE', #205, #205, #258, .T. ) ;
#275 = MANIFOLD_SOLID_BREP ( 'Corps-Déplacer/Copier1[1]', #219 ) ;
#276 =( NAMED_UNIT ( * ) PLANE_ANGLE_UNIT ( ) SI_UNIT ( $, .RADIAN. ) );
#277 = CALENDAR_DATE ( 2021, 1, 12 ) ;
#278 = APPROVAL_PERSON_ORGANIZATION ( #95, #85, #254 ) ;
#279 = EDGE_LOOP ( 'NONE', ( #207 ) ) ;
#280 = COORDINATED_UNIVERSAL_TIME_OFFSET ( 1, 0, .AHEAD. ) ;
#281 = ORIENTED_EDGE ( 'NONE', *, *, #164, .F. ) ;
#282 = COORDINATED_UNIVERSAL_TIME_OFFSET ( 1, 0, .AHEAD. ) ;
#283 = CIRCLE ( 'NONE', #159, 0.7149999999999990807 ) ;
#284 = DIRECTION ( 'NONE',  ( 1.000000000000000000, 0.0000000000000000000, 0.0000000000000000000 ) ) ;
#285 = ORIENTED_EDGE ( 'NONE', *, *, #4, .T. ) ;
#286 = DIRECTION ( 'NONE',  ( -3.491481338843133355E-15, 1.224646799147353207E-16, -1.000000000000000000 ) ) ;
#287 = FACE_BOUND ( 'NONE', #161, .T. ) ;
#288 = AXIS2_PLACEMENT_3D ( 'NONE', #34, #194, #82 ) ;
#289 = CARTESIAN_POINT ( 'NONE',  ( 8.728703347107831416E-16, -3.061616997868382402E-17, 0.2499999999999999445 ) ) ;
#290 = DIRECTION ( 'NONE',  ( -3.491481338843133355E-15, 1.224646799147353207E-16, -1.000000000000000000 ) ) ;
#291 = FACE_BOUND ( 'NONE', #26, .T. ) ;
#292 = CIRCLE ( 'NONE', #39, 0.7149999999999999689 ) ;
#293 = CIRCLE ( 'NONE', #114, 0.5706624327025946464 ) ;
#294 = DIRECTION ( 'NONE',  ( -3.491481338843133355E-15, 1.224646799147353207E-16, -1.000000000000000000 ) ) ;
#295 = VERTEX_POINT ( 'NONE', #60 ) ;
#296 = ADVANCED_FACE ( 'NONE', ( #157, #251 ), #158, .T. ) ;
#297 = AXIS2_PLACEMENT_3D ( 'NONE', #179, #270, #129 ) ;
#298 = CARTESIAN_POINT ( 'NONE',  ( 2.492416321770633733E-14, 0.6349999999999982325, 7.138564064605513515 ) ) ;
#299 = DIRECTION ( 'NONE',  ( -4.275831445896958607E-31, -1.000000000000000000, -1.224646799147353207E-16 ) ) ;
#300 = CALENDAR_DATE ( 2021, 1, 12 ) ;
#301 = CC_DESIGN_PERSON_AND_ORGANIZATION_ASSIGNMENT ( #41, #115, ( #154 ) ) ;
#302 = DATE_TIME_ROLE ( 'creation_date' ) ;
#303 = PLANE ( 'NONE',  #27 ) ;
ENDSEC;
END-ISO-10303-21;
