ISO-10303-21;
HEADER;
FILE_DESCRIPTION (( 'STEP AP203' ),
    '1' );
FILE_NAME ('327028.step',
    '2021-12-01T10:40:25',
    ( '' ),
    ( '' ),
    'SwSTEP 2.0',
    'SolidWorks 2019',
    '' );
FILE_SCHEMA (( 'CONFIG_CONTROL_DESIGN' ));
ENDSEC;

DATA;
#1 = VERTEX_POINT ( 'NONE', #190 ) ;
#2 = CARTESIAN_POINT ( 'NONE',  ( 5.237222008264700033E-14, 0.6349999999999984546, 15.00000000000000000 ) ) ;
#3 = CC_DESIGN_DATE_AND_TIME_ASSIGNMENT ( #291, #124, ( #52 ) ) ;
#4 = ADVANCED_FACE ( 'NONE', ( #219 ), #245, .F. ) ;
#5 = LOCAL_TIME ( 11, 40, 25.00000000000000000, #36 ) ;
#6 = CIRCLE ( 'NONE', #151, 0.7099999999999999645 ) ;
#7 = DIRECTION ( 'NONE',  ( 0.0000000000000000000, 1.000000000000000000, 0.0000000000000000000 ) ) ;
#8 = APPROVAL_STATUS ( 'not_yet_approved' ) ;
#9 = PERSON_AND_ORGANIZATION_ROLE ( 'design_supplier' ) ;
#10 =( GEOMETRIC_REPRESENTATION_CONTEXT ( 3 ) GLOBAL_UNCERTAINTY_ASSIGNED_CONTEXT ( ( #295 ) ) GLOBAL_UNIT_ASSIGNED_CONTEXT ( ( #262, #134, #182 ) ) REPRESENTATION_CONTEXT ( 'NONE', 'WORKASPACE' ) );
#11 = EDGE_LOOP ( 'NONE', ( #231 ) ) ;
#12 = PERSON_AND_ORGANIZATION ( #118, #71 ) ;
#13 = ORIENTED_EDGE ( 'NONE', *, *, #148, .F. ) ;
#14 = DIRECTION ( 'NONE',  ( -3.491481338843133355E-15, 1.224646799147353207E-16, -1.000000000000000000 ) ) ;
#15 = COORDINATED_UNIVERSAL_TIME_OFFSET ( 1, 0, .AHEAD. ) ;
#16 = CLOSED_SHELL ( 'NONE', ( #267, #136, #105, #209 ) ) ;
#17 = AXIS2_PLACEMENT_3D ( 'NONE', #60, #120, #85 ) ;
#18 = DIRECTION ( 'NONE',  ( 0.0000000000000000000, 1.000000000000000000, 0.0000000000000000000 ) ) ;
#19 = CARTESIAN_POINT ( 'NONE',  ( 8.728703347107831416E-16, -3.061616997868382402E-17, 0.2499999999999999445 ) ) ;
#20 = AXIS2_PLACEMENT_3D ( 'NONE', #179, #277, #149 ) ;
#21 = DIRECTION ( 'NONE',  ( 0.0000000000000000000, 1.000000000000000000, 0.0000000000000000000 ) ) ;
#22 = CC_DESIGN_DATE_AND_TIME_ASSIGNMENT ( #99, #50, ( #238 ) ) ;
#23 = DIRECTION ( 'NONE',  ( 0.0000000000000000000, 1.000000000000000000, 0.0000000000000000000 ) ) ;
#24 = CC_DESIGN_APPROVAL ( #65, ( #52 ) ) ;
#25 = CARTESIAN_POINT ( 'NONE',  ( -1.209338608756163142E-31, 4.241788835650105191E-33, -3.463683438035688059E-17 ) ) ;
#26 = ADVANCED_FACE ( 'NONE', ( #82, #252 ), #180, .F. ) ;
#27 = DIRECTION ( 'NONE',  ( 0.0000000000000000000, 1.000000000000000000, 0.0000000000000000000 ) ) ;
#28 = DIRECTION ( 'NONE',  ( 4.275831445896958607E-31, 1.000000000000000000, 1.224646799147353207E-16 ) ) ;
#29 = DIRECTION ( 'NONE',  ( -3.491481338843133355E-15, 1.224646799147353207E-16, -1.000000000000000000 ) ) ;
#30 = CIRCLE ( 'NONE', #98, 0.7099999999999999645 ) ;
#31 = CALENDAR_DATE ( 2021, 1, 12 ) ;
#32 = ORIENTED_EDGE ( 'NONE', *, *, #300, .T. ) ;
#33 = CALENDAR_DATE ( 2021, 1, 12 ) ;
#34 = DIRECTION ( 'NONE',  ( 4.275831445896958607E-31, 1.000000000000000000, 1.224646799147353207E-16 ) ) ;
#35 = CONICAL_SURFACE ( 'NONE', #131, 1.499999999999997780, 0.1745329251994258701 ) ;
#36 = COORDINATED_UNIVERSAL_TIME_OFFSET ( 1, 0, .AHEAD. ) ;
#37 = EDGE_CURVE ( 'NONE', #1, #1, #6, .T. ) ;
#38 = CYLINDRICAL_SURFACE ( 'NONE', #17, 1.500000000000000444 ) ;
#39 = ORIENTED_EDGE ( 'NONE', *, *, #64, .F. ) ;
#40 = AXIS2_PLACEMENT_3D ( 'NONE', #255, #298, #203 ) ;
#41 = CARTESIAN_POINT ( 'NONE',  ( 1.326762908760390423E-13, 8.998558695971103225E-33, 38.00000000000000000 ) ) ;
#42 = DIRECTION ( 'NONE',  ( 0.0000000000000000000, -1.000000000000000000, 0.0000000000000000000 ) ) ;
#43 = DIRECTION ( 'NONE',  ( 3.491481338843133355E-15, -1.224646799147353207E-16, 1.000000000000000000 ) ) ;
#44 = DIRECTION ( 'NONE',  ( 5.425154772921798413E-31, 1.000000000000000000, 1.527045313359867449E-16 ) ) ;
#45 = CARTESIAN_POINT ( 'NONE',  ( 1.326762908760390423E-13, 1.199999999999998845, 38.00000000000000000 ) ) ;
#46 = LOCAL_TIME ( 11, 40, 25.00000000000000000, #269 ) ;
#47 = DIRECTION ( 'NONE',  ( -4.275831445896958607E-31, -1.000000000000000000, -1.224646799147353207E-16 ) ) ;
#48 = APPROVAL ( #142, 'UNSPECIFIED' ) ;
#49 = CC_DESIGN_SECURITY_CLASSIFICATION ( #238, ( #112 ) ) ;
#50 = DATE_TIME_ROLE ( 'classification_date' ) ;
#51 = CALENDAR_DATE ( 2021, 1, 12 ) ;
#52 = PRODUCT_DEFINITION ( 'UNKNOWN', '', #112, #229 ) ;
#53 = EDGE_LOOP ( 'NONE', ( #96 ) ) ;
#54 = ADVANCED_FACE ( 'NONE', ( #272, #199 ), #38, .T. ) ;
#55 = PERSON_AND_ORGANIZATION ( #118, #71 ) ;
#56 = AXIS2_PLACEMENT_3D ( 'NONE', #233, #263, #47 ) ;
#57 = CARTESIAN_POINT ( 'NONE',  ( 2.444036937190193349E-14, 5.324147228449581371E-33, 7.000000000000000000 ) ) ;
#58 = EDGE_LOOP ( 'NONE', ( #196 ) ) ;
#59 = ORIENTED_EDGE ( 'NONE', *, *, #108, .T. ) ;
#60 = CARTESIAN_POINT ( 'NONE',  ( 0.0000000000000000000, 0.0000000000000000000, 0.0000000000000000000 ) ) ;
#61 = CARTESIAN_POINT ( 'NONE',  ( 2.489392610234356545E-14, -8.731613879840212074E-16, 7.129903810567669531 ) ) ;
#62 = ORIENTED_EDGE ( 'NONE', *, *, #153, .F. ) ;
#63 = FACE_OUTER_BOUND ( 'NONE', #220, .T. ) ;
#64 = EDGE_CURVE ( 'NONE', #188, #188, #163, .T. ) ;
#65 = APPROVAL ( #249, 'UNSPECIFIED' ) ;
#66 = APPROVAL_DATE_TIME ( #121, #48 ) ;
#67 = AXIS2_PLACEMENT_3D ( 'NONE', #146, #101, #103 ) ;
#68 = CARTESIAN_POINT ( 'NONE',  ( 1.316288464743861212E-13, -4.616918432785521081E-15, 37.69999999999999574 ) ) ;
#69 = MANIFOLD_SOLID_BREP ( 'Corps-Déplacer/Copier1[1]', #206 ) ;
#70 = CYLINDRICAL_SURFACE ( 'NONE', #77, 0.6349999999999996758 ) ;
#71 = ORGANIZATION ( 'UNSPECIFIED', 'UNSPECIFIED', '' ) ;
#72 = CARTESIAN_POINT ( 'NONE',  ( 1.316288464743861212E-13, 1.499999999999998668, 37.69999999999999574 ) ) ;
#73 = AXIS2_PLACEMENT_3D ( 'NONE', #57, #292, #125 ) ;
#74 = EDGE_LOOP ( 'NONE', ( #39 ) ) ;
#75 = VERTEX_POINT ( 'NONE', #72 ) ;
#76 = APPROVAL_DATE_TIME ( #192, #65 ) ;
#77 = AXIS2_PLACEMENT_3D ( 'NONE', #183, #164, #28 ) ;
#78 = EDGE_LOOP ( 'NONE', ( #175 ) ) ;
#79 = APPROVAL_ROLE ( '' ) ;
#80 = DIRECTION ( 'NONE',  ( -3.491481338843133355E-15, 1.224646799147353207E-16, -1.000000000000000000 ) ) ;
#81 = AXIS2_PLACEMENT_3D ( 'NONE', #19, #43, #234 ) ;
#82 = FACE_OUTER_BOUND ( 'NONE', #53, .T. ) ;
#83 = FACE_OUTER_BOUND ( 'NONE', #243, .T. ) ;
#84 = FACE_BOUND ( 'NONE', #133, .T. ) ;
#85 = DIRECTION ( 'NONE',  ( 4.275831445896958607E-31, 1.000000000000000000, 1.224646799147353207E-16 ) ) ;
#86 = CC_DESIGN_PERSON_AND_ORGANIZATION_ASSIGNMENT ( #55, #223, ( #112 ) ) ;
#87 = CYLINDRICAL_SURFACE ( 'NONE', #20, 0.7099999999999995204 ) ;
#88 = CIRCLE ( 'NONE', #140, 0.6653844939755825250 ) ;
#89 = AXIS2_PLACEMENT_3D ( 'NONE', #258, #129, #21 ) ;
#90 = VERTEX_POINT ( 'NONE', #283 ) ;
#91 = CARTESIAN_POINT ( 'NONE',  ( 5.358479882634335789E-14, -1.879501735712543302E-15, 15.34729635533384595 ) ) ;
#92 = LOCAL_TIME ( 11, 40, 25.00000000000000000, #15 ) ;
#93 = CARTESIAN_POINT ( 'NONE',  ( 2.489392610234356545E-14, -8.731613879840212074E-16, 7.129903810567669531 ) ) ;
#94 = CC_DESIGN_PERSON_AND_ORGANIZATION_ASSIGNMENT ( #225, #264, ( #238 ) ) ;
#95 = DIRECTION ( 'NONE',  ( 0.0000000000000000000, 1.000000000000000000, 0.0000000000000000000 ) ) ;
#96 = ORIENTED_EDGE ( 'NONE', *, *, #162, .F. ) ;
#97 = EDGE_LOOP ( 'NONE', ( #122 ) ) ;
#98 = AXIS2_PLACEMENT_3D ( 'NONE', #239, #240, #7 ) ;
#99 = DATE_AND_TIME ( #51, #46 ) ;
#100 = ADVANCED_FACE ( 'NONE', ( #110, #207 ), #280, .T. ) ;
#101 = DIRECTION ( 'NONE',  ( 0.0000000000000000000, 0.0000000000000000000, 1.000000000000000000 ) ) ;
#102 = DIRECTION ( 'NONE',  ( 0.0000000000000000000, 1.000000000000000000, 0.0000000000000000000 ) ) ;
#103 = DIRECTION ( 'NONE',  ( 1.000000000000000000, 0.0000000000000000000, 0.0000000000000000000 ) ) ;
#104 = DIRECTION ( 'NONE',  ( -3.491481338843133355E-15, 1.224646799147353207E-16, -1.000000000000000000 ) ) ;
#105 = ADVANCED_FACE ( 'NONE', ( #205, #178 ), #87, .T. ) ;
#106 = CARTESIAN_POINT ( 'NONE',  ( 1.326762908760390423E-13, -4.653657836759941941E-15, 38.00000000000000000 ) ) ;
#107 = PRODUCT_DEFINITION_SHAPE ( 'NONE', 'NONE',  #52 ) ;
#108 = EDGE_CURVE ( 'NONE', #261, #261, #274, .T. ) ;
#109 = AXIS2_PLACEMENT_3D ( 'NONE', #106, #303, #279 ) ;
#110 = FACE_OUTER_BOUND ( 'NONE', #97, .T. ) ;
#111 = VERTEX_POINT ( 'NONE', #114 ) ;
#112 = PRODUCT_DEFINITION_FORMATION_WITH_SPECIFIED_SOURCE ( 'ANY', '', #228, .NOT_KNOWN. ) ;
#113 = CARTESIAN_POINT ( 'NONE',  ( 8.728703347107831416E-16, -3.061616997868382402E-17, 0.2499999999999999445 ) ) ;
#114 = CARTESIAN_POINT ( 'NONE',  ( 2.489392610234356545E-14, 0.6349999999999982325, 7.129903810567669531 ) ) ;
#115 = DIRECTION ( 'NONE',  ( -3.491481338843133355E-15, 1.224646799147353207E-16, -1.000000000000000000 ) ) ;
#116 = CC_DESIGN_APPROVAL ( #48, ( #238 ) ) ;
#117 = FACE_OUTER_BOUND ( 'NONE', #293, .T. ) ;
#118 = PERSON ( 'UNSPECIFIED', 'UNSPECIFIED', 'UNSPECIFIED', ('UNSPECIFIED'), ('UNSPECIFIED'), ('UNSPECIFIED') ) ;
#119 = PERSON_AND_ORGANIZATION ( #118, #71 ) ;
#120 = DIRECTION ( 'NONE',  ( -3.491481338843133355E-15, 1.224646799147353207E-16, -1.000000000000000000 ) ) ;
#121 = DATE_AND_TIME ( #33, #174 ) ;
#122 = ORIENTED_EDGE ( 'NONE', *, *, #276, .F. ) ;
#123 = CIRCLE ( 'NONE', #241, 0.7099999999999990763 ) ;
#124 = DATE_TIME_ROLE ( 'creation_date' ) ;
#125 = DIRECTION ( 'NONE',  ( -4.275831445896958607E-31, -1.000000000000000000, -1.224646799147353207E-16 ) ) ;
#126 = EDGE_LOOP ( 'NONE', ( #32 ) ) ;
#127 = AXIS2_PLACEMENT_3D ( 'NONE', #128, #273, #260 ) ;
#128 = CARTESIAN_POINT ( 'NONE',  ( -2.418677217512326283E-31, 8.483577671300210382E-33, -6.927366876071376118E-17 ) ) ;
#129 = DIRECTION ( 'NONE',  ( -3.491481338843133355E-15, 1.224646799147353207E-16, -1.000000000000000000 ) ) ;
#130 = FACE_OUTER_BOUND ( 'NONE', #270, .T. ) ;
#131 = AXIS2_PLACEMENT_3D ( 'NONE', #177, #154, #42 ) ;
#132 = VERTEX_POINT ( 'NONE', #210 ) ;
#133 = EDGE_LOOP ( 'NONE', ( #191 ) ) ;
#134 =( NAMED_UNIT ( * ) PLANE_ANGLE_UNIT ( ) SI_UNIT ( $, .RADIAN. ) );
#135 = CARTESIAN_POINT ( 'NONE',  ( 7.011116621881576082E-14, 1.499999999999995559, 20.08063610102134433 ) ) ;
#136 = ADVANCED_FACE ( 'NONE', ( #156, #230 ), #297, .T. ) ;
#137 = APPROVAL ( #8, 'UNSPECIFIED' ) ;
#138 = FACE_OUTER_BOUND ( 'NONE', #265, .T. ) ;
#139 = DIRECTION ( 'NONE',  ( -3.491481338843133355E-15, 1.224646799147353207E-16, -1.000000000000000000 ) ) ;
#140 = AXIS2_PLACEMENT_3D ( 'NONE', #91, #139, #27 ) ;
#141 = EDGE_LOOP ( 'NONE', ( #167 ) ) ;
#142 = APPROVAL_STATUS ( 'not_yet_approved' ) ;
#143 = SECURITY_CLASSIFICATION_LEVEL ( 'unclassified' ) ;
#144 = DATE_AND_TIME ( #296, #5 ) ;
#145 = EDGE_LOOP ( 'NONE', ( #189 ) ) ;
#146 = CARTESIAN_POINT ( 'NONE',  ( 0.0000000000000000000, 0.0000000000000000000, 0.0000000000000000000 ) ) ;
#147 = AXIS2_PLACEMENT_3D ( 'NONE', #250, #80, #34 ) ;
#148 = EDGE_CURVE ( 'NONE', #111, #111, #222, .T. ) ;
#149 = DIRECTION ( 'NONE',  ( 4.275831445896958607E-31, 1.000000000000000000, 1.224646799147352961E-16 ) ) ;
#150 = SHAPE_DEFINITION_REPRESENTATION ( #107, #208 ) ;
#151 = AXIS2_PLACEMENT_3D ( 'NONE', #226, #14, #102 ) ;
#152 = DIRECTION ( 'NONE',  ( -3.491481338843133355E-15, 1.224646799147353207E-16, -1.000000000000000000 ) ) ;
#153 = EDGE_CURVE ( 'NONE', #161, #161, #290, .T. ) ;
#154 = DIRECTION ( 'NONE',  ( 3.491481338843133355E-15, -1.224646799147353207E-16, 1.000000000000000000 ) ) ;
#155 = PLANE ( 'NONE',  #56 ) ;
#156 = FACE_BOUND ( 'NONE', #74, .T. ) ;
#157 = VERTEX_POINT ( 'NONE', #2 ) ;
#158 = PRODUCT_RELATED_PRODUCT_CATEGORY ( 'detail', '', ( #228 ) ) ;
#159 = ORIENTED_EDGE ( 'NONE', *, *, #246, .T. ) ;
#160 = DIRECTION ( 'NONE',  ( -3.491481338843133355E-15, 1.224646799147353207E-16, -1.000000000000000000 ) ) ;
#161 = VERTEX_POINT ( 'NONE', #45 ) ;
#162 = EDGE_CURVE ( 'NONE', #157, #157, #181, .T. ) ;
#163 = CIRCLE ( 'NONE', #127, 0.5656624327025946419 ) ;
#164 = DIRECTION ( 'NONE',  ( -3.491481338843133355E-15, 1.224646799147353207E-16, -1.000000000000000000 ) ) ;
#165 = ORIENTED_EDGE ( 'NONE', *, *, #148, .T. ) ;
#166 = FACE_BOUND ( 'NONE', #301, .T. ) ;
#167 = ORIENTED_EDGE ( 'NONE', *, *, #300, .F. ) ;
#168 = PERSON_AND_ORGANIZATION ( #118, #71 ) ;
#169 = AXIS2_PLACEMENT_3D ( 'NONE', #41, #299, #275 ) ;
#170 = ORIENTED_EDGE ( 'NONE', *, *, #153, .T. ) ;
#171 = PERSON_AND_ORGANIZATION ( #118, #71 ) ;
#172 = ORIENTED_EDGE ( 'NONE', *, *, #246, .F. ) ;
#173 = EDGE_LOOP ( 'NONE', ( #172 ) ) ;
#174 = LOCAL_TIME ( 11, 40, 25.00000000000000000, #244 ) ;
#175 = ORIENTED_EDGE ( 'NONE', *, *, #162, .T. ) ;
#176 = APPROVAL_PERSON_ORGANIZATION ( #168, #137, #198 ) ;
#177 = CARTESIAN_POINT ( 'NONE',  ( 7.011116621881576082E-14, -2.459168672595857175E-15, 20.08063610102134433 ) ) ;
#178 = FACE_OUTER_BOUND ( 'NONE', #145, .T. ) ;
#179 = CARTESIAN_POINT ( 'NONE',  ( 0.0000000000000000000, 0.0000000000000000000, 0.0000000000000000000 ) ) ;
#180 = TOROIDAL_SURFACE ( 'NONE', #147, 2.635000000000000231, 1.999999999999999556 ) ;
#181 = CIRCLE ( 'NONE', #40, 0.6350000000000002309 ) ;
#182 =( NAMED_UNIT ( * ) SI_UNIT ( $, .STERADIAN. ) SOLID_ANGLE_UNIT ( ) );
#183 = CARTESIAN_POINT ( 'NONE',  ( 0.0000000000000000000, 0.0000000000000000000, 0.0000000000000000000 ) ) ;
#184 = ADVANCED_FACE ( 'NONE', ( #83 ), #254, .F. ) ;
#185 = CC_DESIGN_PERSON_AND_ORGANIZATION_ASSIGNMENT ( #218, #227, ( #228 ) ) ;
#186 = AXIS2_PLACEMENT_3D ( 'NONE', #68, #160, #95 ) ;
#187 = ORIENTED_EDGE ( 'NONE', *, *, #64, .T. ) ;
#188 = VERTEX_POINT ( 'NONE', #215 ) ;
#189 = ORIENTED_EDGE ( 'NONE', *, *, #37, .T. ) ;
#190 = CARTESIAN_POINT ( 'NONE',  ( 2.444036937190193349E-14, 0.7099999999999990763, 7.000000000000000000 ) ) ;
#191 = ORIENTED_EDGE ( 'NONE', *, *, #224, .F. ) ;
#192 = DATE_AND_TIME ( #242, #302 ) ;
#193 = APPLICATION_CONTEXT ( 'configuration controlled 3d designs of mechanical parts and assemblies' ) ;
#194 = CC_DESIGN_APPROVAL ( #137, ( #112 ) ) ;
#195 = APPLICATION_PROTOCOL_DEFINITION ( 'international standard', 'config_control_design', 1994, #235 ) ;
#196 = ORIENTED_EDGE ( 'NONE', *, *, #224, .T. ) ;
#197 = ADVANCED_FACE ( 'NONE', ( #84, #63 ), #35, .T. ) ;
#198 = APPROVAL_ROLE ( '' ) ;
#199 = FACE_OUTER_BOUND ( 'NONE', #11, .T. ) ;
#200 = EDGE_LOOP ( 'NONE', ( #159 ) ) ;
#201 = AXIS2_PLACEMENT_3D ( 'NONE', #25, #217, #214 ) ;
#202 = DIRECTION ( 'NONE',  ( 0.0000000000000000000, 1.000000000000000000, 0.0000000000000000000 ) ) ;
#203 = DIRECTION ( 'NONE',  ( 0.0000000000000000000, 1.000000000000000000, 0.0000000000000000000 ) ) ;
#204 = AXIS2_PLACEMENT_3D ( 'NONE', #281, #104, #202 ) ;
#205 = FACE_OUTER_BOUND ( 'NONE', #141, .T. ) ;
#206 = CLOSED_SHELL ( 'NONE', ( #4, #256, #212, #26, #197, #54, #100, #184 ) ) ;
#207 = FACE_BOUND ( 'NONE', #268, .T. ) ;
#208 = ADVANCED_BREP_SHAPE_REPRESENTATION ( '327028', ( #69, #278, #67 ), #10 ) ;
#209 = ADVANCED_FACE ( 'NONE', ( #130 ), #155, .T. ) ;
#210 = CARTESIAN_POINT ( 'NONE',  ( 8.728703347107835360E-16, 0.7099999999999990763, 0.2500000000000000555 ) ) ;
#211 = AXIS2_PLACEMENT_3D ( 'NONE', #61, #152, #18 ) ;
#212 = ADVANCED_FACE ( 'NONE', ( #138, #236 ), #70, .T. ) ;
#213 = CARTESIAN_POINT ( 'NONE',  ( 5.358479882634335789E-14, 0.6653844939755806376, 15.34729635533384595 ) ) ;
#214 = DIRECTION ( 'NONE',  ( -4.275831445896958607E-31, -1.000000000000000000, -1.224646799147353207E-16 ) ) ;
#215 = CARTESIAN_POINT ( 'NONE',  ( 0.0000000000000000000, 0.5656624327025946419, 0.0000000000000000000 ) ) ;
#216 = CONICAL_SURFACE ( 'NONE', #253, 0.6349999999999990097, 0.5235987755982923764 ) ;
#217 = DIRECTION ( 'NONE',  ( 3.491481338843133355E-15, -1.224646799147353207E-16, 1.000000000000000000 ) ) ;
#218 = PERSON_AND_ORGANIZATION ( #118, #71 ) ;
#219 = FACE_OUTER_BOUND ( 'NONE', #200, .T. ) ;
#220 = EDGE_LOOP ( 'NONE', ( #59 ) ) ;
#221 = APPLICATION_PROTOCOL_DEFINITION ( 'international standard', 'config_control_design', 1994, #193 ) ;
#222 = CIRCLE ( 'NONE', #211, 0.6349999999999990097 ) ;
#223 = PERSON_AND_ORGANIZATION_ROLE ( 'creator' ) ;
#224 = EDGE_CURVE ( 'NONE', #286, #286, #88, .T. ) ;
#225 = PERSON_AND_ORGANIZATION ( #118, #71 ) ;
#226 = CARTESIAN_POINT ( 'NONE',  ( 2.444036937190193349E-14, -8.572527594031473190E-16, 7.000000000000000000 ) ) ;
#227 = PERSON_AND_ORGANIZATION_ROLE ( 'design_owner' ) ;
#228 = PRODUCT ( '327028', '327028', '', ( #251 ) ) ;
#229 = DESIGN_CONTEXT ( 'detailed design', #235, 'design' ) ;
#230 = FACE_OUTER_BOUND ( 'NONE', #126, .T. ) ;
#231 = ORIENTED_EDGE ( 'NONE', *, *, #276, .T. ) ;
#232 = CC_DESIGN_PERSON_AND_ORGANIZATION_ASSIGNMENT ( #119, #9, ( #112 ) ) ;
#233 = CARTESIAN_POINT ( 'NONE',  ( 2.444036937190193349E-14, 5.324147228449581371E-33, 7.000000000000000000 ) ) ;
#234 = DIRECTION ( 'NONE',  ( -5.425154772921798413E-31, -1.000000000000000000, -1.527045313359867449E-16 ) ) ;
#235 = APPLICATION_CONTEXT ( 'configuration controlled 3d designs of mechanical parts and assemblies' ) ;
#236 = FACE_OUTER_BOUND ( 'NONE', #78, .T. ) ;
#237 = FACE_OUTER_BOUND ( 'NONE', #173, .T. ) ;
#238 = SECURITY_CLASSIFICATION ( '', '', #143 ) ;
#239 = CARTESIAN_POINT ( 'NONE',  ( 2.444036937190193349E-14, -8.572527594031473190E-16, 7.000000000000000000 ) ) ;
#240 = DIRECTION ( 'NONE',  ( -3.491481338843133355E-15, 1.224646799147353207E-16, -1.000000000000000000 ) ) ;
#241 = AXIS2_PLACEMENT_3D ( 'NONE', #113, #115, #44 ) ;
#242 = CALENDAR_DATE ( 2021, 1, 12 ) ;
#243 = EDGE_LOOP ( 'NONE', ( #62 ) ) ;
#244 = COORDINATED_UNIVERSAL_TIME_OFFSET ( 1, 0, .AHEAD. ) ;
#245 = PLANE ( 'NONE',  #73 ) ;
#246 = EDGE_CURVE ( 'NONE', #90, #90, #30, .T. ) ;
#247 = PERSON_AND_ORGANIZATION_ROLE ( 'creator' ) ;
#248 = APPROVAL_PERSON_ORGANIZATION ( #171, #65, #294 ) ;
#249 = APPROVAL_STATUS ( 'not_yet_approved' ) ;
#250 = CARTESIAN_POINT ( 'NONE',  ( 5.237222008264700033E-14, -1.734723475976807094E-15, 15.00000000000000000 ) ) ;
#251 = MECHANICAL_CONTEXT ( 'NONE', #193, 'mechanical' ) ;
#252 = FACE_OUTER_BOUND ( 'NONE', #58, .T. ) ;
#253 = AXIS2_PLACEMENT_3D ( 'NONE', #93, #29, #23 ) ;
#254 = PLANE ( 'NONE',  #169 ) ;
#255 = CARTESIAN_POINT ( 'NONE',  ( 5.237222008264700033E-14, -1.836970198721029589E-15, 15.00000000000000000 ) ) ;
#256 = ADVANCED_FACE ( 'NONE', ( #237, #166 ), #216, .T. ) ;
#257 = CC_DESIGN_PERSON_AND_ORGANIZATION_ASSIGNMENT ( #288, #247, ( #52 ) ) ;
#258 = CARTESIAN_POINT ( 'NONE',  ( 7.011116621881576082E-14, -2.459168672595857175E-15, 20.08063610102134433 ) ) ;
#259 = APPROVAL_PERSON_ORGANIZATION ( #12, #48, #79 ) ;
#260 = DIRECTION ( 'NONE',  ( 4.275831445896958607E-31, 1.000000000000000000, 1.224646799147353207E-16 ) ) ;
#261 = VERTEX_POINT ( 'NONE', #135 ) ;
#262 =( LENGTH_UNIT ( ) NAMED_UNIT ( * ) SI_UNIT ( .MILLI., .METRE. ) );
#263 = DIRECTION ( 'NONE',  ( 3.491481338843133355E-15, -1.224646799147353207E-16, 1.000000000000000000 ) ) ;
#264 = PERSON_AND_ORGANIZATION_ROLE ( 'classification_officer' ) ;
#265 = EDGE_LOOP ( 'NONE', ( #13 ) ) ;
#266 = COORDINATED_UNIVERSAL_TIME_OFFSET ( 1, 0, .AHEAD. ) ;
#267 = ADVANCED_FACE ( 'NONE', ( #117 ), #282, .F. ) ;
#268 = EDGE_LOOP ( 'NONE', ( #170 ) ) ;
#269 = COORDINATED_UNIVERSAL_TIME_OFFSET ( 1, 0, .AHEAD. ) ;
#270 = EDGE_LOOP ( 'NONE', ( #287 ) ) ;
#271 = ORIENTED_EDGE ( 'NONE', *, *, #108, .F. ) ;
#272 = FACE_OUTER_BOUND ( 'NONE', #285, .T. ) ;
#273 = DIRECTION ( 'NONE',  ( -3.491481338843133355E-15, 1.224646799147353207E-16, -1.000000000000000000 ) ) ;
#274 = CIRCLE ( 'NONE', #89, 1.499999999999997780 ) ;
#275 = DIRECTION ( 'NONE',  ( 4.275831445896958607E-31, 1.000000000000000000, 1.224646799147353207E-16 ) ) ;
#276 = EDGE_CURVE ( 'NONE', #75, #75, #284, .T. ) ;
#277 = DIRECTION ( 'NONE',  ( -3.491481338843133355E-15, 1.224646799147353207E-16, -1.000000000000000000 ) ) ;
#278 = MANIFOLD_SOLID_BREP ( 'Corps-Déplacer/Copier1[2]', #16 ) ;
#279 = DIRECTION ( 'NONE',  ( 0.0000000000000000000, 1.000000000000000000, 0.0000000000000000000 ) ) ;
#280 = CONICAL_SURFACE ( 'NONE', #109, 1.200000000000003286, 0.7853981633974453924 ) ;
#281 = CARTESIAN_POINT ( 'NONE',  ( 1.326762908760390423E-13, -4.653657836759941941E-15, 38.00000000000000000 ) ) ;
#282 = PLANE ( 'NONE',  #201 ) ;
#283 = CARTESIAN_POINT ( 'NONE',  ( 2.444036937190193349E-14, 0.7099999999999990763, 7.000000000000000000 ) ) ;
#284 = CIRCLE ( 'NONE', #186, 1.500000000000003331 ) ;
#285 = EDGE_LOOP ( 'NONE', ( #271 ) ) ;
#286 = VERTEX_POINT ( 'NONE', #213 ) ;
#287 = ORIENTED_EDGE ( 'NONE', *, *, #37, .F. ) ;
#288 = PERSON_AND_ORGANIZATION ( #118, #71 ) ;
#289 = APPROVAL_DATE_TIME ( #144, #137 ) ;
#290 = CIRCLE ( 'NONE', #204, 1.200000000000003286 ) ;
#291 = DATE_AND_TIME ( #31, #92 ) ;
#292 = DIRECTION ( 'NONE',  ( 3.491481338843133355E-15, -1.224646799147353207E-16, 1.000000000000000000 ) ) ;
#293 = EDGE_LOOP ( 'NONE', ( #187 ) ) ;
#294 = APPROVAL_ROLE ( '' ) ;
#295 = UNCERTAINTY_MEASURE_WITH_UNIT (LENGTH_MEASURE( 1.000000000000000082E-05 ), #262, 'distance_accuracy_value', 'NONE');
#296 = CALENDAR_DATE ( 2021, 1, 12 ) ;
#297 = CONICAL_SURFACE ( 'NONE', #81, 0.7099999999999990763, 0.5235987755982927094 ) ;
#298 = DIRECTION ( 'NONE',  ( -3.491481338843133355E-15, 1.224646799147353207E-16, -1.000000000000000000 ) ) ;
#299 = DIRECTION ( 'NONE',  ( -3.491481338843133355E-15, 1.224646799147353207E-16, -1.000000000000000000 ) ) ;
#300 = EDGE_CURVE ( 'NONE', #132, #132, #123, .T. ) ;
#301 = EDGE_LOOP ( 'NONE', ( #165 ) ) ;
#302 = LOCAL_TIME ( 11, 40, 25.00000000000000000, #266 ) ;
#303 = DIRECTION ( 'NONE',  ( -3.491481338843133355E-15, 1.224646799147353207E-16, -1.000000000000000000 ) ) ;
ENDSEC;
END-ISO-10303-21;
