ISO-10303-21;
HEADER;
FILE_DESCRIPTION (( 'STEP AP203' ),
    '1' );
FILE_NAME ('327027.step',
    '2021-12-01T10:40:25',
    ( '' ),
    ( '' ),
    'SwSTEP 2.0',
    'SolidWorks 2019',
    '' );
FILE_SCHEMA (( 'CONFIG_CONTROL_DESIGN' ));
ENDSEC;

DATA;
#1 = EDGE_CURVE ( 'NONE', #212, #212, #73, .T. ) ;
#2 = EDGE_LOOP ( 'NONE', ( #121 ) ) ;
#3 = AXIS2_PLACEMENT_3D ( 'NONE', #232, #273, #66 ) ;
#4 = CIRCLE ( 'NONE', #71, 1.500000000000003331 ) ;
#5 = DIRECTION ( 'NONE',  ( 4.275831445896958607E-31, 1.000000000000000000, 1.224646799147353207E-16 ) ) ;
#6 = COORDINATED_UNIVERSAL_TIME_OFFSET ( 1, 0, .AHEAD. ) ;
#7 = ORIENTED_EDGE ( 'NONE', *, *, #26, .T. ) ;
#8 = FACE_OUTER_BOUND ( 'NONE', #145, .T. ) ;
#9 = EDGE_CURVE ( 'NONE', #90, #90, #154, .T. ) ;
#10 = MECHANICAL_CONTEXT ( 'NONE', #105, 'mechanical' ) ;
#11 = DIRECTION ( 'NONE',  ( -3.491481338843133355E-15, 1.224646799147353207E-16, -1.000000000000000000 ) ) ;
#12 = CIRCLE ( 'NONE', #137, 1.200000000000003286 ) ;
#13 = DATE_AND_TIME ( #182, #159 ) ;
#14 = CARTESIAN_POINT ( 'NONE',  ( -3.343665973474423014E-31, 1.172800148257456935E-32, -9.576639967327772144E-17 ) ) ;
#15 = DIRECTION ( 'NONE',  ( 4.275831445896958607E-31, 1.000000000000000000, 1.224646799147353207E-16 ) ) ;
#16 = APPLICATION_CONTEXT ( 'configuration controlled 3d designs of mechanical parts and assemblies' ) ;
#17 = APPROVAL_PERSON_ORGANIZATION ( #246, #164, #278 ) ;
#18 = DIRECTION ( 'NONE',  ( -3.491481338843133355E-15, 1.224646799147353207E-16, -1.000000000000000000 ) ) ;
#19 = VERTEX_POINT ( 'NONE', #163 ) ;
#20 = EDGE_CURVE ( 'NONE', #19, #19, #276, .T. ) ;
#21 = ORIENTED_EDGE ( 'NONE', *, *, #244, .T. ) ;
#22 = PERSON_AND_ORGANIZATION_ROLE ( 'design_owner' ) ;
#23 = VERTEX_POINT ( 'NONE', #188 ) ;
#24 = CARTESIAN_POINT ( 'NONE',  ( 0.0000000000000000000, 0.0000000000000000000, 0.0000000000000000000 ) ) ;
#25 = AXIS2_PLACEMENT_3D ( 'NONE', #24, #301, #201 ) ;
#26 = EDGE_CURVE ( 'NONE', #281, #281, #100, .T. ) ;
#27 = CC_DESIGN_SECURITY_CLASSIFICATION ( #285, ( #168 ) ) ;
#28 = AXIS2_PLACEMENT_3D ( 'NONE', #250, #132, #110 ) ;
#29 = ORIENTED_EDGE ( 'NONE', *, *, #211, .F. ) ;
#30 = CARTESIAN_POINT ( 'NONE',  ( 1.326762908760390423E-13, 8.998558695971103225E-33, 38.00000000000000000 ) ) ;
#31 = CARTESIAN_POINT ( 'NONE',  ( 1.316288464743861212E-13, -4.616918432785521081E-15, 37.69999999999999574 ) ) ;
#32 = APPLICATION_PROTOCOL_DEFINITION ( 'international standard', 'config_control_design', 1994, #105 ) ;
#33 = CALENDAR_DATE ( 2021, 1, 12 ) ;
#34 = FACE_BOUND ( 'NONE', #219, .T. ) ;
#35 = ORIENTED_EDGE ( 'NONE', *, *, #211, .T. ) ;
#36 = PERSON_AND_ORGANIZATION_ROLE ( 'design_supplier' ) ;
#37 = CC_DESIGN_DATE_AND_TIME_ASSIGNMENT ( #13, #199, ( #285 ) ) ;
#38 = CARTESIAN_POINT ( 'NONE',  ( 5.358479882634335789E-14, -1.879501735712543302E-15, 15.34729635533384595 ) ) ;
#39 = FACE_OUTER_BOUND ( 'NONE', #224, .T. ) ;
#40 = ADVANCED_FACE ( 'NONE', ( #195 ), #81, .T. ) ;
#41 = COORDINATED_UNIVERSAL_TIME_OFFSET ( 1, 0, .AHEAD. ) ;
#42 = DIRECTION ( 'NONE',  ( -3.491481338843133355E-15, 1.224646799147353207E-16, -1.000000000000000000 ) ) ;
#43 = ADVANCED_FACE ( 'NONE', ( #34, #8 ), #213, .T. ) ;
#44 = PERSON_AND_ORGANIZATION ( #138, #112 ) ;
#45 = ADVANCED_FACE ( 'NONE', ( #197 ), #192, .F. ) ;
#46 = VERTEX_POINT ( 'NONE', #72 ) ;
#47 = EDGE_LOOP ( 'NONE', ( #147 ) ) ;
#48 = ORIENTED_EDGE ( 'NONE', *, *, #56, .F. ) ;
#49 = EDGE_CURVE ( 'NONE', #97, #97, #268, .T. ) ;
#50 = ORIENTED_EDGE ( 'NONE', *, *, #9, .T. ) ;
#51 = FACE_OUTER_BOUND ( 'NONE', #2, .T. ) ;
#52 = CARTESIAN_POINT ( 'NONE',  ( 0.0000000000000000000, 0.0000000000000000000, 0.0000000000000000000 ) ) ;
#53 = EDGE_LOOP ( 'NONE', ( #288 ) ) ;
#54 = AXIS2_PLACEMENT_3D ( 'NONE', #151, #11, #99 ) ;
#55 = DIRECTION ( 'NONE',  ( 0.0000000000000000000, 1.000000000000000000, 0.0000000000000000000 ) ) ;
#56 = EDGE_CURVE ( 'NONE', #23, #23, #12, .T. ) ;
#57 = DIRECTION ( 'NONE',  ( -3.491481338843133355E-15, 1.224646799147353207E-16, -1.000000000000000000 ) ) ;
#58 = AXIS2_PLACEMENT_3D ( 'NONE', #87, #61, #251 ) ;
#59 = DIRECTION ( 'NONE',  ( 0.0000000000000000000, 1.000000000000000000, 0.0000000000000000000 ) ) ;
#60 = LOCAL_TIME ( 11, 40, 25.00000000000000000, #41 ) ;
#61 = DIRECTION ( 'NONE',  ( -3.491481338843133355E-15, 1.224646799147353207E-16, -1.000000000000000000 ) ) ;
#62 = AXIS2_PLACEMENT_3D ( 'NONE', #14, #265, #5 ) ;
#63 = CARTESIAN_POINT ( 'NONE',  ( 0.0000000000000000000, 0.0000000000000000000, 0.0000000000000000000 ) ) ;
#64 = FACE_OUTER_BOUND ( 'NONE', #270, .T. ) ;
#65 = PERSON_AND_ORGANIZATION ( #138, #112 ) ;
#66 = DIRECTION ( 'NONE',  ( -4.275831445896958607E-31, -1.000000000000000000, -1.224646799147353207E-16 ) ) ;
#67 = CARTESIAN_POINT ( 'NONE',  ( 2.444036937190193349E-14, 0.7049999999999992939, 7.000000000000000000 ) ) ;
#68 = ORIENTED_EDGE ( 'NONE', *, *, #209, .F. ) ;
#69 = APPROVAL ( #114, 'UNSPECIFIED' ) ;
#70 = AXIS2_PLACEMENT_3D ( 'NONE', #228, #84, #59 ) ;
#71 = AXIS2_PLACEMENT_3D ( 'NONE', #31, #204, #292 ) ;
#72 = CARTESIAN_POINT ( 'NONE',  ( 8.728703347107835360E-16, 0.7049999999999992939, 0.2500000000000000555 ) ) ;
#73 = CIRCLE ( 'NONE', #241, 0.7050000000000000711 ) ;
#74 = CARTESIAN_POINT ( 'NONE',  ( 2.444036937190193349E-14, 0.7049999999999992939, 7.000000000000000000 ) ) ;
#75 = EDGE_LOOP ( 'NONE', ( #174 ) ) ;
#76 = LOCAL_TIME ( 11, 40, 25.00000000000000000, #155 ) ;
#77 = ADVANCED_FACE ( 'NONE', ( #170, #156 ), #160, .T. ) ;
#78 = DIRECTION ( 'NONE',  ( -3.491481338843133355E-15, 1.224646799147353207E-16, -1.000000000000000000 ) ) ;
#79 = VERTEX_POINT ( 'NONE', #264 ) ;
#80 = CARTESIAN_POINT ( 'NONE',  ( 2.486368898698079040E-14, -8.721008127452962618E-16, 7.121243556529824659 ) ) ;
#81 = PLANE ( 'NONE',  #142 ) ;
#82 = CARTESIAN_POINT ( 'NONE',  ( 1.326762908760390423E-13, -4.653657836759941941E-15, 38.00000000000000000 ) ) ;
#83 = EDGE_LOOP ( 'NONE', ( #7 ) ) ;
#84 = DIRECTION ( 'NONE',  ( -3.491481338843133355E-15, 1.224646799147353207E-16, -1.000000000000000000 ) ) ;
#85 =( GEOMETRIC_REPRESENTATION_CONTEXT ( 3 ) GLOBAL_UNCERTAINTY_ASSIGNED_CONTEXT ( ( #298 ) ) GLOBAL_UNIT_ASSIGNED_CONTEXT ( ( #258, #257, #119 ) ) REPRESENTATION_CONTEXT ( 'NONE', 'WORKASPACE' ) );
#86 = APPROVAL ( #194, 'UNSPECIFIED' ) ;
#87 = CARTESIAN_POINT ( 'NONE',  ( 2.486368898698079040E-14, -8.721008127452962618E-16, 7.121243556529824659 ) ) ;
#88 = ADVANCED_FACE ( 'NONE', ( #51, #130 ), #238, .T. ) ;
#89 = CIRCLE ( 'NONE', #202, 0.6653844939755825250 ) ;
#90 = VERTEX_POINT ( 'NONE', #136 ) ;
#91 = DIRECTION ( 'NONE',  ( -4.275831445896958607E-31, -1.000000000000000000, -1.224646799147353207E-16 ) ) ;
#92 = PERSON_AND_ORGANIZATION_ROLE ( 'creator' ) ;
#93 = CC_DESIGN_PERSON_AND_ORGANIZATION_ASSIGNMENT ( #135, #229, ( #285 ) ) ;
#94 = MANIFOLD_SOLID_BREP ( 'Corps-Déplacer/Copier1[2]', #152 ) ;
#95 = AXIS2_PLACEMENT_3D ( 'NONE', #30, #78, #103 ) ;
#96 = ORIENTED_EDGE ( 'NONE', *, *, #49, .T. ) ;
#97 = VERTEX_POINT ( 'NONE', #262 ) ;
#98 = EDGE_LOOP ( 'NONE', ( #284 ) ) ;
#99 = DIRECTION ( 'NONE',  ( 0.0000000000000000000, 1.000000000000000000, 0.0000000000000000000 ) ) ;
#100 = CIRCLE ( 'NONE', #235, 1.499999999999997780 ) ;
#101 = DATE_TIME_ROLE ( 'creation_date' ) ;
#102 = EDGE_LOOP ( 'NONE', ( #125 ) ) ;
#103 = DIRECTION ( 'NONE',  ( 4.275831445896958607E-31, 1.000000000000000000, 1.224646799147353207E-16 ) ) ;
#104 = AXIS2_PLACEMENT_3D ( 'NONE', #129, #158, #248 ) ;
#105 = APPLICATION_CONTEXT ( 'configuration controlled 3d designs of mechanical parts and assemblies' ) ;
#106 = DATE_AND_TIME ( #33, #76 ) ;
#107 = DIRECTION ( 'NONE',  ( -4.275831445896958607E-31, -1.000000000000000000, -1.224646799147353207E-16 ) ) ;
#108 = DATE_AND_TIME ( #297, #60 ) ;
#109 = CC_DESIGN_PERSON_AND_ORGANIZATION_ASSIGNMENT ( #131, #237, ( #217 ) ) ;
#110 = DIRECTION ( 'NONE',  ( 5.463631047907057625E-31, 1.000000000000000000, 1.537875421965256081E-16 ) ) ;
#111 = COORDINATED_UNIVERSAL_TIME_OFFSET ( 1, 0, .AHEAD. ) ;
#112 = ORGANIZATION ( 'UNSPECIFIED', 'UNSPECIFIED', '' ) ;
#113 = ADVANCED_FACE ( 'NONE', ( #39 ), #166, .F. ) ;
#114 = APPROVAL_STATUS ( 'not_yet_approved' ) ;
#115 = DIRECTION ( 'NONE',  ( 0.0000000000000000000, 1.000000000000000000, 0.0000000000000000000 ) ) ;
#116 = AXIS2_PLACEMENT_3D ( 'NONE', #185, #254, #91 ) ;
#117 = CARTESIAN_POINT ( 'NONE',  ( 5.237222008264700033E-14, -1.734723475976807094E-15, 15.00000000000000000 ) ) ;
#118 = CC_DESIGN_PERSON_AND_ORGANIZATION_ASSIGNMENT ( #134, #36, ( #168 ) ) ;
#119 =( NAMED_UNIT ( * ) SI_UNIT ( $, .STERADIAN. ) SOLID_ANGLE_UNIT ( ) );
#120 = ADVANCED_FACE ( 'NONE', ( #143, #275 ), #133, .T. ) ;
#121 = ORIENTED_EDGE ( 'NONE', *, *, #49, .F. ) ;
#122 = ORIENTED_EDGE ( 'NONE', *, *, #20, .F. ) ;
#123 = VERTEX_POINT ( 'NONE', #167 ) ;
#124 = ORIENTED_EDGE ( 'NONE', *, *, #1, .F. ) ;
#125 = ORIENTED_EDGE ( 'NONE', *, *, #20, .T. ) ;
#126 = DIRECTION ( 'NONE',  ( -3.491481338843133355E-15, 1.224646799147353207E-16, -1.000000000000000000 ) ) ;
#127 = ORIENTED_EDGE ( 'NONE', *, *, #26, .F. ) ;
#128 = DATE_AND_TIME ( #286, #302 ) ;
#129 = CARTESIAN_POINT ( 'NONE',  ( 7.011116621881576082E-14, -2.459168672595857175E-15, 20.08063610102134433 ) ) ;
#130 = FACE_OUTER_BOUND ( 'NONE', #102, .T. ) ;
#131 = PERSON_AND_ORGANIZATION ( #138, #112 ) ;
#132 = DIRECTION ( 'NONE',  ( -3.491481338843133355E-15, 1.224646799147353207E-16, -1.000000000000000000 ) ) ;
#133 = CYLINDRICAL_SURFACE ( 'NONE', #189, 0.7049999999999996270 ) ;
#134 = PERSON_AND_ORGANIZATION ( #138, #112 ) ;
#135 = PERSON_AND_ORGANIZATION ( #138, #112 ) ;
#136 = CARTESIAN_POINT ( 'NONE',  ( -9.463679131915806782E-32, 0.5606624327025948595, -2.710505431213761085E-17 ) ) ;
#137 = AXIS2_PLACEMENT_3D ( 'NONE', #82, #269, #55 ) ;
#138 = PERSON ( 'UNSPECIFIED', 'UNSPECIFIED', 'UNSPECIFIED', ('UNSPECIFIED'), ('UNSPECIFIED'), ('UNSPECIFIED') ) ;
#139 = FACE_OUTER_BOUND ( 'NONE', #290, .T. ) ;
#140 = SECURITY_CLASSIFICATION_LEVEL ( 'unclassified' ) ;
#141 = EDGE_LOOP ( 'NONE', ( #96 ) ) ;
#142 = AXIS2_PLACEMENT_3D ( 'NONE', #177, #223, #107 ) ;
#143 = FACE_OUTER_BOUND ( 'NONE', #245, .T. ) ;
#144 = EDGE_LOOP ( 'NONE', ( #50 ) ) ;
#145 = EDGE_LOOP ( 'NONE', ( #35 ) ) ;
#146 = CC_DESIGN_PERSON_AND_ORGANIZATION_ASSIGNMENT ( #44, #92, ( #168 ) ) ;
#147 = ORIENTED_EDGE ( 'NONE', *, *, #209, .T. ) ;
#148 = VERTEX_POINT ( 'NONE', #74 ) ;
#149 = APPROVAL_DATE_TIME ( #184, #164 ) ;
#150 = AXIS2_PLACEMENT_3D ( 'NONE', #300, #18, #115 ) ;
#151 = CARTESIAN_POINT ( 'NONE',  ( 5.237222008264700033E-14, -1.836970198721029589E-15, 15.00000000000000000 ) ) ;
#152 = CLOSED_SHELL ( 'NONE', ( #252, #43, #120, #40 ) ) ;
#153 = DIRECTION ( 'NONE',  ( 0.0000000000000000000, 1.000000000000000000, 0.0000000000000000000 ) ) ;
#154 = CIRCLE ( 'NONE', #62, 0.5606624327025948595 ) ;
#155 = COORDINATED_UNIVERSAL_TIME_OFFSET ( 1, 0, .AHEAD. ) ;
#156 = FACE_OUTER_BOUND ( 'NONE', #83, .T. ) ;
#157 = DIRECTION ( 'NONE',  ( -3.491481338843133355E-15, 1.224646799147353207E-16, -1.000000000000000000 ) ) ;
#158 = DIRECTION ( 'NONE',  ( 3.491481338843133355E-15, -1.224646799147353207E-16, 1.000000000000000000 ) ) ;
#159 = LOCAL_TIME ( 11, 40, 25.00000000000000000, #111 ) ;
#160 = CONICAL_SURFACE ( 'NONE', #104, 1.499999999999997780, 0.1745329251994258701 ) ;
#161 = APPLICATION_PROTOCOL_DEFINITION ( 'international standard', 'config_control_design', 1994, #16 ) ;
#162 = CC_DESIGN_DATE_AND_TIME_ASSIGNMENT ( #128, #101, ( #217 ) ) ;
#163 = CARTESIAN_POINT ( 'NONE',  ( 5.237222008264700033E-14, 0.6349999999999984546, 15.00000000000000000 ) ) ;
#164 = APPROVAL ( #205, 'UNSPECIFIED' ) ;
#165 = ORIENTED_EDGE ( 'NONE', *, *, #9, .F. ) ;
#166 = PLANE ( 'NONE',  #3 ) ;
#167 = CARTESIAN_POINT ( 'NONE',  ( 5.358479882634335789E-14, 0.6653844939755806376, 15.34729635533384595 ) ) ;
#168 = PRODUCT_DEFINITION_FORMATION_WITH_SPECIFIED_SOURCE ( 'ANY', '', #196, .NOT_KNOWN. ) ;
#169 = ORIENTED_EDGE ( 'NONE', *, *, #282, .F. ) ;
#170 = FACE_BOUND ( 'NONE', #98, .T. ) ;
#171 = CC_DESIGN_PERSON_AND_ORGANIZATION_ASSIGNMENT ( #294, #22, ( #196 ) ) ;
#172 = DIRECTION ( 'NONE',  ( -3.491481338843133355E-15, 1.224646799147353207E-16, -1.000000000000000000 ) ) ;
#173 = DIRECTION ( 'NONE',  ( 3.491481338843133355E-15, -1.224646799147353207E-16, 1.000000000000000000 ) ) ;
#174 = ORIENTED_EDGE ( 'NONE', *, *, #56, .T. ) ;
#175 = PRODUCT_DEFINITION_SHAPE ( 'NONE', 'NONE',  #217 ) ;
#176 = CYLINDRICAL_SURFACE ( 'NONE', #203, 1.500000000000000444 ) ;
#177 = CARTESIAN_POINT ( 'NONE',  ( 2.444036937190193349E-14, 5.286653233883036709E-33, 7.000000000000000000 ) ) ;
#178 = CIRCLE ( 'NONE', #28, 0.7049999999999992939 ) ;
#179 = CONICAL_SURFACE ( 'NONE', #58, 0.6349999999999992317, 0.5235987755982917102 ) ;
#180 = ADVANCED_FACE ( 'NONE', ( #181, #222 ), #176, .T. ) ;
#181 = FACE_OUTER_BOUND ( 'NONE', #221, .T. ) ;
#182 = CALENDAR_DATE ( 2021, 1, 12 ) ;
#183 = PLANE ( 'NONE',  #116 ) ;
#184 = DATE_AND_TIME ( #214, #186 ) ;
#185 = CARTESIAN_POINT ( 'NONE',  ( -1.671832986737211507E-31, 5.864000741287284677E-33, -4.788319983663886072E-17 ) ) ;
#186 = LOCAL_TIME ( 11, 40, 25.00000000000000000, #236 ) ;
#187 = MANIFOLD_SOLID_BREP ( 'Corps-Déplacer/Copier1[1]', #293 ) ;
#188 = CARTESIAN_POINT ( 'NONE',  ( 1.326762908760390423E-13, 1.199999999999998845, 38.00000000000000000 ) ) ;
#189 = AXIS2_PLACEMENT_3D ( 'NONE', #63, #157, #15 ) ;
#190 = APPROVAL_PERSON_ORGANIZATION ( #65, #69, #274 ) ;
#191 = CARTESIAN_POINT ( 'NONE',  ( 8.728703347107831416E-16, -3.061616997868382402E-17, 0.2499999999999999445 ) ) ;
#192 = PLANE ( 'NONE',  #95 ) ;
#193 = CARTESIAN_POINT ( 'NONE',  ( 7.011116621881576082E-14, 1.499999999999995559, 20.08063610102134433 ) ) ;
#194 = APPROVAL_STATUS ( 'not_yet_approved' ) ;
#195 = FACE_OUTER_BOUND ( 'NONE', #218, .T. ) ;
#196 = PRODUCT ( '327027', '327027', '', ( #10 ) ) ;
#197 = FACE_OUTER_BOUND ( 'NONE', #263, .T. ) ;
#198 = ORIENTED_EDGE ( 'NONE', *, *, #282, .T. ) ;
#199 = DATE_TIME_ROLE ( 'classification_date' ) ;
#200 = FACE_BOUND ( 'NONE', #141, .T. ) ;
#201 = DIRECTION ( 'NONE',  ( 4.275831445896958607E-31, 1.000000000000000000, 1.224646799147353207E-16 ) ) ;
#202 = AXIS2_PLACEMENT_3D ( 'NONE', #38, #42, #207 ) ;
#203 = AXIS2_PLACEMENT_3D ( 'NONE', #267, #126, #243 ) ;
#204 = DIRECTION ( 'NONE',  ( -3.491481338843133355E-15, 1.224646799147353207E-16, -1.000000000000000000 ) ) ;
#205 = APPROVAL_STATUS ( 'not_yet_approved' ) ;
#206 = SHAPE_DEFINITION_REPRESENTATION ( #175, #260 ) ;
#207 = DIRECTION ( 'NONE',  ( 0.0000000000000000000, 1.000000000000000000, 0.0000000000000000000 ) ) ;
#208 = ADVANCED_FACE ( 'NONE', ( #64, #296 ), #225, .T. ) ;
#209 = EDGE_CURVE ( 'NONE', #79, #79, #4, .T. ) ;
#210 = APPROVAL_PERSON_ORGANIZATION ( #247, #86, #289 ) ;
#211 = EDGE_CURVE ( 'NONE', #46, #46, #178, .T. ) ;
#212 = VERTEX_POINT ( 'NONE', #67 ) ;
#213 = CONICAL_SURFACE ( 'NONE', #287, 0.7049999999999992939, 0.5235987755982925984 ) ;
#214 = CALENDAR_DATE ( 2021, 1, 12 ) ;
#215 = PRODUCT_RELATED_PRODUCT_CATEGORY ( 'detail', '', ( #196 ) ) ;
#216 = EDGE_LOOP ( 'NONE', ( #169 ) ) ;
#217 = PRODUCT_DEFINITION ( 'UNKNOWN', '', #168, #230 ) ;
#218 = EDGE_LOOP ( 'NONE', ( #124 ) ) ;
#219 = EDGE_LOOP ( 'NONE', ( #165 ) ) ;
#220 = DIRECTION ( 'NONE',  ( 1.000000000000000000, 0.0000000000000000000, 0.0000000000000000000 ) ) ;
#221 = EDGE_LOOP ( 'NONE', ( #127 ) ) ;
#222 = FACE_OUTER_BOUND ( 'NONE', #47, .T. ) ;
#223 = DIRECTION ( 'NONE',  ( 3.491481338843133355E-15, -1.224646799147353207E-16, 1.000000000000000000 ) ) ;
#224 = EDGE_LOOP ( 'NONE', ( #198 ) ) ;
#225 = CONICAL_SURFACE ( 'NONE', #70, 1.200000000000003286, 0.7853981633974453924 ) ;
#226 = DIRECTION ( 'NONE',  ( 0.0000000000000000000, 1.000000000000000000, 0.0000000000000000000 ) ) ;
#227 = AXIS2_PLACEMENT_3D ( 'NONE', #80, #172, #291 ) ;
#228 = CARTESIAN_POINT ( 'NONE',  ( 1.326762908760390423E-13, -4.653657836759941941E-15, 38.00000000000000000 ) ) ;
#229 = PERSON_AND_ORGANIZATION_ROLE ( 'classification_officer' ) ;
#230 = DESIGN_CONTEXT ( 'detailed design', #16, 'design' ) ;
#231 = ADVANCED_FACE ( 'NONE', ( #277, #200 ), #179, .T. ) ;
#232 = CARTESIAN_POINT ( 'NONE',  ( 2.444036937190193349E-14, 5.286653233883036709E-33, 7.000000000000000000 ) ) ;
#233 = CIRCLE ( 'NONE', #150, 0.7050000000000000711 ) ;
#234 = CC_DESIGN_APPROVAL ( #69, ( #285 ) ) ;
#235 = AXIS2_PLACEMENT_3D ( 'NONE', #240, #57, #153 ) ;
#236 = COORDINATED_UNIVERSAL_TIME_OFFSET ( 1, 0, .AHEAD. ) ;
#237 = PERSON_AND_ORGANIZATION_ROLE ( 'creator' ) ;
#238 = CYLINDRICAL_SURFACE ( 'NONE', #25, 0.6349999999999996758 ) ;
#239 = TOROIDAL_SURFACE ( 'NONE', #256, 2.635000000000000231, 1.999999999999999556 ) ;
#240 = CARTESIAN_POINT ( 'NONE',  ( 7.011116621881576082E-14, -2.459168672595857175E-15, 20.08063610102134433 ) ) ;
#241 = AXIS2_PLACEMENT_3D ( 'NONE', #295, #242, #226 ) ;
#242 = DIRECTION ( 'NONE',  ( -3.491481338843133355E-15, 1.224646799147353207E-16, -1.000000000000000000 ) ) ;
#243 = DIRECTION ( 'NONE',  ( 4.275831445896958607E-31, 1.000000000000000000, 1.224646799147353207E-16 ) ) ;
#244 = EDGE_CURVE ( 'NONE', #123, #123, #89, .T. ) ;
#245 = EDGE_LOOP ( 'NONE', ( #29 ) ) ;
#246 = PERSON_AND_ORGANIZATION ( #138, #112 ) ;
#247 = PERSON_AND_ORGANIZATION ( #138, #112 ) ;
#248 = DIRECTION ( 'NONE',  ( 0.0000000000000000000, -1.000000000000000000, 0.0000000000000000000 ) ) ;
#249 = CC_DESIGN_APPROVAL ( #86, ( #168 ) ) ;
#250 = CARTESIAN_POINT ( 'NONE',  ( 8.728703347107831416E-16, -3.061616997868382402E-17, 0.2499999999999999445 ) ) ;
#251 = DIRECTION ( 'NONE',  ( 0.0000000000000000000, 1.000000000000000000, 0.0000000000000000000 ) ) ;
#252 = ADVANCED_FACE ( 'NONE', ( #303 ), #183, .F. ) ;
#253 = DIRECTION ( 'NONE',  ( -3.491481338843133355E-15, 1.224646799147353207E-16, -1.000000000000000000 ) ) ;
#254 = DIRECTION ( 'NONE',  ( 3.491481338843133355E-15, -1.224646799147353207E-16, 1.000000000000000000 ) ) ;
#255 = AXIS2_PLACEMENT_3D ( 'NONE', #52, #280, #220 ) ;
#256 = AXIS2_PLACEMENT_3D ( 'NONE', #117, #253, #283 ) ;
#257 =( NAMED_UNIT ( * ) PLANE_ANGLE_UNIT ( ) SI_UNIT ( $, .RADIAN. ) );
#258 =( LENGTH_UNIT ( ) NAMED_UNIT ( * ) SI_UNIT ( .MILLI., .METRE. ) );
#259 = EDGE_LOOP ( 'NONE', ( #122 ) ) ;
#260 = ADVANCED_BREP_SHAPE_REPRESENTATION ( '327027', ( #187, #94, #255 ), #85 ) ;
#261 = CC_DESIGN_APPROVAL ( #164, ( #217 ) ) ;
#262 = CARTESIAN_POINT ( 'NONE',  ( 2.486368898698079040E-14, 0.6349999999999984546, 7.121243556529824659 ) ) ;
#263 = EDGE_LOOP ( 'NONE', ( #48 ) ) ;
#264 = CARTESIAN_POINT ( 'NONE',  ( 1.316288464743861212E-13, 1.499999999999998668, 37.69999999999999574 ) ) ;
#265 = DIRECTION ( 'NONE',  ( -3.491481338843133355E-15, 1.224646799147353207E-16, -1.000000000000000000 ) ) ;
#266 = DIRECTION ( 'NONE',  ( -5.463631047907057625E-31, -1.000000000000000000, -1.537875421965256081E-16 ) ) ;
#267 = CARTESIAN_POINT ( 'NONE',  ( 0.0000000000000000000, 0.0000000000000000000, 0.0000000000000000000 ) ) ;
#268 = CIRCLE ( 'NONE', #227, 0.6349999999999992317 ) ;
#269 = DIRECTION ( 'NONE',  ( -3.491481338843133355E-15, 1.224646799147353207E-16, -1.000000000000000000 ) ) ;
#270 = EDGE_LOOP ( 'NONE', ( #68 ) ) ;
#271 = ADVANCED_FACE ( 'NONE', ( #279, #139 ), #239, .F. ) ;
#272 = APPROVAL_DATE_TIME ( #108, #69 ) ;
#273 = DIRECTION ( 'NONE',  ( 3.491481338843133355E-15, -1.224646799147353207E-16, 1.000000000000000000 ) ) ;
#274 = APPROVAL_ROLE ( '' ) ;
#275 = FACE_OUTER_BOUND ( 'NONE', #53, .T. ) ;
#276 = CIRCLE ( 'NONE', #54, 0.6350000000000002309 ) ;
#277 = FACE_OUTER_BOUND ( 'NONE', #216, .T. ) ;
#278 = APPROVAL_ROLE ( '' ) ;
#279 = FACE_OUTER_BOUND ( 'NONE', #259, .T. ) ;
#280 = DIRECTION ( 'NONE',  ( 0.0000000000000000000, 0.0000000000000000000, 1.000000000000000000 ) ) ;
#281 = VERTEX_POINT ( 'NONE', #193 ) ;
#282 = EDGE_CURVE ( 'NONE', #148, #148, #233, .T. ) ;
#283 = DIRECTION ( 'NONE',  ( 4.275831445896958607E-31, 1.000000000000000000, 1.224646799147353207E-16 ) ) ;
#284 = ORIENTED_EDGE ( 'NONE', *, *, #244, .F. ) ;
#285 = SECURITY_CLASSIFICATION ( '', '', #140 ) ;
#286 = CALENDAR_DATE ( 2021, 1, 12 ) ;
#287 = AXIS2_PLACEMENT_3D ( 'NONE', #191, #173, #266 ) ;
#288 = ORIENTED_EDGE ( 'NONE', *, *, #1, .T. ) ;
#289 = APPROVAL_ROLE ( '' ) ;
#290 = EDGE_LOOP ( 'NONE', ( #21 ) ) ;
#291 = DIRECTION ( 'NONE',  ( 0.0000000000000000000, 1.000000000000000000, 0.0000000000000000000 ) ) ;
#292 = DIRECTION ( 'NONE',  ( 0.0000000000000000000, 1.000000000000000000, 0.0000000000000000000 ) ) ;
#293 = CLOSED_SHELL ( 'NONE', ( #113, #231, #88, #271, #77, #180, #208, #45 ) ) ;
#294 = PERSON_AND_ORGANIZATION ( #138, #112 ) ;
#295 = CARTESIAN_POINT ( 'NONE',  ( 2.444036937190193349E-14, -8.572527594031473190E-16, 7.000000000000000000 ) ) ;
#296 = FACE_BOUND ( 'NONE', #75, .T. ) ;
#297 = CALENDAR_DATE ( 2021, 1, 12 ) ;
#298 = UNCERTAINTY_MEASURE_WITH_UNIT (LENGTH_MEASURE( 1.000000000000000082E-05 ), #258, 'distance_accuracy_value', 'NONE');
#299 = APPROVAL_DATE_TIME ( #106, #86 ) ;
#300 = CARTESIAN_POINT ( 'NONE',  ( 2.444036937190193349E-14, -8.572527594031473190E-16, 7.000000000000000000 ) ) ;
#301 = DIRECTION ( 'NONE',  ( -3.491481338843133355E-15, 1.224646799147353207E-16, -1.000000000000000000 ) ) ;
#302 = LOCAL_TIME ( 11, 40, 25.00000000000000000, #6 ) ;
#303 = FACE_OUTER_BOUND ( 'NONE', #144, .T. ) ;
ENDSEC;
END-ISO-10303-21;
