ISO-10303-21;
HEADER;
FILE_DESCRIPTION (( 'STEP AP203' ),
    '1' );
FILE_NAME ('327026.step',
    '2021-12-01T10:40:24',
    ( '' ),
    ( '' ),
    'SwSTEP 2.0',
    'SolidWorks 2019',
    '' );
FILE_SCHEMA (( 'CONFIG_CONTROL_DESIGN' ));
ENDSEC;

DATA;
#1 = ORIENTED_EDGE ( 'NONE', *, *, #219, .T. ) ;
#2 = DIRECTION ( 'NONE',  ( -3.491481338843133355E-15, 1.224646799147353207E-16, -1.000000000000000000 ) ) ;
#3 = CC_DESIGN_PERSON_AND_ORGANIZATION_ASSIGNMENT ( #122, #227, ( #49 ) ) ;
#4 = EDGE_CURVE ( 'NONE', #289, #289, #195, .T. ) ;
#5 = PLANE ( 'NONE',  #11 ) ;
#6 = ORGANIZATION ( 'UNSPECIFIED', 'UNSPECIFIED', '' ) ;
#7 = DIRECTION ( 'NONE',  ( -3.491481338843133355E-15, 1.224646799147353207E-16, -1.000000000000000000 ) ) ;
#8 = CARTESIAN_POINT ( 'NONE',  ( 0.0000000000000000000, 0.0000000000000000000, 0.0000000000000000000 ) ) ;
#9 = CARTESIAN_POINT ( 'NONE',  ( 1.316288464743861212E-13, 1.499999999999998668, 37.69999999999999574 ) ) ;
#10 = FACE_OUTER_BOUND ( 'NONE', #285, .T. ) ;
#11 = AXIS2_PLACEMENT_3D ( 'NONE', #110, #86, #136 ) ;
#12 = PLANE ( 'NONE',  #114 ) ;
#13 = DIRECTION ( 'NONE',  ( 0.0000000000000000000, 1.000000000000000000, 0.0000000000000000000 ) ) ;
#14 = CONICAL_SURFACE ( 'NONE', #145, 1.200000000000003286, 0.7853981633974453924 ) ;
#15 = CALENDAR_DATE ( 2021, 1, 12 ) ;
#16 = DATE_TIME_ROLE ( 'creation_date' ) ;
#17 = COORDINATED_UNIVERSAL_TIME_OFFSET ( 1, 0, .AHEAD. ) ;
#18 = DIRECTION ( 'NONE',  ( 0.0000000000000000000, 1.000000000000000000, 0.0000000000000000000 ) ) ;
#19 = DIRECTION ( 'NONE',  ( -5.542244444279822329E-31, -1.000000000000000000, -1.560003125878425595E-16 ) ) ;
#20 = EDGE_CURVE ( 'NONE', #287, #287, #87, .T. ) ;
#21 = EDGE_LOOP ( 'NONE', ( #234 ) ) ;
#22 = DIRECTION ( 'NONE',  ( 0.0000000000000000000, 1.000000000000000000, 0.0000000000000000000 ) ) ;
#23 = LOCAL_TIME ( 11, 40, 24.00000000000000000, #249 ) ;
#24 = CLOSED_SHELL ( 'NONE', ( #269, #151, #161, #180, #140, #181, #192, #201 ) ) ;
#25 = DIRECTION ( 'NONE',  ( -3.491481338843133355E-15, 1.224646799147353207E-16, -1.000000000000000000 ) ) ;
#26 = CARTESIAN_POINT ( 'NONE',  ( 8.728703347107835360E-16, 0.6949999999999991740, 0.2500000000000000555 ) ) ;
#27 = CARTESIAN_POINT ( 'NONE',  ( 2.137220764813765389E-14, -7.496361328305610150E-16, 6.121243556529823771 ) ) ;
#28 = DIRECTION ( 'NONE',  ( 0.0000000000000000000, 1.000000000000000000, 0.0000000000000000000 ) ) ;
#29 = CC_DESIGN_PERSON_AND_ORGANIZATION_ASSIGNMENT ( #202, #198, ( #96 ) ) ;
#30 = CC_DESIGN_PERSON_AND_ORGANIZATION_ASSIGNMENT ( #121, #256, ( #162 ) ) ;
#31 = APPROVAL_DATE_TIME ( #77, #253 ) ;
#32 = CC_DESIGN_PERSON_AND_ORGANIZATION_ASSIGNMENT ( #80, #250, ( #96 ) ) ;
#33 = PERSON_AND_ORGANIZATION ( #204, #6 ) ;
#34 = ORIENTED_EDGE ( 'NONE', *, *, #101, .T. ) ;
#35 = APPROVAL_PERSON_ORGANIZATION ( #109, #293, #252 ) ;
#36 = ORIENTED_EDGE ( 'NONE', *, *, #154, .T. ) ;
#37 = APPROVAL_STATUS ( 'not_yet_approved' ) ;
#38 = DIRECTION ( 'NONE',  ( -3.491481338843133355E-15, 1.224646799147353207E-16, -1.000000000000000000 ) ) ;
#39 = EDGE_LOOP ( 'NONE', ( #58 ) ) ;
#40 = AXIS2_PLACEMENT_3D ( 'NONE', #108, #72, #214 ) ;
#41 = FACE_OUTER_BOUND ( 'NONE', #159, .T. ) ;
#42 = EDGE_LOOP ( 'NONE', ( #225 ) ) ;
#43 = FACE_OUTER_BOUND ( 'NONE', #280, .T. ) ;
#44 = DIRECTION ( 'NONE',  ( 4.275831445896958607E-31, 1.000000000000000000, 1.224646799147353207E-16 ) ) ;
#45 = LOCAL_TIME ( 11, 40, 24.00000000000000000, #17 ) ;
#46 = DIRECTION ( 'NONE',  ( 0.0000000000000000000, 1.000000000000000000, 0.0000000000000000000 ) ) ;
#47 = VERTEX_POINT ( 'NONE', #146 ) ;
#48 = PLANE ( 'NONE',  #52 ) ;
#49 = PRODUCT_DEFINITION ( 'UNKNOWN', '', #96, #246 ) ;
#50 = CARTESIAN_POINT ( 'NONE',  ( 6.332621528753465015E-14, -2.221184629893844456E-15, 18.13734891921752279 ) ) ;
#51 = ADVANCED_FACE ( 'NONE', ( #113 ), #5, .F. ) ;
#52 = AXIS2_PLACEMENT_3D ( 'NONE', #290, #267, #44 ) ;
#53 = CIRCLE ( 'NONE', #76, 0.6949999999999991740 ) ;
#54 = APPROVAL_DATE_TIME ( #200, #79 ) ;
#55 = DATE_AND_TIME ( #301, #150 ) ;
#56 = EDGE_CURVE ( 'NONE', #163, #163, #239, .T. ) ;
#57 = ADVANCED_FACE ( 'NONE', ( #61, #260 ), #275, .T. ) ;
#58 = ORIENTED_EDGE ( 'NONE', *, *, #93, .F. ) ;
#59 = CC_DESIGN_APPROVAL ( #253, ( #49 ) ) ;
#60 = AXIS2_PLACEMENT_3D ( 'NONE', #63, #2, #18 ) ;
#61 = FACE_BOUND ( 'NONE', #133, .T. ) ;
#62 = ORIENTED_EDGE ( 'NONE', *, *, #245, .F. ) ;
#63 = CARTESIAN_POINT ( 'NONE',  ( 2.094888803305880013E-14, -7.347880794884119736E-16, 6.000000000000000000 ) ) ;
#64 = ORIENTED_EDGE ( 'NONE', *, *, #276, .T. ) ;
#65 = AXIS2_PLACEMENT_3D ( 'NONE', #8, #25, #116 ) ;
#66 = CARTESIAN_POINT ( 'NONE',  ( -1.892735826383160919E-31, 0.5506624327025948507, -5.421010862427522170E-17 ) ) ;
#67 = FACE_BOUND ( 'NONE', #206, .T. ) ;
#68 = DIRECTION ( 'NONE',  ( -3.491481338843133355E-15, 1.224646799147353207E-16, -1.000000000000000000 ) ) ;
#69 = CARTESIAN_POINT ( 'NONE',  ( 4.660183614865709118E-14, -1.634572375883072808E-15, 13.34729635533384595 ) ) ;
#70 = DIRECTION ( 'NONE',  ( -3.491481338843133355E-15, 1.224646799147353207E-16, -1.000000000000000000 ) ) ;
#71 = CARTESIAN_POINT ( 'NONE',  ( 8.728703347107831416E-16, -3.061616997868382402E-17, 0.2499999999999999445 ) ) ;
#72 = DIRECTION ( 'NONE',  ( -3.491481338843133355E-15, 1.224646799147353207E-16, -1.000000000000000000 ) ) ;
#73 = CC_DESIGN_DATE_AND_TIME_ASSIGNMENT ( #55, #303, ( #162 ) ) ;
#74 = AXIS2_PLACEMENT_3D ( 'NONE', #188, #115, #243 ) ;
#75 = PERSON_AND_ORGANIZATION ( #204, #6 ) ;
#76 = AXIS2_PLACEMENT_3D ( 'NONE', #71, #147, #168 ) ;
#77 = DATE_AND_TIME ( #123, #23 ) ;
#78 = DIRECTION ( 'NONE',  ( 0.0000000000000000000, 0.0000000000000000000, 1.000000000000000000 ) ) ;
#79 = APPROVAL ( #127, 'UNSPECIFIED' ) ;
#80 = PERSON_AND_ORGANIZATION ( #204, #6 ) ;
#81 = EDGE_LOOP ( 'NONE', ( #210 ) ) ;
#82 = EDGE_LOOP ( 'NONE', ( #1 ) ) ;
#83 = CARTESIAN_POINT ( 'NONE',  ( -4.247275572207034154E-31, 1.489743730471583353E-32, -1.216468071862679695E-16 ) ) ;
#84 = EDGE_LOOP ( 'NONE', ( #284 ) ) ;
#85 = CIRCLE ( 'NONE', #183, 1.499999999999997558 ) ;
#86 = DIRECTION ( 'NONE',  ( 3.491481338843133355E-15, -1.224646799147353207E-16, 1.000000000000000000 ) ) ;
#87 = CIRCLE ( 'NONE', #274, 0.5506624327025948507 ) ;
#88 = CIRCLE ( 'NONE', #295, 0.6250000000000000000 ) ;
#89 = APPLICATION_CONTEXT ( 'configuration controlled 3d designs of mechanical parts and assemblies' ) ;
#90 = FACE_OUTER_BOUND ( 'NONE', #39, .T. ) ;
#91 = DIRECTION ( 'NONE',  ( -3.491481338843133355E-15, 1.224646799147353207E-16, -1.000000000000000000 ) ) ;
#92 = DIRECTION ( 'NONE',  ( -4.275831445896958607E-31, -1.000000000000000000, -1.224646799147353207E-16 ) ) ;
#93 = EDGE_CURVE ( 'NONE', #125, #125, #94, .T. ) ;
#94 = CIRCLE ( 'NONE', #40, 0.6249999999999991118 ) ;
#95 = FACE_OUTER_BOUND ( 'NONE', #177, .T. ) ;
#96 = PRODUCT_DEFINITION_FORMATION_WITH_SPECIFIED_SOURCE ( 'ANY', '', #283, .NOT_KNOWN. ) ;
#97 = PERSON_AND_ORGANIZATION ( #204, #6 ) ;
#98 = AXIS2_PLACEMENT_3D ( 'NONE', #278, #156, #230 ) ;
#99 = CARTESIAN_POINT ( 'NONE',  ( 1.316288464743861212E-13, -4.616918432785521081E-15, 37.69999999999999574 ) ) ;
#100 = SHAPE_DEFINITION_REPRESENTATION ( #186, #187 ) ;
#101 = EDGE_CURVE ( 'NONE', #281, #281, #263, .T. ) ;
#102 = COORDINATED_UNIVERSAL_TIME_OFFSET ( 1, 0, .AHEAD. ) ;
#103 = EDGE_CURVE ( 'NONE', #137, #137, #85, .T. ) ;
#104 = CONICAL_SURFACE ( 'NONE', #296, 1.499999999999997558, 0.1745329251994260922 ) ;
#105 = CALENDAR_DATE ( 2021, 1, 12 ) ;
#106 = ORIENTED_EDGE ( 'NONE', *, *, #20, .F. ) ;
#107 = COORDINATED_UNIVERSAL_TIME_OFFSET ( 1, 0, .AHEAD. ) ;
#108 = CARTESIAN_POINT ( 'NONE',  ( 2.137220764813765389E-14, -7.496361328305610150E-16, 6.121243556529823771 ) ) ;
#109 = PERSON_AND_ORGANIZATION ( #204, #6 ) ;
#110 = CARTESIAN_POINT ( 'NONE',  ( -2.123637786103517077E-31, 7.448718652357916764E-33, -6.082340359313398473E-17 ) ) ;
#111 = EDGE_LOOP ( 'NONE', ( #302 ) ) ;
#112 = FACE_OUTER_BOUND ( 'NONE', #207, .T. ) ;
#113 = FACE_OUTER_BOUND ( 'NONE', #111, .T. ) ;
#114 = AXIS2_PLACEMENT_3D ( 'NONE', #294, #169, #222 ) ;
#115 = DIRECTION ( 'NONE',  ( -3.491481338843133355E-15, 1.224646799147353207E-16, -1.000000000000000000 ) ) ;
#116 = DIRECTION ( 'NONE',  ( 4.275831445896958607E-31, 1.000000000000000000, 1.224646799147353207E-16 ) ) ;
#117 = FACE_OUTER_BOUND ( 'NONE', #81, .T. ) ;
#118 = CARTESIAN_POINT ( 'NONE',  ( 2.094888803305880013E-14, -7.347880794884119736E-16, 6.000000000000000000 ) ) ;
#119 = FACE_OUTER_BOUND ( 'NONE', #82, .T. ) ;
#120 = DIRECTION ( 'NONE',  ( 1.000000000000000000, 0.0000000000000000000, 0.0000000000000000000 ) ) ;
#121 = PERSON_AND_ORGANIZATION ( #204, #6 ) ;
#122 = PERSON_AND_ORGANIZATION ( #204, #6 ) ;
#123 = CALENDAR_DATE ( 2021, 1, 12 ) ;
#124 = MANIFOLD_SOLID_BREP ( 'Corps-Déplacer/Copier1[2]', #217 ) ;
#125 = VERTEX_POINT ( 'NONE', #134 ) ;
#126 = MANIFOLD_SOLID_BREP ( 'Corps-Déplacer/Copier1[1]', #24 ) ;
#127 = APPROVAL_STATUS ( 'not_yet_approved' ) ;
#128 = LOCAL_TIME ( 11, 40, 24.00000000000000000, #102 ) ;
#129 = ORIENTED_EDGE ( 'NONE', *, *, #219, .F. ) ;
#130 = CALENDAR_DATE ( 2021, 1, 12 ) ;
#131 = CARTESIAN_POINT ( 'NONE',  ( 8.728703347107831416E-16, -3.061616997868382402E-17, 0.2499999999999999445 ) ) ;
#132 = CYLINDRICAL_SURFACE ( 'NONE', #273, 0.6949999999999996181 ) ;
#133 = EDGE_LOOP ( 'NONE', ( #106 ) ) ;
#134 = CARTESIAN_POINT ( 'NONE',  ( 2.137220764813765389E-14, 0.6249999999999983347, 6.121243556529823771 ) ) ;
#135 = CARTESIAN_POINT ( 'NONE',  ( 2.094888803305880013E-14, 0.6949999999999991740, 6.000000000000000000 ) ) ;
#136 = DIRECTION ( 'NONE',  ( -4.275831445896958607E-31, -1.000000000000000000, -1.224646799147353207E-16 ) ) ;
#137 = VERTEX_POINT ( 'NONE', #286 ) ;
#138 = CC_DESIGN_DATE_AND_TIME_ASSIGNMENT ( #153, #16, ( #49 ) ) ;
#139 = EDGE_LOOP ( 'NONE', ( #175 ) ) ;
#140 = ADVANCED_FACE ( 'NONE', ( #165, #247 ), #104, .T. ) ;
#141 = VERTEX_POINT ( 'NONE', #266 ) ;
#142 = FACE_BOUND ( 'NONE', #203, .T. ) ;
#143 = AXIS2_PLACEMENT_3D ( 'NONE', #27, #191, #241 ) ;
#144 = CARTESIAN_POINT ( 'NONE',  ( 2.094888803305880013E-14, 5.211665244749943966E-33, 6.000000000000000000 ) ) ;
#145 = AXIS2_PLACEMENT_3D ( 'NONE', #236, #91, #13 ) ;
#146 = CARTESIAN_POINT ( 'NONE',  ( 4.660183614865709118E-14, 0.6553844939755796295, 13.34729635533384595 ) ) ;
#147 = DIRECTION ( 'NONE',  ( -3.491481338843133355E-15, 1.224646799147353207E-16, -1.000000000000000000 ) ) ;
#148 = DIRECTION ( 'NONE',  ( 0.0000000000000000000, 1.000000000000000000, 0.0000000000000000000 ) ) ;
#149 = CYLINDRICAL_SURFACE ( 'NONE', #74, 0.6249999999999995559 ) ;
#150 = LOCAL_TIME ( 11, 40, 24.00000000000000000, #107 ) ;
#151 = ADVANCED_FACE ( 'NONE', ( #216, #67 ), #259, .T. ) ;
#152 = MECHANICAL_CONTEXT ( 'NONE', #89, 'mechanical' ) ;
#153 = DATE_AND_TIME ( #15, #237 ) ;
#154 = EDGE_CURVE ( 'NONE', #141, #141, #88, .T. ) ;
#155 = APPLICATION_PROTOCOL_DEFINITION ( 'international standard', 'config_control_design', 1994, #89 ) ;
#156 = DIRECTION ( 'NONE',  ( -3.491481338843133355E-15, 1.224646799147353207E-16, -1.000000000000000000 ) ) ;
#157 = AXIS2_PLACEMENT_3D ( 'NONE', #255, #78, #120 ) ;
#158 = EDGE_LOOP ( 'NONE', ( #129 ) ) ;
#159 = EDGE_LOOP ( 'NONE', ( #62 ) ) ;
#160 = ORIENTED_EDGE ( 'NONE', *, *, #56, .F. ) ;
#161 = ADVANCED_FACE ( 'NONE', ( #90, #220 ), #149, .T. ) ;
#162 = SECURITY_CLASSIFICATION ( '', '', #279 ) ;
#163 = VERTEX_POINT ( 'NONE', #271 ) ;
#164 = DIRECTION ( 'NONE',  ( -3.491481338843133355E-15, 1.224646799147353207E-16, -1.000000000000000000 ) ) ;
#165 = FACE_BOUND ( 'NONE', #158, .T. ) ;
#166 = DIRECTION ( 'NONE',  ( -3.491481338843133355E-15, 1.224646799147353207E-16, -1.000000000000000000 ) ) ;
#167 = DIRECTION ( 'NONE',  ( 0.0000000000000000000, 1.000000000000000000, 0.0000000000000000000 ) ) ;
#168 = DIRECTION ( 'NONE',  ( 5.542244444279822329E-31, 1.000000000000000000, 1.560003125878425595E-16 ) ) ;
#169 = DIRECTION ( 'NONE',  ( 3.491481338843133355E-15, -1.224646799147353207E-16, 1.000000000000000000 ) ) ;
#170 = CIRCLE ( 'NONE', #184, 0.6553844939755811838 ) ;
#171 = APPROVAL_PERSON_ORGANIZATION ( #33, #79, #229 ) ;
#172 = APPLICATION_CONTEXT ( 'configuration controlled 3d designs of mechanical parts and assemblies' ) ;
#173 =( NAMED_UNIT ( * ) SI_UNIT ( $, .STERADIAN. ) SOLID_ANGLE_UNIT ( ) );
#174 = AXIS2_PLACEMENT_3D ( 'NONE', #131, #231, #19 ) ;
#175 = ORIENTED_EDGE ( 'NONE', *, *, #103, .T. ) ;
#176 = CIRCLE ( 'NONE', #240, 1.500000000000003331 ) ;
#177 = EDGE_LOOP ( 'NONE', ( #233 ) ) ;
#178 = CARTESIAN_POINT ( 'NONE',  ( 0.0000000000000000000, 0.0000000000000000000, 0.0000000000000000000 ) ) ;
#179 = DIRECTION ( 'NONE',  ( 4.275831445896958607E-31, 1.000000000000000000, 1.224646799147353207E-16 ) ) ;
#180 = ADVANCED_FACE ( 'NONE', ( #189, #119 ), #199, .F. ) ;
#181 = ADVANCED_FACE ( 'NONE', ( #95, #43 ), #292, .T. ) ;
#182 = ORIENTED_EDGE ( 'NONE', *, *, #93, .T. ) ;
#183 = AXIS2_PLACEMENT_3D ( 'NONE', #270, #7, #22 ) ;
#184 = AXIS2_PLACEMENT_3D ( 'NONE', #69, #166, #46 ) ;
#185 = DIRECTION ( 'NONE',  ( -3.491481338843133355E-15, 1.224646799147353207E-16, -1.000000000000000000 ) ) ;
#186 = PRODUCT_DEFINITION_SHAPE ( 'NONE', 'NONE',  #49 ) ;
#187 = ADVANCED_BREP_SHAPE_REPRESENTATION ( '327026', ( #126, #124, #157 ), #223 ) ;
#188 = CARTESIAN_POINT ( 'NONE',  ( 0.0000000000000000000, 0.0000000000000000000, 0.0000000000000000000 ) ) ;
#189 = FACE_OUTER_BOUND ( 'NONE', #21, .T. ) ;
#190 = DIRECTION ( 'NONE',  ( 0.0000000000000000000, -1.000000000000000000, 0.0000000000000000000 ) ) ;
#191 = DIRECTION ( 'NONE',  ( -3.491481338843133355E-15, 1.224646799147353207E-16, -1.000000000000000000 ) ) ;
#192 = ADVANCED_FACE ( 'NONE', ( #117, #142 ), #14, .T. ) ;
#193 = AXIS2_PLACEMENT_3D ( 'NONE', #144, #291, #92 ) ;
#194 = EDGE_LOOP ( 'NONE', ( #160 ) ) ;
#195 = CIRCLE ( 'NONE', #60, 0.6949999999999999512 ) ;
#196 = AXIS2_PLACEMENT_3D ( 'NONE', #265, #185, #272 ) ;
#197 =( LENGTH_UNIT ( ) NAMED_UNIT ( * ) SI_UNIT ( .MILLI., .METRE. ) );
#198 = PERSON_AND_ORGANIZATION_ROLE ( 'creator' ) ;
#199 = TOROIDAL_SURFACE ( 'NONE', #196, 2.625000000000000000, 2.000000000000000000 ) ;
#200 = DATE_AND_TIME ( #105, #45 ) ;
#201 = ADVANCED_FACE ( 'NONE', ( #268 ), #48, .F. ) ;
#202 = PERSON_AND_ORGANIZATION ( #204, #6 ) ;
#203 = EDGE_LOOP ( 'NONE', ( #235 ) ) ;
#204 = PERSON ( 'UNSPECIFIED', 'UNSPECIFIED', 'UNSPECIFIED', ('UNSPECIFIED'), ('UNSPECIFIED'), ('UNSPECIFIED') ) ;
#205 = ADVANCED_FACE ( 'NONE', ( #10 ), #288, .T. ) ;
#206 = EDGE_LOOP ( 'NONE', ( #182 ) ) ;
#207 = EDGE_LOOP ( 'NONE', ( #34 ) ) ;
#208 = PRODUCT_RELATED_PRODUCT_CATEGORY ( 'detail', '', ( #283 ) ) ;
#209 = DIRECTION ( 'NONE',  ( -3.491481338843133355E-15, 1.224646799147353207E-16, -1.000000000000000000 ) ) ;
#210 = ORIENTED_EDGE ( 'NONE', *, *, #276, .F. ) ;
#211 = AXIS2_PLACEMENT_3D ( 'NONE', #118, #68, #148 ) ;
#212 = CC_DESIGN_APPROVAL ( #293, ( #162 ) ) ;
#213 = DIRECTION ( 'NONE',  ( 3.491481338843133355E-15, -1.224646799147353207E-16, 1.000000000000000000 ) ) ;
#214 = DIRECTION ( 'NONE',  ( 0.0000000000000000000, 1.000000000000000000, 0.0000000000000000000 ) ) ;
#215 = VERTEX_POINT ( 'NONE', #9 ) ;
#216 = FACE_OUTER_BOUND ( 'NONE', #42, .T. ) ;
#217 = CLOSED_SHELL ( 'NONE', ( #51, #57, #298, #205 ) ) ;
#218 = FACE_OUTER_BOUND ( 'NONE', #261, .T. ) ;
#219 = EDGE_CURVE ( 'NONE', #47, #47, #170, .T. ) ;
#220 = FACE_OUTER_BOUND ( 'NONE', #258, .T. ) ;
#221 = APPLICATION_PROTOCOL_DEFINITION ( 'international standard', 'config_control_design', 1994, #172 ) ;
#222 = DIRECTION ( 'NONE',  ( -4.275831445896958607E-31, -1.000000000000000000, -1.224646799147353207E-16 ) ) ;
#223 =( GEOMETRIC_REPRESENTATION_CONTEXT ( 3 ) GLOBAL_UNCERTAINTY_ASSIGNED_CONTEXT ( ( #224 ) ) GLOBAL_UNIT_ASSIGNED_CONTEXT ( ( #197, #300, #173 ) ) REPRESENTATION_CONTEXT ( 'NONE', 'WORKASPACE' ) );
#224 = UNCERTAINTY_MEASURE_WITH_UNIT (LENGTH_MEASURE( 1.000000000000000082E-05 ), #197, 'distance_accuracy_value', 'NONE');
#225 = ORIENTED_EDGE ( 'NONE', *, *, #4, .F. ) ;
#226 = COORDINATED_UNIVERSAL_TIME_OFFSET ( 1, 0, .AHEAD. ) ;
#227 = PERSON_AND_ORGANIZATION_ROLE ( 'creator' ) ;
#228 = APPROVAL_DATE_TIME ( #277, #293 ) ;
#229 = APPROVAL_ROLE ( '' ) ;
#230 = DIRECTION ( 'NONE',  ( 0.0000000000000000000, 1.000000000000000000, 0.0000000000000000000 ) ) ;
#231 = DIRECTION ( 'NONE',  ( 3.491481338843133355E-15, -1.224646799147353207E-16, 1.000000000000000000 ) ) ;
#232 = CARTESIAN_POINT ( 'NONE',  ( 2.094888803305880013E-14, 0.6949999999999991740, 6.000000000000000000 ) ) ;
#233 = ORIENTED_EDGE ( 'NONE', *, *, #103, .F. ) ;
#234 = ORIENTED_EDGE ( 'NONE', *, *, #154, .F. ) ;
#235 = ORIENTED_EDGE ( 'NONE', *, *, #56, .T. ) ;
#236 = CARTESIAN_POINT ( 'NONE',  ( 1.326762908760390423E-13, -4.653657836759941941E-15, 38.00000000000000000 ) ) ;
#237 = LOCAL_TIME ( 11, 40, 24.00000000000000000, #226 ) ;
#238 = CC_DESIGN_SECURITY_CLASSIFICATION ( #162, ( #96 ) ) ;
#239 = CIRCLE ( 'NONE', #98, 1.200000000000003286 ) ;
#240 = AXIS2_PLACEMENT_3D ( 'NONE', #99, #70, #167 ) ;
#241 = DIRECTION ( 'NONE',  ( 0.0000000000000000000, 1.000000000000000000, 0.0000000000000000000 ) ) ;
#242 = VERTEX_POINT ( 'NONE', #26 ) ;
#243 = DIRECTION ( 'NONE',  ( 4.275831445896959482E-31, 1.000000000000000000, 1.224646799147353454E-16 ) ) ;
#244 = CARTESIAN_POINT ( 'NONE',  ( 4.538925740496073362E-14, -1.592040838891559095E-15, 13.00000000000000000 ) ) ;
#245 = EDGE_CURVE ( 'NONE', #242, #242, #53, .T. ) ;
#246 = DESIGN_CONTEXT ( 'detailed design', #172, 'design' ) ;
#247 = FACE_OUTER_BOUND ( 'NONE', #139, .T. ) ;
#248 = PERSON_AND_ORGANIZATION_ROLE ( 'design_owner' ) ;
#249 = COORDINATED_UNIVERSAL_TIME_OFFSET ( 1, 0, .AHEAD. ) ;
#250 = PERSON_AND_ORGANIZATION_ROLE ( 'design_supplier' ) ;
#251 = APPROVAL_ROLE ( '' ) ;
#252 = APPROVAL_ROLE ( '' ) ;
#253 = APPROVAL ( #297, 'UNSPECIFIED' ) ;
#254 = CC_DESIGN_PERSON_AND_ORGANIZATION_ASSIGNMENT ( #75, #248, ( #283 ) ) ;
#255 = CARTESIAN_POINT ( 'NONE',  ( 0.0000000000000000000, 0.0000000000000000000, 0.0000000000000000000 ) ) ;
#256 = PERSON_AND_ORGANIZATION_ROLE ( 'classification_officer' ) ;
#257 = APPROVAL_PERSON_ORGANIZATION ( #97, #253, #251 ) ;
#258 = EDGE_LOOP ( 'NONE', ( #36 ) ) ;
#259 = CONICAL_SURFACE ( 'NONE', #143, 0.6249999999999991118, 0.5235987755982947078 ) ;
#260 = FACE_OUTER_BOUND ( 'NONE', #84, .T. ) ;
#261 = EDGE_LOOP ( 'NONE', ( #262 ) ) ;
#262 = ORIENTED_EDGE ( 'NONE', *, *, #4, .T. ) ;
#263 = CIRCLE ( 'NONE', #211, 0.6949999999999999512 ) ;
#264 = DIRECTION ( 'NONE',  ( 4.275831445896959482E-31, 1.000000000000000000, 1.224646799147353207E-16 ) ) ;
#265 = CARTESIAN_POINT ( 'NONE',  ( 4.538925740496073362E-14, -1.734723475976807094E-15, 13.00000000000000000 ) ) ;
#266 = CARTESIAN_POINT ( 'NONE',  ( 4.538925740496073362E-14, 0.6249999999999983347, 13.00000000000000000 ) ) ;
#267 = DIRECTION ( 'NONE',  ( -3.491481338843133355E-15, 1.224646799147353207E-16, -1.000000000000000000 ) ) ;
#268 = FACE_OUTER_BOUND ( 'NONE', #194, .T. ) ;
#269 = ADVANCED_FACE ( 'NONE', ( #218 ), #12, .F. ) ;
#270 = CARTESIAN_POINT ( 'NONE',  ( 6.332621528753465015E-14, -2.221184629893844456E-15, 18.13734891921752279 ) ) ;
#271 = CARTESIAN_POINT ( 'NONE',  ( 1.326762908760390423E-13, 1.199999999999998845, 38.00000000000000000 ) ) ;
#272 = DIRECTION ( 'NONE',  ( 4.275831445896958607E-31, 1.000000000000000000, 1.224646799147353207E-16 ) ) ;
#273 = AXIS2_PLACEMENT_3D ( 'NONE', #178, #209, #264 ) ;
#274 = AXIS2_PLACEMENT_3D ( 'NONE', #83, #38, #179 ) ;
#275 = CONICAL_SURFACE ( 'NONE', #174, 0.6949999999999991740, 0.5235987755982925984 ) ;
#276 = EDGE_CURVE ( 'NONE', #215, #215, #176, .T. ) ;
#277 = DATE_AND_TIME ( #130, #128 ) ;
#278 = CARTESIAN_POINT ( 'NONE',  ( 1.326762908760390423E-13, -4.653657836759941941E-15, 38.00000000000000000 ) ) ;
#279 = SECURITY_CLASSIFICATION_LEVEL ( 'unclassified' ) ;
#280 = EDGE_LOOP ( 'NONE', ( #64 ) ) ;
#281 = VERTEX_POINT ( 'NONE', #232 ) ;
#282 = ORIENTED_EDGE ( 'NONE', *, *, #101, .F. ) ;
#283 = PRODUCT ( '327026', '327026', '', ( #152 ) ) ;
#284 = ORIENTED_EDGE ( 'NONE', *, *, #245, .T. ) ;
#285 = EDGE_LOOP ( 'NONE', ( #282 ) ) ;
#286 = CARTESIAN_POINT ( 'NONE',  ( 6.332621528753465015E-14, 1.499999999999995559, 18.13734891921752279 ) ) ;
#287 = VERTEX_POINT ( 'NONE', #66 ) ;
#288 = PLANE ( 'NONE',  #193 ) ;
#289 = VERTEX_POINT ( 'NONE', #135 ) ;
#290 = CARTESIAN_POINT ( 'NONE',  ( 1.326762908760390423E-13, 8.998558695971103225E-33, 38.00000000000000000 ) ) ;
#291 = DIRECTION ( 'NONE',  ( 3.491481338843133355E-15, -1.224646799147353207E-16, 1.000000000000000000 ) ) ;
#292 = CYLINDRICAL_SURFACE ( 'NONE', #65, 1.500000000000000444 ) ;
#293 = APPROVAL ( #37, 'UNSPECIFIED' ) ;
#294 = CARTESIAN_POINT ( 'NONE',  ( 2.094888803305880013E-14, 5.211665244749943966E-33, 6.000000000000000000 ) ) ;
#295 = AXIS2_PLACEMENT_3D ( 'NONE', #244, #164, #28 ) ;
#296 = AXIS2_PLACEMENT_3D ( 'NONE', #50, #213, #190 ) ;
#297 = APPROVAL_STATUS ( 'not_yet_approved' ) ;
#298 = ADVANCED_FACE ( 'NONE', ( #41, #112 ), #132, .T. ) ;
#299 = CC_DESIGN_APPROVAL ( #79, ( #96 ) ) ;
#300 =( NAMED_UNIT ( * ) PLANE_ANGLE_UNIT ( ) SI_UNIT ( $, .RADIAN. ) );
#301 = CALENDAR_DATE ( 2021, 1, 12 ) ;
#302 = ORIENTED_EDGE ( 'NONE', *, *, #20, .T. ) ;
#303 = DATE_TIME_ROLE ( 'classification_date' ) ;
ENDSEC;
END-ISO-10303-21;
