ISO-10303-21;
HEADER;
FILE_DESCRIPTION (( 'STEP AP203' ),
    '1' );
FILE_NAME ('327025.step',
    '2021-12-01T10:40:23',
    ( '' ),
    ( '' ),
    'SwSTEP 2.0',
    'SolidWorks 2019',
    '' );
FILE_SCHEMA (( 'CONFIG_CONTROL_DESIGN' ));
ENDSEC;

DATA;
#1 = VERTEX_POINT ( 'NONE', #249 ) ;
#2 = CARTESIAN_POINT ( 'NONE',  ( 2.094888803305880013E-14, 0.6899999999999991696, 6.000000000000000000 ) ) ;
#3 = ORIENTED_EDGE ( 'NONE', *, *, #89, .T. ) ;
#4 = PERSON_AND_ORGANIZATION ( #46, #302 ) ;
#5 = ORIENTED_EDGE ( 'NONE', *, *, #89, .F. ) ;
#6 = CALENDAR_DATE ( 2021, 1, 12 ) ;
#7 = DIRECTION ( 'NONE',  ( 3.491481338843133355E-15, -1.224646799147353207E-16, 1.000000000000000000 ) ) ;
#8 = DIRECTION ( 'NONE',  ( -3.491481338843133355E-15, 1.224646799147353207E-16, -1.000000000000000000 ) ) ;
#9 = AXIS2_PLACEMENT_3D ( 'NONE', #294, #245, #198 ) ;
#10 = PERSON_AND_ORGANIZATION_ROLE ( 'creator' ) ;
#11 = DIRECTION ( 'NONE',  ( 4.275831445896958607E-31, 1.000000000000000000, 1.224646799147352961E-16 ) ) ;
#12 = PRODUCT_DEFINITION_SHAPE ( 'NONE', 'NONE',  #40 ) ;
#13 = DIRECTION ( 'NONE',  ( 0.0000000000000000000, 1.000000000000000000, 0.0000000000000000000 ) ) ;
#14 = CYLINDRICAL_SURFACE ( 'NONE', #154, 0.6249999999999995559 ) ;
#15 = CARTESIAN_POINT ( 'NONE',  ( 1.326762908760390423E-13, 8.998558695971103225E-33, 38.00000000000000000 ) ) ;
#16 = EDGE_LOOP ( 'NONE', ( #5 ) ) ;
#17 = CIRCLE ( 'NONE', #26, 0.6899999999999999467 ) ;
#18 = DIRECTION ( 'NONE',  ( -4.275831445896958607E-31, -1.000000000000000000, -1.224646799147353207E-16 ) ) ;
#19 = DIRECTION ( 'NONE',  ( -3.491481338843133355E-15, 1.224646799147353207E-16, -1.000000000000000000 ) ) ;
#20 = AXIS2_PLACEMENT_3D ( 'NONE', #94, #220, #200 ) ;
#21 = CC_DESIGN_APPROVAL ( #242, ( #40 ) ) ;
#22 = DIRECTION ( 'NONE',  ( 4.275831445896959482E-31, 1.000000000000000000, 1.224646799147353207E-16 ) ) ;
#23 = VERTEX_POINT ( 'NONE', #149 ) ;
#24 = EDGE_LOOP ( 'NONE', ( #163 ) ) ;
#25 = CIRCLE ( 'NONE', #164, 1.200000000000003286 ) ;
#26 = AXIS2_PLACEMENT_3D ( 'NONE', #113, #45, #43 ) ;
#27 = ORIENTED_EDGE ( 'NONE', *, *, #129, .T. ) ;
#28 = APPROVAL_STATUS ( 'not_yet_approved' ) ;
#29 = EDGE_LOOP ( 'NONE', ( #254 ) ) ;
#30 = CARTESIAN_POINT ( 'NONE',  ( 8.728703347107835360E-16, 0.6899999999999991696, 0.2500000000000000555 ) ) ;
#31 =( GEOMETRIC_REPRESENTATION_CONTEXT ( 3 ) GLOBAL_UNCERTAINTY_ASSIGNED_CONTEXT ( ( #56 ) ) GLOBAL_UNIT_ASSIGNED_CONTEXT ( ( #123, #205, #100 ) ) REPRESENTATION_CONTEXT ( 'NONE', 'WORKASPACE' ) );
#32 = DATE_TIME_ROLE ( 'classification_date' ) ;
#33 = CARTESIAN_POINT ( 'NONE',  ( 1.326762908760390423E-13, -4.653657836759941941E-15, 38.00000000000000000 ) ) ;
#34 = AXIS2_PLACEMENT_3D ( 'NONE', #114, #7, #37 ) ;
#35 = PRODUCT_RELATED_PRODUCT_CATEGORY ( 'detail', '', ( #288 ) ) ;
#36 = PERSON_AND_ORGANIZATION ( #46, #302 ) ;
#37 = DIRECTION ( 'NONE',  ( 0.0000000000000000000, -1.000000000000000000, 0.0000000000000000000 ) ) ;
#38 = CONICAL_SURFACE ( 'NONE', #199, 0.6249999999999991118, 0.5235987755982941527 ) ;
#39 = PERSON_AND_ORGANIZATION ( #46, #302 ) ;
#40 = PRODUCT_DEFINITION ( 'UNKNOWN', '', #187, #243 ) ;
#41 = PLANE ( 'NONE',  #143 ) ;
#42 = ADVANCED_FACE ( 'NONE', ( #139, #262 ), #161, .T. ) ;
#43 = DIRECTION ( 'NONE',  ( 0.0000000000000000000, 1.000000000000000000, 0.0000000000000000000 ) ) ;
#44 = CARTESIAN_POINT ( 'NONE',  ( 2.094888803305880013E-14, -7.347880794884119736E-16, 6.000000000000000000 ) ) ;
#45 = DIRECTION ( 'NONE',  ( -3.491481338843133355E-15, 1.224646799147353207E-16, -1.000000000000000000 ) ) ;
#46 = PERSON ( 'UNSPECIFIED', 'UNSPECIFIED', 'UNSPECIFIED', ('UNSPECIFIED'), ('UNSPECIFIED'), ('UNSPECIFIED') ) ;
#47 = CARTESIAN_POINT ( 'NONE',  ( 4.538925740496073362E-14, 0.6249999999999983347, 13.00000000000000000 ) ) ;
#48 = DIRECTION ( 'NONE',  ( -3.491481338843133355E-15, 1.224646799147353207E-16, -1.000000000000000000 ) ) ;
#49 = CONICAL_SURFACE ( 'NONE', #291, 0.6899999999999991696, 0.5235987755982924874 ) ;
#50 = ORIENTED_EDGE ( 'NONE', *, *, #116, .F. ) ;
#51 = ADVANCED_FACE ( 'NONE', ( #136, #269 ), #295, .T. ) ;
#52 = FACE_BOUND ( 'NONE', #24, .T. ) ;
#53 = COORDINATED_UNIVERSAL_TIME_OFFSET ( 1, 0, .AHEAD. ) ;
#54 = EDGE_LOOP ( 'NONE', ( #153 ) ) ;
#55 = DIRECTION ( 'NONE',  ( 0.0000000000000000000, 1.000000000000000000, 0.0000000000000000000 ) ) ;
#56 = UNCERTAINTY_MEASURE_WITH_UNIT (LENGTH_MEASURE( 1.000000000000000082E-05 ), #123, 'distance_accuracy_value', 'NONE');
#57 = DIRECTION ( 'NONE',  ( 4.275831445896958607E-31, 1.000000000000000000, 1.224646799147353207E-16 ) ) ;
#58 = EDGE_LOOP ( 'NONE', ( #233 ) ) ;
#59 = APPROVAL_ROLE ( '' ) ;
#60 = CIRCLE ( 'NONE', #266, 0.6553844939755811838 ) ;
#61 = AXIS2_PLACEMENT_3D ( 'NONE', #219, #221, #18 ) ;
#62 = CC_DESIGN_PERSON_AND_ORGANIZATION_ASSIGNMENT ( #4, #202, ( #288 ) ) ;
#63 = FACE_OUTER_BOUND ( 'NONE', #16, .T. ) ;
#64 = SECURITY_CLASSIFICATION ( '', '', #105 ) ;
#65 = DIRECTION ( 'NONE',  ( -3.491481338843133355E-15, 1.224646799147353207E-16, -1.000000000000000000 ) ) ;
#66 = DIRECTION ( 'NONE',  ( -4.275831445896958607E-31, -1.000000000000000000, -1.224646799147353207E-16 ) ) ;
#67 = APPROVAL_PERSON_ORGANIZATION ( #137, #68, #59 ) ;
#68 = APPROVAL ( #172, 'UNSPECIFIED' ) ;
#69 = EDGE_LOOP ( 'NONE', ( #3 ) ) ;
#70 = CARTESIAN_POINT ( 'NONE',  ( 2.134197053277487885E-14, -7.485755575918360694E-16, 6.112583302491979786 ) ) ;
#71 = MANIFOLD_SOLID_BREP ( 'Corps-Déplacer/Copier1[1]', #250 ) ;
#72 = ORIENTED_EDGE ( 'NONE', *, *, #179, .T. ) ;
#73 = CARTESIAN_POINT ( 'NONE',  ( 0.0000000000000000000, 0.0000000000000000000, 0.0000000000000000000 ) ) ;
#74 = EDGE_LOOP ( 'NONE', ( #185 ) ) ;
#75 = MANIFOLD_SOLID_BREP ( 'Corps-Déplacer/Copier1[2]', #131 ) ;
#76 = EDGE_LOOP ( 'NONE', ( #98 ) ) ;
#77 = APPROVAL_DATE_TIME ( #211, #207 ) ;
#78 = CC_DESIGN_PERSON_AND_ORGANIZATION_ASSIGNMENT ( #80, #256, ( #187 ) ) ;
#79 = EDGE_LOOP ( 'NONE', ( #230 ) ) ;
#80 = PERSON_AND_ORGANIZATION ( #46, #302 ) ;
#81 = CIRCLE ( 'NONE', #128, 0.5456624327025948462 ) ;
#82 = FACE_OUTER_BOUND ( 'NONE', #277, .T. ) ;
#83 = APPROVAL_ROLE ( '' ) ;
#84 = DIRECTION ( 'NONE',  ( -3.491481338843133355E-15, 1.224646799147353207E-16, -1.000000000000000000 ) ) ;
#85 = APPLICATION_CONTEXT ( 'configuration controlled 3d designs of mechanical parts and assemblies' ) ;
#86 = COORDINATED_UNIVERSAL_TIME_OFFSET ( 1, 0, .AHEAD. ) ;
#87 = DIRECTION ( 'NONE',  ( 0.0000000000000000000, 1.000000000000000000, 0.0000000000000000000 ) ) ;
#88 = CARTESIAN_POINT ( 'NONE',  ( -2.586132164084564566E-31, 9.070930557995093513E-33, -7.406976904941594637E-17 ) ) ;
#89 = EDGE_CURVE ( 'NONE', #95, #95, #25, .T. ) ;
#90 = FACE_OUTER_BOUND ( 'NONE', #206, .T. ) ;
#91 = CIRCLE ( 'NONE', #247, 0.6899999999999999467 ) ;
#92 = FACE_OUTER_BOUND ( 'NONE', #255, .T. ) ;
#93 = ADVANCED_FACE ( 'NONE', ( #92, #107 ), #14, .T. ) ;
#94 = CARTESIAN_POINT ( 'NONE',  ( 6.332621528753465015E-14, -2.221184629893844456E-15, 18.13734891921752279 ) ) ;
#95 = VERTEX_POINT ( 'NONE', #162 ) ;
#96 = AXIS2_PLACEMENT_3D ( 'NONE', #155, #84, #57 ) ;
#97 = VERTEX_POINT ( 'NONE', #2 ) ;
#98 = ORIENTED_EDGE ( 'NONE', *, *, #204, .T. ) ;
#99 = DIRECTION ( 'NONE',  ( -3.491481338843133355E-15, 1.224646799147353207E-16, -1.000000000000000000 ) ) ;
#100 =( NAMED_UNIT ( * ) SI_UNIT ( $, .STERADIAN. ) SOLID_ANGLE_UNIT ( ) );
#101 = EDGE_LOOP ( 'NONE', ( #217 ) ) ;
#102 = DIRECTION ( 'NONE',  ( 0.0000000000000000000, 0.0000000000000000000, 1.000000000000000000 ) ) ;
#103 = LOCAL_TIME ( 11, 40, 23.00000000000000000, #86 ) ;
#104 = EDGE_LOOP ( 'NONE', ( #168 ) ) ;
#105 = SECURITY_CLASSIFICATION_LEVEL ( 'unclassified' ) ;
#106 = FACE_OUTER_BOUND ( 'NONE', #58, .T. ) ;
#107 = FACE_OUTER_BOUND ( 'NONE', #74, .T. ) ;
#108 = CALENDAR_DATE ( 2021, 1, 12 ) ;
#109 = CC_DESIGN_APPROVAL ( #68, ( #64 ) ) ;
#110 = DIRECTION ( 'NONE',  ( -3.491481338843133355E-15, 1.224646799147353207E-16, -1.000000000000000000 ) ) ;
#111 = APPROVAL_ROLE ( '' ) ;
#112 = DIRECTION ( 'NONE',  ( -3.491481338843133355E-15, 1.224646799147353207E-16, -1.000000000000000000 ) ) ;
#113 = CARTESIAN_POINT ( 'NONE',  ( 2.094888803305880013E-14, -7.347880794884119736E-16, 6.000000000000000000 ) ) ;
#114 = CARTESIAN_POINT ( 'NONE',  ( 6.332621528753465015E-14, -2.221184629893844456E-15, 18.13734891921752279 ) ) ;
#115 = AXIS2_PLACEMENT_3D ( 'NONE', #201, #99, #22 ) ;
#116 = EDGE_CURVE ( 'NONE', #299, #299, #259, .T. ) ;
#117 = CARTESIAN_POINT ( 'NONE',  ( 4.660183614865709118E-14, -1.634572375883072808E-15, 13.34729635533384595 ) ) ;
#118 = FACE_BOUND ( 'NONE', #29, .T. ) ;
#119 = AXIS2_PLACEMENT_3D ( 'NONE', #176, #112, #170 ) ;
#120 = APPROVAL_PERSON_ORGANIZATION ( #183, #242, #83 ) ;
#121 = EDGE_CURVE ( 'NONE', #180, #180, #142, .T. ) ;
#122 = CARTESIAN_POINT ( 'NONE',  ( 6.332621528753465015E-14, 1.499999999999995559, 18.13734891921752279 ) ) ;
#123 =( LENGTH_UNIT ( ) NAMED_UNIT ( * ) SI_UNIT ( .MILLI., .METRE. ) );
#124 = FACE_OUTER_BOUND ( 'NONE', #101, .T. ) ;
#125 = CYLINDRICAL_SURFACE ( 'NONE', #115, 0.6899999999999996136 ) ;
#126 = EDGE_LOOP ( 'NONE', ( #72 ) ) ;
#127 = ORIENTED_EDGE ( 'NONE', *, *, #186, .F. ) ;
#128 = AXIS2_PLACEMENT_3D ( 'NONE', #289, #135, #11 ) ;
#129 = EDGE_CURVE ( 'NONE', #151, #151, #301, .T. ) ;
#130 = CYLINDRICAL_SURFACE ( 'NONE', #96, 1.500000000000000444 ) ;
#131 = CLOSED_SHELL ( 'NONE', ( #140, #292, #300, #248 ) ) ;
#132 = PERSON_AND_ORGANIZATION ( #46, #302 ) ;
#133 = CARTESIAN_POINT ( 'NONE',  ( 1.326762908760390423E-13, -4.653657836759941941E-15, 38.00000000000000000 ) ) ;
#134 = PERSON_AND_ORGANIZATION_ROLE ( 'design_supplier' ) ;
#135 = DIRECTION ( 'NONE',  ( -3.491481338843133355E-15, 1.224646799147353207E-16, -1.000000000000000000 ) ) ;
#136 = FACE_OUTER_BOUND ( 'NONE', #79, .T. ) ;
#137 = PERSON_AND_ORGANIZATION ( #46, #302 ) ;
#138 = CARTESIAN_POINT ( 'NONE',  ( 8.728703347107831416E-16, -3.061616997868382402E-17, 0.2499999999999999445 ) ) ;
#139 = FACE_BOUND ( 'NONE', #182, .T. ) ;
#140 = ADVANCED_FACE ( 'NONE', ( #82 ), #195, .F. ) ;
#141 = DIRECTION ( 'NONE',  ( 4.275831445896958607E-31, 1.000000000000000000, 1.224646799147353207E-16 ) ) ;
#142 = CIRCLE ( 'NONE', #237, 0.6249999999999991118 ) ;
#143 = AXIS2_PLACEMENT_3D ( 'NONE', #15, #216, #141 ) ;
#144 = FACE_OUTER_BOUND ( 'NONE', #76, .T. ) ;
#145 = EDGE_CURVE ( 'NONE', #184, #184, #222, .T. ) ;
#146 = CARTESIAN_POINT ( 'NONE',  ( 1.316288464743861212E-13, -4.616918432785521081E-15, 37.69999999999999574 ) ) ;
#147 = VERTEX_POINT ( 'NONE', #122 ) ;
#148 = DIRECTION ( 'NONE',  ( 1.000000000000000000, 0.0000000000000000000, 0.0000000000000000000 ) ) ;
#149 = CARTESIAN_POINT ( 'NONE',  ( 2.094888803305880013E-14, 0.6899999999999991696, 6.000000000000000000 ) ) ;
#150 = EDGE_LOOP ( 'NONE', ( #27 ) ) ;
#151 = VERTEX_POINT ( 'NONE', #30 ) ;
#152 = DATE_AND_TIME ( #280, #228 ) ;
#153 = ORIENTED_EDGE ( 'NONE', *, *, #204, .F. ) ;
#154 = AXIS2_PLACEMENT_3D ( 'NONE', #290, #190, #284 ) ;
#155 = CARTESIAN_POINT ( 'NONE',  ( 0.0000000000000000000, 0.0000000000000000000, 0.0000000000000000000 ) ) ;
#156 = EDGE_LOOP ( 'NONE', ( #189 ) ) ;
#157 = CARTESIAN_POINT ( 'NONE',  ( 4.538925740496073362E-14, -1.592040838891559095E-15, 13.00000000000000000 ) ) ;
#158 = DIRECTION ( 'NONE',  ( -3.491481338843133355E-15, 1.224646799147353207E-16, -1.000000000000000000 ) ) ;
#159 = PERSON_AND_ORGANIZATION_ROLE ( 'classification_officer' ) ;
#160 = FACE_OUTER_BOUND ( 'NONE', #104, .T. ) ;
#161 = CONICAL_SURFACE ( 'NONE', #34, 1.499999999999997558, 0.1745329251994260922 ) ;
#162 = CARTESIAN_POINT ( 'NONE',  ( 1.326762908760390423E-13, 1.199999999999998845, 38.00000000000000000 ) ) ;
#163 = ORIENTED_EDGE ( 'NONE', *, *, #121, .T. ) ;
#164 = AXIS2_PLACEMENT_3D ( 'NONE', #33, #209, #55 ) ;
#165 = ORIENTED_EDGE ( 'NONE', *, *, #239, .T. ) ;
#166 = CC_DESIGN_PERSON_AND_ORGANIZATION_ASSIGNMENT ( #39, #134, ( #187 ) ) ;
#167 = EDGE_LOOP ( 'NONE', ( #50 ) ) ;
#168 = ORIENTED_EDGE ( 'NONE', *, *, #129, .F. ) ;
#169 = CALENDAR_DATE ( 2021, 1, 12 ) ;
#170 = DIRECTION ( 'NONE',  ( 5.582405635905038185E-31, 1.000000000000000000, 1.571307496355805421E-16 ) ) ;
#171 = CC_DESIGN_PERSON_AND_ORGANIZATION_ASSIGNMENT ( #283, #10, ( #40 ) ) ;
#172 = APPROVAL_STATUS ( 'not_yet_approved' ) ;
#173 = DATE_AND_TIME ( #169, #103 ) ;
#174 = FACE_OUTER_BOUND ( 'NONE', #167, .T. ) ;
#175 = CARTESIAN_POINT ( 'NONE',  ( 2.134197053277487885E-14, -7.485755575918360694E-16, 6.112583302491979786 ) ) ;
#176 = CARTESIAN_POINT ( 'NONE',  ( 8.728703347107831416E-16, -3.061616997868382402E-17, 0.2499999999999999445 ) ) ;
#177 = CC_DESIGN_DATE_AND_TIME_ASSIGNMENT ( #173, #32, ( #64 ) ) ;
#178 = PLANE ( 'NONE',  #61 ) ;
#179 = EDGE_CURVE ( 'NONE', #147, #147, #278, .T. ) ;
#180 = VERTEX_POINT ( 'NONE', #252 ) ;
#181 = TOROIDAL_SURFACE ( 'NONE', #191, 2.625000000000000000, 2.000000000000000000 ) ;
#182 = EDGE_LOOP ( 'NONE', ( #127 ) ) ;
#183 = PERSON_AND_ORGANIZATION ( #46, #302 ) ;
#184 = VERTEX_POINT ( 'NONE', #275 ) ;
#185 = ORIENTED_EDGE ( 'NONE', *, *, #116, .T. ) ;
#186 = EDGE_CURVE ( 'NONE', #274, #274, #60, .T. ) ;
#187 = PRODUCT_DEFINITION_FORMATION_WITH_SPECIFIED_SOURCE ( 'ANY', '', #288, .NOT_KNOWN. ) ;
#188 = CALENDAR_DATE ( 2021, 1, 12 ) ;
#189 = ORIENTED_EDGE ( 'NONE', *, *, #179, .F. ) ;
#190 = DIRECTION ( 'NONE',  ( -3.491481338843133355E-15, 1.224646799147353207E-16, -1.000000000000000000 ) ) ;
#191 = AXIS2_PLACEMENT_3D ( 'NONE', #214, #158, #232 ) ;
#192 = ADVANCED_BREP_SHAPE_REPRESENTATION ( '327025', ( #71, #75, #238 ), #31 ) ;
#193 = DIRECTION ( 'NONE',  ( -3.491481338843133355E-15, 1.224646799147353207E-16, -1.000000000000000000 ) ) ;
#194 = COORDINATED_UNIVERSAL_TIME_OFFSET ( 1, 0, .AHEAD. ) ;
#195 = PLANE ( 'NONE',  #227 ) ;
#196 = DIRECTION ( 'NONE',  ( 3.491481338843133355E-15, -1.224646799147353207E-16, 1.000000000000000000 ) ) ;
#197 = APPROVAL_PERSON_ORGANIZATION ( #132, #207, #111 ) ;
#198 = DIRECTION ( 'NONE',  ( -4.275831445896958607E-31, -1.000000000000000000, -1.224646799147353207E-16 ) ) ;
#199 = AXIS2_PLACEMENT_3D ( 'NONE', #70, #224, #273 ) ;
#200 = DIRECTION ( 'NONE',  ( 0.0000000000000000000, 1.000000000000000000, 0.0000000000000000000 ) ) ;
#201 = CARTESIAN_POINT ( 'NONE',  ( 0.0000000000000000000, 0.0000000000000000000, 0.0000000000000000000 ) ) ;
#202 = PERSON_AND_ORGANIZATION_ROLE ( 'design_owner' ) ;
#203 = CARTESIAN_POINT ( 'NONE',  ( 4.660183614865709118E-14, 0.6553844939755796295, 13.34729635533384595 ) ) ;
#204 = EDGE_CURVE ( 'NONE', #23, #23, #91, .T. ) ;
#205 =( NAMED_UNIT ( * ) PLANE_ANGLE_UNIT ( ) SI_UNIT ( $, .RADIAN. ) );
#206 = EDGE_LOOP ( 'NONE', ( #235 ) ) ;
#207 = APPROVAL ( #236, 'UNSPECIFIED' ) ;
#208 = FACE_OUTER_BOUND ( 'NONE', #258, .T. ) ;
#209 = DIRECTION ( 'NONE',  ( -3.491481338843133355E-15, 1.224646799147353207E-16, -1.000000000000000000 ) ) ;
#210 = CC_DESIGN_APPROVAL ( #207, ( #187 ) ) ;
#211 = DATE_AND_TIME ( #6, #223 ) ;
#212 = DIRECTION ( 'NONE',  ( 0.0000000000000000000, 1.000000000000000000, 0.0000000000000000000 ) ) ;
#213 = APPLICATION_CONTEXT ( 'configuration controlled 3d designs of mechanical parts and assemblies' ) ;
#214 = CARTESIAN_POINT ( 'NONE',  ( 4.538925740496073362E-14, -1.734723475976807094E-15, 13.00000000000000000 ) ) ;
#215 = ADVANCED_FACE ( 'NONE', ( #286, #106 ), #130, .T. ) ;
#216 = DIRECTION ( 'NONE',  ( -3.491481338843133355E-15, 1.224646799147353207E-16, -1.000000000000000000 ) ) ;
#217 = ORIENTED_EDGE ( 'NONE', *, *, #263, .T. ) ;
#218 = AXIS2_PLACEMENT_3D ( 'NONE', #157, #8, #212 ) ;
#219 = CARTESIAN_POINT ( 'NONE',  ( 2.094888803305880013E-14, 5.174171250183397936E-33, 6.000000000000000000 ) ) ;
#220 = DIRECTION ( 'NONE',  ( -3.491481338843133355E-15, 1.224646799147353207E-16, -1.000000000000000000 ) ) ;
#221 = DIRECTION ( 'NONE',  ( 3.491481338843133355E-15, -1.224646799147353207E-16, 1.000000000000000000 ) ) ;
#222 = CIRCLE ( 'NONE', #272, 1.500000000000003331 ) ;
#223 = LOCAL_TIME ( 11, 40, 23.00000000000000000, #194 ) ;
#224 = DIRECTION ( 'NONE',  ( -3.491481338843133355E-15, 1.224646799147353207E-16, -1.000000000000000000 ) ) ;
#225 = CC_DESIGN_DATE_AND_TIME_ASSIGNMENT ( #264, #287, ( #40 ) ) ;
#226 = MECHANICAL_CONTEXT ( 'NONE', #213, 'mechanical' ) ;
#227 = AXIS2_PLACEMENT_3D ( 'NONE', #88, #265, #66 ) ;
#228 = LOCAL_TIME ( 11, 40, 23.00000000000000000, #53 ) ;
#229 = ADVANCED_FACE ( 'NONE', ( #174, #208 ), #181, .F. ) ;
#230 = ORIENTED_EDGE ( 'NONE', *, *, #145, .F. ) ;
#231 = APPROVAL_DATE_TIME ( #152, #68 ) ;
#232 = DIRECTION ( 'NONE',  ( 4.275831445896958607E-31, 1.000000000000000000, 1.224646799147353207E-16 ) ) ;
#233 = ORIENTED_EDGE ( 'NONE', *, *, #145, .T. ) ;
#234 = COORDINATED_UNIVERSAL_TIME_OFFSET ( 1, 0, .AHEAD. ) ;
#235 = ORIENTED_EDGE ( 'NONE', *, *, #263, .F. ) ;
#236 = APPROVAL_STATUS ( 'not_yet_approved' ) ;
#237 = AXIS2_PLACEMENT_3D ( 'NONE', #175, #193, #13 ) ;
#238 = AXIS2_PLACEMENT_3D ( 'NONE', #73, #102, #148 ) ;
#239 = EDGE_CURVE ( 'NONE', #1, #1, #81, .T. ) ;
#240 = FACE_OUTER_BOUND ( 'NONE', #150, .T. ) ;
#241 = DIRECTION ( 'NONE',  ( 0.0000000000000000000, 1.000000000000000000, 0.0000000000000000000 ) ) ;
#242 = APPROVAL ( #28, 'UNSPECIFIED' ) ;
#243 = DESIGN_CONTEXT ( 'detailed design', #85, 'design' ) ;
#244 = LOCAL_TIME ( 11, 40, 23.00000000000000000, #234 ) ;
#245 = DIRECTION ( 'NONE',  ( 3.491481338843133355E-15, -1.224646799147353207E-16, 1.000000000000000000 ) ) ;
#246 = APPLICATION_PROTOCOL_DEFINITION ( 'international standard', 'config_control_design', 1994, #85 ) ;
#247 = AXIS2_PLACEMENT_3D ( 'NONE', #44, #19, #87 ) ;
#248 = ADVANCED_FACE ( 'NONE', ( #90 ), #268, .T. ) ;
#249 = CARTESIAN_POINT ( 'NONE',  ( -2.839103739574741268E-31, 0.5456624327025948462, -8.131516293641282022E-17 ) ) ;
#250 = CLOSED_SHELL ( 'NONE', ( #276, #297, #93, #229, #42, #215, #51, #281 ) ) ;
#251 = APPLICATION_PROTOCOL_DEFINITION ( 'international standard', 'config_control_design', 1994, #213 ) ;
#252 = CARTESIAN_POINT ( 'NONE',  ( 2.134197053277487885E-14, 0.6249999999999983347, 6.112583302491979786 ) ) ;
#253 = AXIS2_PLACEMENT_3D ( 'NONE', #133, #110, #293 ) ;
#254 = ORIENTED_EDGE ( 'NONE', *, *, #239, .F. ) ;
#255 = EDGE_LOOP ( 'NONE', ( #282 ) ) ;
#256 = PERSON_AND_ORGANIZATION_ROLE ( 'creator' ) ;
#257 = DATE_AND_TIME ( #188, #279 ) ;
#258 = EDGE_LOOP ( 'NONE', ( #303 ) ) ;
#259 = CIRCLE ( 'NONE', #218, 0.6250000000000000000 ) ;
#260 = SHAPE_DEFINITION_REPRESENTATION ( #12, #192 ) ;
#261 = COORDINATED_UNIVERSAL_TIME_OFFSET ( 1, 0, .AHEAD. ) ;
#262 = FACE_OUTER_BOUND ( 'NONE', #126, .T. ) ;
#263 = EDGE_CURVE ( 'NONE', #97, #97, #17, .T. ) ;
#264 = DATE_AND_TIME ( #108, #244 ) ;
#265 = DIRECTION ( 'NONE',  ( 3.491481338843133355E-15, -1.224646799147353207E-16, 1.000000000000000000 ) ) ;
#266 = AXIS2_PLACEMENT_3D ( 'NONE', #117, #48, #241 ) ;
#267 = CC_DESIGN_SECURITY_CLASSIFICATION ( #64, ( #187 ) ) ;
#268 = PLANE ( 'NONE',  #9 ) ;
#269 = FACE_BOUND ( 'NONE', #69, .T. ) ;
#270 = FACE_OUTER_BOUND ( 'NONE', #54, .T. ) ;
#271 = CC_DESIGN_PERSON_AND_ORGANIZATION_ASSIGNMENT ( #36, #159, ( #64 ) ) ;
#272 = AXIS2_PLACEMENT_3D ( 'NONE', #146, #65, #298 ) ;
#273 = DIRECTION ( 'NONE',  ( 0.0000000000000000000, 1.000000000000000000, 0.0000000000000000000 ) ) ;
#274 = VERTEX_POINT ( 'NONE', #203 ) ;
#275 = CARTESIAN_POINT ( 'NONE',  ( 1.316288464743861212E-13, 1.499999999999998668, 37.69999999999999574 ) ) ;
#276 = ADVANCED_FACE ( 'NONE', ( #144 ), #178, .F. ) ;
#277 = EDGE_LOOP ( 'NONE', ( #165 ) ) ;
#278 = CIRCLE ( 'NONE', #20, 1.499999999999997558 ) ;
#279 = LOCAL_TIME ( 11, 40, 23.00000000000000000, #261 ) ;
#280 = CALENDAR_DATE ( 2021, 1, 12 ) ;
#281 = ADVANCED_FACE ( 'NONE', ( #63 ), #41, .F. ) ;
#282 = ORIENTED_EDGE ( 'NONE', *, *, #121, .F. ) ;
#283 = PERSON_AND_ORGANIZATION ( #46, #302 ) ;
#284 = DIRECTION ( 'NONE',  ( 4.275831445896959482E-31, 1.000000000000000000, 1.224646799147353454E-16 ) ) ;
#285 = APPROVAL_DATE_TIME ( #257, #242 ) ;
#286 = FACE_OUTER_BOUND ( 'NONE', #156, .T. ) ;
#287 = DATE_TIME_ROLE ( 'creation_date' ) ;
#288 = PRODUCT ( '327025', '327025', '', ( #226 ) ) ;
#289 = CARTESIAN_POINT ( 'NONE',  ( -5.172264328169129133E-31, 1.814186111599018703E-32, -1.481395380988318927E-16 ) ) ;
#290 = CARTESIAN_POINT ( 'NONE',  ( 0.0000000000000000000, 0.0000000000000000000, 0.0000000000000000000 ) ) ;
#291 = AXIS2_PLACEMENT_3D ( 'NONE', #138, #196, #296 ) ;
#292 = ADVANCED_FACE ( 'NONE', ( #118, #240 ), #49, .T. ) ;
#293 = DIRECTION ( 'NONE',  ( 0.0000000000000000000, 1.000000000000000000, 0.0000000000000000000 ) ) ;
#294 = CARTESIAN_POINT ( 'NONE',  ( 2.094888803305880013E-14, 5.174171250183397936E-33, 6.000000000000000000 ) ) ;
#295 = CONICAL_SURFACE ( 'NONE', #253, 1.200000000000003286, 0.7853981633974453924 ) ;
#296 = DIRECTION ( 'NONE',  ( -5.582405635905038185E-31, -1.000000000000000000, -1.571307496355805421E-16 ) ) ;
#297 = ADVANCED_FACE ( 'NONE', ( #270, #52 ), #38, .T. ) ;
#298 = DIRECTION ( 'NONE',  ( 0.0000000000000000000, 1.000000000000000000, 0.0000000000000000000 ) ) ;
#299 = VERTEX_POINT ( 'NONE', #47 ) ;
#300 = ADVANCED_FACE ( 'NONE', ( #160, #124 ), #125, .T. ) ;
#301 = CIRCLE ( 'NONE', #119, 0.6899999999999991696 ) ;
#302 = ORGANIZATION ( 'UNSPECIFIED', 'UNSPECIFIED', '' ) ;
#303 = ORIENTED_EDGE ( 'NONE', *, *, #186, .T. ) ;
ENDSEC;
END-ISO-10303-21;
