ISO-10303-21;
HEADER;
FILE_DESCRIPTION (( 'STEP AP203' ),
    '1' );
FILE_NAME ('327024.step',
    '2021-12-01T10:40:23',
    ( '' ),
    ( '' ),
    'SwSTEP 2.0',
    'SolidWorks 2019',
    '' );
FILE_SCHEMA (( 'CONFIG_CONTROL_DESIGN' ));
ENDSEC;

DATA;
#1 = AXIS2_PLACEMENT_3D ( 'NONE', #32, #4, #73 ) ;
#2 = APPROVAL ( #41, 'UNSPECIFIED' ) ;
#3 = CARTESIAN_POINT ( 'NONE',  ( 8.728703347107831416E-16, -3.061616997868382402E-17, 0.2499999999999999445 ) ) ;
#4 = DIRECTION ( 'NONE',  ( -3.491481338843133355E-15, 1.224646799147353207E-16, -1.000000000000000000 ) ) ;
#5 = DIRECTION ( 'NONE',  ( 0.0000000000000000000, -1.000000000000000000, 0.0000000000000000000 ) ) ;
#6 =( LENGTH_UNIT ( ) NAMED_UNIT ( * ) SI_UNIT ( .MILLI., .METRE. ) );
#7 = FACE_OUTER_BOUND ( 'NONE', #206, .T. ) ;
#8 = EDGE_CURVE ( 'NONE', #237, #237, #286, .T. ) ;
#9 = FACE_OUTER_BOUND ( 'NONE', #11, .T. ) ;
#10 = AXIS2_PLACEMENT_3D ( 'NONE', #69, #176, #89 ) ;
#11 = EDGE_LOOP ( 'NONE', ( #12 ) ) ;
#12 = ORIENTED_EDGE ( 'NONE', *, *, #8, .F. ) ;
#13 = DIRECTION ( 'NONE',  ( -5.623153122298504646E-31, -1.000000000000000000, -1.582776894139424165E-16 ) ) ;
#14 = PERSON_AND_ORGANIZATION_ROLE ( 'creator' ) ;
#15 = PERSON_AND_ORGANIZATION_ROLE ( 'design_supplier' ) ;
#16 = ORIENTED_EDGE ( 'NONE', *, *, #149, .F. ) ;
#17 = APPLICATION_CONTEXT ( 'configuration controlled 3d designs of mechanical parts and assemblies' ) ;
#18 = AXIS2_PLACEMENT_3D ( 'NONE', #91, #256, #81 ) ;
#19 = DIRECTION ( 'NONE',  ( -3.491481338843133355E-15, 1.224646799147353207E-16, -1.000000000000000000 ) ) ;
#20 = ORIENTED_EDGE ( 'NONE', *, *, #128, .T. ) ;
#21 = APPROVAL_ROLE ( '' ) ;
#22 = CARTESIAN_POINT ( 'NONE',  ( 1.326762908760390423E-13, -4.653657836759941941E-15, 38.00000000000000000 ) ) ;
#23 = AXIS2_PLACEMENT_3D ( 'NONE', #236, #99, #123 ) ;
#24 = APPROVAL_DATE_TIME ( #26, #25 ) ;
#25 = APPROVAL ( #181, 'UNSPECIFIED' ) ;
#26 = DATE_AND_TIME ( #180, #36 ) ;
#27 = ORIENTED_EDGE ( 'NONE', *, *, #247, .F. ) ;
#28 = PRODUCT_DEFINITION ( 'UNKNOWN', '', #29, #219 ) ;
#29 = PRODUCT_DEFINITION_FORMATION_WITH_SPECIFIED_SOURCE ( 'ANY', '', #227, .NOT_KNOWN. ) ;
#30 = CC_DESIGN_DATE_AND_TIME_ASSIGNMENT ( #205, #231, ( #296 ) ) ;
#31 = PERSON ( 'UNSPECIFIED', 'UNSPECIFIED', 'UNSPECIFIED', ('UNSPECIFIED'), ('UNSPECIFIED'), ('UNSPECIFIED') ) ;
#32 = CARTESIAN_POINT ( 'NONE',  ( 4.538925740496073362E-14, -1.592040838891559095E-15, 13.00000000000000000 ) ) ;
#33 = DIRECTION ( 'NONE',  ( 3.491481338843133355E-15, -1.224646799147353207E-16, 1.000000000000000000 ) ) ;
#34 = VERTEX_POINT ( 'NONE', #240 ) ;
#35 = AXIS2_PLACEMENT_3D ( 'NONE', #213, #33, #5 ) ;
#36 = LOCAL_TIME ( 11, 40, 23.00000000000000000, #280 ) ;
#37 = DIRECTION ( 'NONE',  ( 0.0000000000000000000, 1.000000000000000000, 0.0000000000000000000 ) ) ;
#38 = VERTEX_POINT ( 'NONE', #262 ) ;
#39 = VERTEX_POINT ( 'NONE', #212 ) ;
#40 = DIRECTION ( 'NONE',  ( 3.491481338843133355E-15, -1.224646799147353207E-16, 1.000000000000000000 ) ) ;
#41 = APPROVAL_STATUS ( 'not_yet_approved' ) ;
#42 = CARTESIAN_POINT ( 'NONE',  ( 1.326762908760390423E-13, -4.653657836759941941E-15, 38.00000000000000000 ) ) ;
#43 = ORIENTED_EDGE ( 'NONE', *, *, #48, .T. ) ;
#44 = APPROVAL_PERSON_ORGANIZATION ( #244, #57, #21 ) ;
#45 = DIRECTION ( 'NONE',  ( 1.000000000000000000, 0.0000000000000000000, 0.0000000000000000000 ) ) ;
#46 = MANIFOLD_SOLID_BREP ( 'Corps-Déplacer/Copier1[1]', #85 ) ;
#47 = CALENDAR_DATE ( 2021, 1, 12 ) ;
#48 = EDGE_CURVE ( 'NONE', #101, #101, #51, .T. ) ;
#49 = CIRCLE ( 'NONE', #235, 1.500000000000003331 ) ;
#50 = FACE_BOUND ( 'NONE', #241, .T. ) ;
#51 = CIRCLE ( 'NONE', #144, 0.6249999999999991118 ) ;
#52 = PERSON_AND_ORGANIZATION_ROLE ( 'classification_officer' ) ;
#53 = CIRCLE ( 'NONE', #259, 1.200000000000003286 ) ;
#54 = CYLINDRICAL_SURFACE ( 'NONE', #173, 0.6249999999999995559 ) ;
#55 = CYLINDRICAL_SURFACE ( 'NONE', #23, 1.500000000000000444 ) ;
#56 = CIRCLE ( 'NONE', #1, 0.6250000000000000000 ) ;
#57 = APPROVAL ( #223, 'UNSPECIFIED' ) ;
#58 = CARTESIAN_POINT ( 'NONE',  ( 1.326762908760390423E-13, 8.998558695971103225E-33, 38.00000000000000000 ) ) ;
#59 = FACE_OUTER_BOUND ( 'NONE', #88, .T. ) ;
#60 = ADVANCED_FACE ( 'NONE', ( #153 ), #106, .F. ) ;
#61 = ORIENTED_EDGE ( 'NONE', *, *, #283, .F. ) ;
#62 = DATE_AND_TIME ( #221, #255 ) ;
#63 = PRODUCT_DEFINITION_SHAPE ( 'NONE', 'NONE',  #28 ) ;
#64 = ORIENTED_EDGE ( 'NONE', *, *, #162, .F. ) ;
#65 = ORIENTED_EDGE ( 'NONE', *, *, #149, .T. ) ;
#66 = ORIENTED_EDGE ( 'NONE', *, *, #162, .T. ) ;
#67 = APPLICATION_PROTOCOL_DEFINITION ( 'international standard', 'config_control_design', 1994, #17 ) ;
#68 = DIRECTION ( 'NONE',  ( -3.491481338843133355E-15, 1.224646799147353207E-16, -1.000000000000000000 ) ) ;
#69 = CARTESIAN_POINT ( 'NONE',  ( 6.332621528753465015E-14, -2.221184629893844456E-15, 18.13734891921752279 ) ) ;
#70 = CC_DESIGN_SECURITY_CLASSIFICATION ( #296, ( #29 ) ) ;
#71 = CONICAL_SURFACE ( 'NONE', #287, 0.6249999999999991118, 0.5235987755982941527 ) ;
#72 = DIRECTION ( 'NONE',  ( -3.491481338843133355E-15, 1.224646799147353207E-16, -1.000000000000000000 ) ) ;
#73 = DIRECTION ( 'NONE',  ( 0.0000000000000000000, 1.000000000000000000, 0.0000000000000000000 ) ) ;
#74 =( NAMED_UNIT ( * ) PLANE_ANGLE_UNIT ( ) SI_UNIT ( $, .RADIAN. ) );
#75 = ADVANCED_FACE ( 'NONE', ( #243, #111 ), #92, .T. ) ;
#76 = DIRECTION ( 'NONE',  ( -3.491481338843133355E-15, 1.224646799147353207E-16, -1.000000000000000000 ) ) ;
#77 = CARTESIAN_POINT ( 'NONE',  ( 2.094888803305880013E-14, -7.347880794884119736E-16, 6.000000000000000000 ) ) ;
#78 = CC_DESIGN_APPROVAL ( #57, ( #28 ) ) ;
#79 = EDGE_LOOP ( 'NONE', ( #290 ) ) ;
#80 = CARTESIAN_POINT ( 'NONE',  ( 4.660183614865709118E-14, -1.634572375883072808E-15, 13.34729635533384595 ) ) ;
#81 = DIRECTION ( 'NONE',  ( 4.275831445896958607E-31, 1.000000000000000000, 1.224646799147353454E-16 ) ) ;
#82 = DIRECTION ( 'NONE',  ( 4.275831445896958607E-31, 1.000000000000000000, 1.224646799147353207E-16 ) ) ;
#83 = DIRECTION ( 'NONE',  ( 3.491481338843133355E-15, -1.224646799147353207E-16, 1.000000000000000000 ) ) ;
#84 = PERSON_AND_ORGANIZATION ( #31, #160 ) ;
#85 = CLOSED_SHELL ( 'NONE', ( #187, #226, #199, #278, #303, #258, #75, #264 ) ) ;
#86 = COORDINATED_UNIVERSAL_TIME_OFFSET ( 1, 0, .AHEAD. ) ;
#87 = ADVANCED_FACE ( 'NONE', ( #102, #201 ), #228, .T. ) ;
#88 = EDGE_LOOP ( 'NONE', ( #66 ) ) ;
#89 = DIRECTION ( 'NONE',  ( 0.0000000000000000000, 1.000000000000000000, 0.0000000000000000000 ) ) ;
#90 = CC_DESIGN_PERSON_AND_ORGANIZATION_ASSIGNMENT ( #302, #112, ( #28 ) ) ;
#91 = CARTESIAN_POINT ( 'NONE',  ( 0.0000000000000000000, 0.0000000000000000000, 0.0000000000000000000 ) ) ;
#92 = CONICAL_SURFACE ( 'NONE', #146, 1.200000000000003286, 0.7853981633974453924 ) ;
#93 = DATE_TIME_ROLE ( 'creation_date' ) ;
#94 = CIRCLE ( 'NONE', #211, 0.5406624327025949528 ) ;
#95 = DIRECTION ( 'NONE',  ( 5.623153122298504646E-31, 1.000000000000000000, 1.582776894139424165E-16 ) ) ;
#96 = DIRECTION ( 'NONE',  ( 0.0000000000000000000, 1.000000000000000000, 0.0000000000000000000 ) ) ;
#97 = AXIS2_PLACEMENT_3D ( 'NONE', #130, #232, #117 ) ;
#98 = UNCERTAINTY_MEASURE_WITH_UNIT (LENGTH_MEASURE( 1.000000000000000082E-05 ), #6, 'distance_accuracy_value', 'NONE');
#99 = DIRECTION ( 'NONE',  ( -3.491481338843133355E-15, 1.224646799147353207E-16, -1.000000000000000000 ) ) ;
#100 = PLANE ( 'NONE',  #301 ) ;
#101 = VERTEX_POINT ( 'NONE', #266 ) ;
#102 = FACE_OUTER_BOUND ( 'NONE', #150, .T. ) ;
#103 = CARTESIAN_POINT ( 'NONE',  ( 4.660183614865709118E-14, 0.6553844939755796295, 13.34729635533384595 ) ) ;
#104 = PLANE ( 'NONE',  #135 ) ;
#105 = PERSON_AND_ORGANIZATION ( #31, #160 ) ;
#106 = PLANE ( 'NONE',  #120 ) ;
#107 = SECURITY_CLASSIFICATION_LEVEL ( 'unclassified' ) ;
#108 = ADVANCED_FACE ( 'NONE', ( #50, #191 ), #195, .T. ) ;
#109 = AXIS2_PLACEMENT_3D ( 'NONE', #58, #185, #82 ) ;
#110 = EDGE_LOOP ( 'NONE', ( #16 ) ) ;
#111 = FACE_BOUND ( 'NONE', #299, .T. ) ;
#112 = PERSON_AND_ORGANIZATION_ROLE ( 'creator' ) ;
#113 = CC_DESIGN_PERSON_AND_ORGANIZATION_ASSIGNMENT ( #218, #14, ( #29 ) ) ;
#114 = SHAPE_DEFINITION_REPRESENTATION ( #63, #281 ) ;
#115 = COORDINATED_UNIVERSAL_TIME_OFFSET ( 1, 0, .AHEAD. ) ;
#116 = ADVANCED_FACE ( 'NONE', ( #155 ), #104, .T. ) ;
#117 = DIRECTION ( 'NONE',  ( 0.0000000000000000000, 1.000000000000000000, 0.0000000000000000000 ) ) ;
#118 = LOCAL_TIME ( 11, 40, 23.00000000000000000, #202 ) ;
#119 = VERTEX_POINT ( 'NONE', #210 ) ;
#120 = AXIS2_PLACEMENT_3D ( 'NONE', #133, #272, #246 ) ;
#121 = VERTEX_POINT ( 'NONE', #192 ) ;
#122 = CC_DESIGN_APPROVAL ( #2, ( #29 ) ) ;
#123 = DIRECTION ( 'NONE',  ( 4.275831445896958607E-31, 1.000000000000000000, 1.224646799147353207E-16 ) ) ;
#124 = APPLICATION_CONTEXT ( 'configuration controlled 3d designs of mechanical parts and assemblies' ) ;
#125 = DIRECTION ( 'NONE',  ( -3.491481338843133355E-15, 1.224646799147353207E-16, -1.000000000000000000 ) ) ;
#126 = DIRECTION ( 'NONE',  ( 4.275831445896958607E-31, 1.000000000000000000, 1.224646799147352961E-16 ) ) ;
#127 = AXIS2_PLACEMENT_3D ( 'NONE', #3, #68, #95 ) ;
#128 = EDGE_CURVE ( 'NONE', #38, #38, #275, .T. ) ;
#129 = APPROVAL_DATE_TIME ( #62, #2 ) ;
#130 = CARTESIAN_POINT ( 'NONE',  ( 2.094888803305880013E-14, -7.347880794884119736E-16, 6.000000000000000000 ) ) ;
#131 = DATE_AND_TIME ( #270, #207 ) ;
#132 = EDGE_LOOP ( 'NONE', ( #64 ) ) ;
#133 = CARTESIAN_POINT ( 'NONE',  ( -1.629074672278242078E-31, 5.714024763021099190E-33, -4.665855303749151022E-17 ) ) ;
#134 = APPLICATION_PROTOCOL_DEFINITION ( 'international standard', 'config_control_design', 1994, #124 ) ;
#135 = AXIS2_PLACEMENT_3D ( 'NONE', #193, #83, #245 ) ;
#136 = MECHANICAL_CONTEXT ( 'NONE', #17, 'mechanical' ) ;
#137 = EDGE_LOOP ( 'NONE', ( #253 ) ) ;
#138 = DIRECTION ( 'NONE',  ( -3.491481338843133355E-15, 1.224646799147353207E-16, -1.000000000000000000 ) ) ;
#139 = CIRCLE ( 'NONE', #261, 0.6553844939755811838 ) ;
#140 = APPROVAL_ROLE ( '' ) ;
#141 = MANIFOLD_SOLID_BREP ( 'Corps-Déplacer/Copier1[2]', #274 ) ;
#142 = CC_DESIGN_PERSON_AND_ORGANIZATION_ASSIGNMENT ( #297, #52, ( #296 ) ) ;
#143 = FACE_OUTER_BOUND ( 'NONE', #110, .T. ) ;
#144 = AXIS2_PLACEMENT_3D ( 'NONE', #269, #293, #156 ) ;
#145 = FACE_BOUND ( 'NONE', #292, .T. ) ;
#146 = AXIS2_PLACEMENT_3D ( 'NONE', #42, #19, #291 ) ;
#147 = CARTESIAN_POINT ( 'NONE',  ( 0.0000000000000000000, 0.0000000000000000000, 0.0000000000000000000 ) ) ;
#148 = VERTEX_POINT ( 'NONE', #288 ) ;
#149 = EDGE_CURVE ( 'NONE', #148, #148, #53, .T. ) ;
#150 = EDGE_LOOP ( 'NONE', ( #178 ) ) ;
#151 = FACE_OUTER_BOUND ( 'NONE', #200, .T. ) ;
#152 = PLANE ( 'NONE',  #109 ) ;
#153 = FACE_OUTER_BOUND ( 'NONE', #137, .T. ) ;
#154 = DIRECTION ( 'NONE',  ( 4.275831445896959482E-31, 1.000000000000000000, 1.224646799147353454E-16 ) ) ;
#155 = FACE_OUTER_BOUND ( 'NONE', #168, .T. ) ;
#156 = DIRECTION ( 'NONE',  ( 0.0000000000000000000, 1.000000000000000000, 0.0000000000000000000 ) ) ;
#157 = ORIENTED_EDGE ( 'NONE', *, *, #217, .F. ) ;
#158 = PERSON_AND_ORGANIZATION ( #31, #160 ) ;
#159 = CARTESIAN_POINT ( 'NONE',  ( 2.131173341741210381E-14, -7.475149823531111238E-16, 6.103923048454135802 ) ) ;
#160 = ORGANIZATION ( 'UNSPECIFIED', 'UNSPECIFIED', '' ) ;
#161 = APPROVAL_PERSON_ORGANIZATION ( #208, #25, #140 ) ;
#162 = EDGE_CURVE ( 'NONE', #263, #263, #49, .T. ) ;
#163 = DIRECTION ( 'NONE',  ( -3.491481338843133355E-15, 1.224646799147353207E-16, -1.000000000000000000 ) ) ;
#164 = FACE_OUTER_BOUND ( 'NONE', #257, .T. ) ;
#165 = DIRECTION ( 'NONE',  ( 0.0000000000000000000, 1.000000000000000000, 0.0000000000000000000 ) ) ;
#166 = CARTESIAN_POINT ( 'NONE',  ( 6.332621528753465015E-14, 1.499999999999995559, 18.13734891921752279 ) ) ;
#167 = CARTESIAN_POINT ( 'NONE',  ( 1.316288464743861212E-13, 1.499999999999998668, 37.69999999999999574 ) ) ;
#168 = EDGE_LOOP ( 'NONE', ( #27 ) ) ;
#169 = CARTESIAN_POINT ( 'NONE',  ( 2.094888803305880013E-14, 5.136677255616851907E-33, 6.000000000000000000 ) ) ;
#170 = FACE_BOUND ( 'NONE', #224, .T. ) ;
#171 = EDGE_CURVE ( 'NONE', #34, #34, #230, .T. ) ;
#172 = ORIENTED_EDGE ( 'NONE', *, *, #298, .F. ) ;
#173 = AXIS2_PLACEMENT_3D ( 'NONE', #147, #76, #154 ) ;
#174 = ORIENTED_EDGE ( 'NONE', *, *, #217, .T. ) ;
#175 = ORIENTED_EDGE ( 'NONE', *, *, #171, .T. ) ;
#176 = DIRECTION ( 'NONE',  ( -3.491481338843133355E-15, 1.224646799147353207E-16, -1.000000000000000000 ) ) ;
#177 = APPROVAL_ROLE ( '' ) ;
#178 = ORIENTED_EDGE ( 'NONE', *, *, #171, .F. ) ;
#179 = AXIS2_PLACEMENT_3D ( 'NONE', #265, #40, #13 ) ;
#180 = CALENDAR_DATE ( 2021, 1, 12 ) ;
#181 = APPROVAL_STATUS ( 'not_yet_approved' ) ;
#182 = DIRECTION ( 'NONE',  ( -3.491481338843133355E-15, 1.224646799147353207E-16, -1.000000000000000000 ) ) ;
#183 = TOROIDAL_SURFACE ( 'NONE', #267, 2.625000000000000000, 2.000000000000000000 ) ;
#184 = LOCAL_TIME ( 11, 40, 23.00000000000000000, #115 ) ;
#185 = DIRECTION ( 'NONE',  ( -3.491481338843133355E-15, 1.224646799147353207E-16, -1.000000000000000000 ) ) ;
#186 = FACE_OUTER_BOUND ( 'NONE', #273, .T. ) ;
#187 = ADVANCED_FACE ( 'NONE', ( #151 ), #100, .F. ) ;
#188 = DIRECTION ( 'NONE',  ( 3.491481338843133355E-15, -1.224646799147353207E-16, 1.000000000000000000 ) ) ;
#189 = APPROVAL_PERSON_ORGANIZATION ( #105, #2, #177 ) ;
#190 = DIRECTION ( 'NONE',  ( 0.0000000000000000000, 1.000000000000000000, 0.0000000000000000000 ) ) ;
#191 = FACE_OUTER_BOUND ( 'NONE', #248, .T. ) ;
#192 = CARTESIAN_POINT ( 'NONE',  ( 4.538925740496073362E-14, 0.6249999999999983347, 13.00000000000000000 ) ) ;
#193 = CARTESIAN_POINT ( 'NONE',  ( 2.094888803305880013E-14, 5.136677255616851907E-33, 6.000000000000000000 ) ) ;
#194 = ORIENTED_EDGE ( 'NONE', *, *, #128, .F. ) ;
#195 = CONICAL_SURFACE ( 'NONE', #179, 0.6849999999999992761, 0.5235987755982925984 ) ;
#196 = CC_DESIGN_APPROVAL ( #25, ( #296 ) ) ;
#197 = ORIENTED_EDGE ( 'NONE', *, *, #247, .T. ) ;
#198 = DIRECTION ( 'NONE',  ( 0.0000000000000000000, 0.0000000000000000000, 1.000000000000000000 ) ) ;
#199 = ADVANCED_FACE ( 'NONE', ( #186, #239 ), #54, .T. ) ;
#200 = EDGE_LOOP ( 'NONE', ( #20 ) ) ;
#201 = FACE_OUTER_BOUND ( 'NONE', #215, .T. ) ;
#202 = COORDINATED_UNIVERSAL_TIME_OFFSET ( 1, 0, .AHEAD. ) ;
#203 = DATE_AND_TIME ( #47, #118 ) ;
#204 = CC_DESIGN_PERSON_AND_ORGANIZATION_ASSIGNMENT ( #158, #251, ( #227 ) ) ;
#205 = DATE_AND_TIME ( #252, #184 ) ;
#206 = EDGE_LOOP ( 'NONE', ( #289 ) ) ;
#207 = LOCAL_TIME ( 11, 40, 23.00000000000000000, #86 ) ;
#208 = PERSON_AND_ORGANIZATION ( #31, #160 ) ;
#209 = DIRECTION ( 'NONE',  ( -4.275831445896958607E-31, -1.000000000000000000, -1.224646799147353207E-16 ) ) ;
#210 = CARTESIAN_POINT ( 'NONE',  ( 2.094888803305880013E-14, 0.6849999999999992761, 6.000000000000000000 ) ) ;
#211 = AXIS2_PLACEMENT_3D ( 'NONE', #284, #72, #126 ) ;
#212 = CARTESIAN_POINT ( 'NONE',  ( -9.463679131915806782E-32, 0.5406624327025949528, -2.710505431213761085E-17 ) ) ;
#213 = CARTESIAN_POINT ( 'NONE',  ( 6.332621528753465015E-14, -2.221184629893844456E-15, 18.13734891921752279 ) ) ;
#214 = CARTESIAN_POINT ( 'NONE',  ( 4.538925740496073362E-14, -1.734723475976807094E-15, 13.00000000000000000 ) ) ;
#215 = EDGE_LOOP ( 'NONE', ( #197 ) ) ;
#216 = VERTEX_POINT ( 'NONE', #103 ) ;
#217 = EDGE_CURVE ( 'NONE', #121, #121, #56, .T. ) ;
#218 = PERSON_AND_ORGANIZATION ( #31, #160 ) ;
#219 = DESIGN_CONTEXT ( 'detailed design', #124, 'design' ) ;
#220 = APPROVAL_DATE_TIME ( #131, #57 ) ;
#221 = CALENDAR_DATE ( 2021, 1, 12 ) ;
#222 = CIRCLE ( 'NONE', #242, 0.6850000000000000533 ) ;
#223 = APPROVAL_STATUS ( 'not_yet_approved' ) ;
#224 = EDGE_LOOP ( 'NONE', ( #172 ) ) ;
#225 = CARTESIAN_POINT ( 'NONE',  ( 1.316288464743861212E-13, -4.616918432785521081E-15, 37.69999999999999574 ) ) ;
#226 = ADVANCED_FACE ( 'NONE', ( #164, #145 ), #71, .T. ) ;
#227 = PRODUCT ( '327024', '327024', '', ( #136 ) ) ;
#228 = CYLINDRICAL_SURFACE ( 'NONE', #18, 0.6849999999999996092 ) ;
#229 = CC_DESIGN_PERSON_AND_ORGANIZATION_ASSIGNMENT ( #84, #15, ( #29 ) ) ;
#230 = CIRCLE ( 'NONE', #127, 0.6849999999999992761 ) ;
#231 = DATE_TIME_ROLE ( 'classification_date' ) ;
#232 = DIRECTION ( 'NONE',  ( -3.491481338843133355E-15, 1.224646799147353207E-16, -1.000000000000000000 ) ) ;
#233 = DIRECTION ( 'NONE',  ( -3.491481338843133355E-15, 1.224646799147353207E-16, -1.000000000000000000 ) ) ;
#234 = FACE_OUTER_BOUND ( 'NONE', #277, .T. ) ;
#235 = AXIS2_PLACEMENT_3D ( 'NONE', #225, #182, #96 ) ;
#236 = CARTESIAN_POINT ( 'NONE',  ( 0.0000000000000000000, 0.0000000000000000000, 0.0000000000000000000 ) ) ;
#237 = VERTEX_POINT ( 'NONE', #166 ) ;
#238 = PRODUCT_RELATED_PRODUCT_CATEGORY ( 'detail', '', ( #227 ) ) ;
#239 = FACE_OUTER_BOUND ( 'NONE', #271, .T. ) ;
#240 = CARTESIAN_POINT ( 'NONE',  ( 8.728703347107835360E-16, 0.6849999999999992761, 0.2500000000000000555 ) ) ;
#241 = EDGE_LOOP ( 'NONE', ( #61 ) ) ;
#242 = AXIS2_PLACEMENT_3D ( 'NONE', #77, #125, #165 ) ;
#243 = FACE_OUTER_BOUND ( 'NONE', #132, .T. ) ;
#244 = PERSON_AND_ORGANIZATION ( #31, #160 ) ;
#245 = DIRECTION ( 'NONE',  ( -4.275831445896958607E-31, -1.000000000000000000, -1.224646799147353207E-16 ) ) ;
#246 = DIRECTION ( 'NONE',  ( -4.275831445896958607E-31, -1.000000000000000000, -1.224646799147353207E-16 ) ) ;
#247 = EDGE_CURVE ( 'NONE', #119, #119, #222, .T. ) ;
#248 = EDGE_LOOP ( 'NONE', ( #175 ) ) ;
#249 = CARTESIAN_POINT ( 'NONE',  ( 0.0000000000000000000, 0.0000000000000000000, 0.0000000000000000000 ) ) ;
#250 = AXIS2_PLACEMENT_3D ( 'NONE', #249, #198, #45 ) ;
#251 = PERSON_AND_ORGANIZATION_ROLE ( 'design_owner' ) ;
#252 = CALENDAR_DATE ( 2021, 1, 12 ) ;
#253 = ORIENTED_EDGE ( 'NONE', *, *, #283, .T. ) ;
#254 = CONICAL_SURFACE ( 'NONE', #35, 1.499999999999997558, 0.1745329251994260922 ) ;
#255 = LOCAL_TIME ( 11, 40, 23.00000000000000000, #294 ) ;
#256 = DIRECTION ( 'NONE',  ( -3.491481338843133355E-15, 1.224646799147353207E-16, -1.000000000000000000 ) ) ;
#257 = EDGE_LOOP ( 'NONE', ( #194 ) ) ;
#258 = ADVANCED_FACE ( 'NONE', ( #9, #59 ), #55, .T. ) ;
#259 = AXIS2_PLACEMENT_3D ( 'NONE', #22, #138, #300 ) ;
#260 = FACE_OUTER_BOUND ( 'NONE', #79, .T. ) ;
#261 = AXIS2_PLACEMENT_3D ( 'NONE', #80, #163, #37 ) ;
#262 = CARTESIAN_POINT ( 'NONE',  ( 2.094888803305880013E-14, 0.6849999999999992761, 6.000000000000000000 ) ) ;
#263 = VERTEX_POINT ( 'NONE', #167 ) ;
#264 = ADVANCED_FACE ( 'NONE', ( #143 ), #152, .F. ) ;
#265 = CARTESIAN_POINT ( 'NONE',  ( 8.728703347107831416E-16, -3.061616997868382402E-17, 0.2499999999999999445 ) ) ;
#266 = CARTESIAN_POINT ( 'NONE',  ( 2.131173341741210381E-14, 0.6249999999999983347, 6.103923048454135802 ) ) ;
#267 = AXIS2_PLACEMENT_3D ( 'NONE', #214, #233, #285 ) ;
#268 = ORIENTED_EDGE ( 'NONE', *, *, #48, .F. ) ;
#269 = CARTESIAN_POINT ( 'NONE',  ( 2.131173341741210381E-14, -7.475149823531111238E-16, 6.103923048454135802 ) ) ;
#270 = CALENDAR_DATE ( 2021, 1, 12 ) ;
#271 = EDGE_LOOP ( 'NONE', ( #174 ) ) ;
#272 = DIRECTION ( 'NONE',  ( 3.491481338843133355E-15, -1.224646799147353207E-16, 1.000000000000000000 ) ) ;
#273 = EDGE_LOOP ( 'NONE', ( #268 ) ) ;
#274 = CLOSED_SHELL ( 'NONE', ( #60, #108, #87, #116 ) ) ;
#275 = CIRCLE ( 'NONE', #97, 0.6850000000000000533 ) ;
#276 =( NAMED_UNIT ( * ) SI_UNIT ( $, .STERADIAN. ) SOLID_ANGLE_UNIT ( ) );
#277 = EDGE_LOOP ( 'NONE', ( #157 ) ) ;
#278 = ADVANCED_FACE ( 'NONE', ( #234, #7 ), #183, .F. ) ;
#279 = CC_DESIGN_DATE_AND_TIME_ASSIGNMENT ( #203, #93, ( #28 ) ) ;
#280 = COORDINATED_UNIVERSAL_TIME_OFFSET ( 1, 0, .AHEAD. ) ;
#281 = ADVANCED_BREP_SHAPE_REPRESENTATION ( '327024', ( #46, #141, #250 ), #295 ) ;
#282 = DIRECTION ( 'NONE',  ( -3.491481338843133355E-15, 1.224646799147353207E-16, -1.000000000000000000 ) ) ;
#283 = EDGE_CURVE ( 'NONE', #39, #39, #94, .T. ) ;
#284 = CARTESIAN_POINT ( 'NONE',  ( -3.258149344556484157E-31, 1.142804952604219838E-32, -9.331710607498302044E-17 ) ) ;
#285 = DIRECTION ( 'NONE',  ( 4.275831445896958607E-31, 1.000000000000000000, 1.224646799147353207E-16 ) ) ;
#286 = CIRCLE ( 'NONE', #10, 1.499999999999997558 ) ;
#287 = AXIS2_PLACEMENT_3D ( 'NONE', #159, #282, #190 ) ;
#288 = CARTESIAN_POINT ( 'NONE',  ( 1.326762908760390423E-13, 1.199999999999998845, 38.00000000000000000 ) ) ;
#289 = ORIENTED_EDGE ( 'NONE', *, *, #298, .T. ) ;
#290 = ORIENTED_EDGE ( 'NONE', *, *, #8, .T. ) ;
#291 = DIRECTION ( 'NONE',  ( 0.0000000000000000000, 1.000000000000000000, 0.0000000000000000000 ) ) ;
#292 = EDGE_LOOP ( 'NONE', ( #43 ) ) ;
#293 = DIRECTION ( 'NONE',  ( -3.491481338843133355E-15, 1.224646799147353207E-16, -1.000000000000000000 ) ) ;
#294 = COORDINATED_UNIVERSAL_TIME_OFFSET ( 1, 0, .AHEAD. ) ;
#295 =( GEOMETRIC_REPRESENTATION_CONTEXT ( 3 ) GLOBAL_UNCERTAINTY_ASSIGNED_CONTEXT ( ( #98 ) ) GLOBAL_UNIT_ASSIGNED_CONTEXT ( ( #6, #74, #276 ) ) REPRESENTATION_CONTEXT ( 'NONE', 'WORKASPACE' ) );
#296 = SECURITY_CLASSIFICATION ( '', '', #107 ) ;
#297 = PERSON_AND_ORGANIZATION ( #31, #160 ) ;
#298 = EDGE_CURVE ( 'NONE', #216, #216, #139, .T. ) ;
#299 = EDGE_LOOP ( 'NONE', ( #65 ) ) ;
#300 = DIRECTION ( 'NONE',  ( 0.0000000000000000000, 1.000000000000000000, 0.0000000000000000000 ) ) ;
#301 = AXIS2_PLACEMENT_3D ( 'NONE', #169, #188, #209 ) ;
#302 = PERSON_AND_ORGANIZATION ( #31, #160 ) ;
#303 = ADVANCED_FACE ( 'NONE', ( #170, #260 ), #254, .T. ) ;
ENDSEC;
END-ISO-10303-21;
