ISO-10303-21;
HEADER;
FILE_DESCRIPTION (( 'STEP AP203' ),
    '1' );
FILE_NAME ('327023.step',
    '2021-12-01T10:40:22',
    ( '' ),
    ( '' ),
    'SwSTEP 2.0',
    'SolidWorks 2019',
    '' );
FILE_SCHEMA (( 'CONFIG_CONTROL_DESIGN' ));
ENDSEC;

DATA;
#1 = CONICAL_SURFACE ( 'NONE', #34, 0.6249999999999991118, 0.5235987755982933756 ) ;
#2 = EDGE_LOOP ( 'NONE', ( #91 ) ) ;
#3 = EDGE_LOOP ( 'NONE', ( #258 ) ) ;
#4 = EDGE_LOOP ( 'NONE', ( #66 ) ) ;
#5 = PLANE ( 'NONE',  #149 ) ;
#6 = CIRCLE ( 'NONE', #130, 1.500000000000003331 ) ;
#7 = DIRECTION ( 'NONE',  ( -3.491481338843133355E-15, 1.224646799147353207E-16, -1.000000000000000000 ) ) ;
#8 = FACE_BOUND ( 'NONE', #244, .T. ) ;
#9 = EDGE_CURVE ( 'NONE', #272, #272, #14, .T. ) ;
#10 = FACE_OUTER_BOUND ( 'NONE', #297, .T. ) ;
#11 = CARTESIAN_POINT ( 'NONE',  ( 2.128149630204933192E-14, -7.464544071143862768E-16, 6.095262794416290930 ) ) ;
#12 = DIRECTION ( 'NONE',  ( -5.664499836433052448E-31, -1.000000000000000000, -1.594414959537508159E-16 ) ) ;
#13 = CARTESIAN_POINT ( 'NONE',  ( 4.660183614865709118E-14, 0.6553844939755796295, 13.34729635533384595 ) ) ;
#14 = CIRCLE ( 'NONE', #275, 1.499999999999997558 ) ;
#15 = AXIS2_PLACEMENT_3D ( 'NONE', #79, #77, #154 ) ;
#16 = CARTESIAN_POINT ( 'NONE',  ( 2.094888803305880013E-14, 0.6799999999999992717, 6.000000000000000000 ) ) ;
#17 = CARTESIAN_POINT ( 'NONE',  ( -9.463679131915806782E-32, 0.5356624327025948373, -2.710505431213761085E-17 ) ) ;
#18 = EDGE_LOOP ( 'NONE', ( #236 ) ) ;
#19 = PERSON_AND_ORGANIZATION_ROLE ( 'classification_officer' ) ;
#20 = APPLICATION_CONTEXT ( 'configuration controlled 3d designs of mechanical parts and assemblies' ) ;
#21 = LOCAL_TIME ( 11, 40, 22.00000000000000000, #43 ) ;
#22 = CALENDAR_DATE ( 2021, 1, 12 ) ;
#23 = ORIENTED_EDGE ( 'NONE', *, *, #141, .F. ) ;
#24 = EDGE_LOOP ( 'NONE', ( #23 ) ) ;
#25 = ORIENTED_EDGE ( 'NONE', *, *, #302, .F. ) ;
#26 = CARTESIAN_POINT ( 'NONE',  ( 1.326762908760390423E-13, -4.653657836759941941E-15, 38.00000000000000000 ) ) ;
#27 = CARTESIAN_POINT ( 'NONE',  ( 0.0000000000000000000, 0.0000000000000000000, 0.0000000000000000000 ) ) ;
#28 = LOCAL_TIME ( 11, 40, 22.00000000000000000, #142 ) ;
#29 = CARTESIAN_POINT ( 'NONE',  ( 2.128149630204933192E-14, -7.464544071143862768E-16, 6.095262794416290930 ) ) ;
#30 = LOCAL_TIME ( 11, 40, 22.00000000000000000, #254 ) ;
#31 = FACE_BOUND ( 'NONE', #153, .T. ) ;
#32 = CARTESIAN_POINT ( 'NONE',  ( 1.326762908760390423E-13, 8.998558695971103225E-33, 38.00000000000000000 ) ) ;
#33 = DIRECTION ( 'NONE',  ( -3.491481338843133355E-15, 1.224646799147353207E-16, -1.000000000000000000 ) ) ;
#34 = AXIS2_PLACEMENT_3D ( 'NONE', #29, #55, #215 ) ;
#35 = CARTESIAN_POINT ( 'NONE',  ( -3.236770187326999005E-31, 1.135306153690910495E-32, -9.270478267540933287E-17 ) ) ;
#36 = ADVANCED_FACE ( 'NONE', ( #76, #151 ), #100, .T. ) ;
#37 = DIRECTION ( 'NONE',  ( 3.491481338843133355E-15, -1.224646799147353207E-16, 1.000000000000000000 ) ) ;
#38 = PLANE ( 'NONE',  #45 ) ;
#39 = COORDINATED_UNIVERSAL_TIME_OFFSET ( 1, 0, .AHEAD. ) ;
#40 = EDGE_CURVE ( 'NONE', #105, #105, #218, .T. ) ;
#41 = VERTEX_POINT ( 'NONE', #104 ) ;
#42 = DATE_AND_TIME ( #252, #30 ) ;
#43 = COORDINATED_UNIVERSAL_TIME_OFFSET ( 1, 0, .AHEAD. ) ;
#44 = EDGE_CURVE ( 'NONE', #133, #133, #176, .T. ) ;
#45 = AXIS2_PLACEMENT_3D ( 'NONE', #86, #83, #247 ) ;
#46 = DATE_AND_TIME ( #63, #21 ) ;
#47 = EDGE_LOOP ( 'NONE', ( #114 ) ) ;
#48 = CLOSED_SHELL ( 'NONE', ( #291, #248, #36, #232, #95, #298, #121, #49 ) ) ;
#49 = ADVANCED_FACE ( 'NONE', ( #168 ), #5, .F. ) ;
#50 = EDGE_LOOP ( 'NONE', ( #163 ) ) ;
#51 = CONICAL_SURFACE ( 'NONE', #87, 1.499999999999997558, 0.1745329251994260922 ) ;
#52 = CARTESIAN_POINT ( 'NONE',  ( 6.332621528753465015E-14, -2.221184629893844456E-15, 18.13734891921752279 ) ) ;
#53 = FACE_OUTER_BOUND ( 'NONE', #50, .T. ) ;
#54 = CIRCLE ( 'NONE', #241, 0.6250000000000000000 ) ;
#55 = DIRECTION ( 'NONE',  ( -3.491481338843133355E-15, 1.224646799147353207E-16, -1.000000000000000000 ) ) ;
#56 = DESIGN_CONTEXT ( 'detailed design', #102, 'design' ) ;
#57 = DIRECTION ( 'NONE',  ( -4.275831445896958607E-31, -1.000000000000000000, -1.224646799147353207E-16 ) ) ;
#58 = DIRECTION ( 'NONE',  ( 3.491481338843133355E-15, -1.224646799147353207E-16, 1.000000000000000000 ) ) ;
#59 = CC_DESIGN_DATE_AND_TIME_ASSIGNMENT ( #46, #278, ( #223 ) ) ;
#60 = FACE_OUTER_BOUND ( 'NONE', #281, .T. ) ;
#61 =( NAMED_UNIT ( * ) PLANE_ANGLE_UNIT ( ) SI_UNIT ( $, .RADIAN. ) );
#62 = CARTESIAN_POINT ( 'NONE',  ( 6.332621528753465015E-14, 1.499999999999995559, 18.13734891921752279 ) ) ;
#63 = CALENDAR_DATE ( 2021, 1, 12 ) ;
#64 = EDGE_CURVE ( 'NONE', #199, #199, #96, .T. ) ;
#65 = APPROVAL_ROLE ( '' ) ;
#66 = ORIENTED_EDGE ( 'NONE', *, *, #181, .F. ) ;
#67 = COORDINATED_UNIVERSAL_TIME_OFFSET ( 1, 0, .AHEAD. ) ;
#68 = EDGE_LOOP ( 'NONE', ( #183 ) ) ;
#69 = APPROVAL ( #301, 'UNSPECIFIED' ) ;
#70 = PERSON_AND_ORGANIZATION ( #193, #299 ) ;
#71 = ADVANCED_FACE ( 'NONE', ( #243 ), #98, .F. ) ;
#72 = APPLICATION_PROTOCOL_DEFINITION ( 'international standard', 'config_control_design', 1994, #20 ) ;
#73 = AXIS2_PLACEMENT_3D ( 'NONE', #11, #242, #101 ) ;
#74 = DIRECTION ( 'NONE',  ( -3.491481338843133355E-15, 1.224646799147353207E-16, -1.000000000000000000 ) ) ;
#75 = FACE_OUTER_BOUND ( 'NONE', #3, .T. ) ;
#76 = FACE_OUTER_BOUND ( 'NONE', #112, .T. ) ;
#77 = DIRECTION ( 'NONE',  ( -3.491481338843133355E-15, 1.224646799147353207E-16, -1.000000000000000000 ) ) ;
#78 = AXIS2_PLACEMENT_3D ( 'NONE', #191, #33, #284 ) ;
#79 = CARTESIAN_POINT ( 'NONE',  ( 8.728703347107831416E-16, -3.061616997868382402E-17, 0.2499999999999999445 ) ) ;
#80 = CC_DESIGN_PERSON_AND_ORGANIZATION_ASSIGNMENT ( #109, #274, ( #223 ) ) ;
#81 = DIRECTION ( 'NONE',  ( 0.0000000000000000000, 1.000000000000000000, 0.0000000000000000000 ) ) ;
#82 = CARTESIAN_POINT ( 'NONE',  ( 4.538925740496073362E-14, 0.6249999999999983347, 13.00000000000000000 ) ) ;
#83 = DIRECTION ( 'NONE',  ( 3.491481338843133355E-15, -1.224646799147353207E-16, 1.000000000000000000 ) ) ;
#84 = CLOSED_SHELL ( 'NONE', ( #71, #267, #190, #179 ) ) ;
#85 = CC_DESIGN_PERSON_AND_ORGANIZATION_ASSIGNMENT ( #178, #19, ( #166 ) ) ;
#86 = CARTESIAN_POINT ( 'NONE',  ( 2.094888803305880013E-14, 5.099183261050305193E-33, 6.000000000000000000 ) ) ;
#87 = AXIS2_PLACEMENT_3D ( 'NONE', #266, #120, #217 ) ;
#88 = DATE_AND_TIME ( #303, #94 ) ;
#89 = PERSON_AND_ORGANIZATION_ROLE ( 'creator' ) ;
#90 = CIRCLE ( 'NONE', #73, 0.6249999999999991118 ) ;
#91 = ORIENTED_EDGE ( 'NONE', *, *, #181, .T. ) ;
#92 = EDGE_LOOP ( 'NONE', ( #230 ) ) ;
#93 = ORIENTED_EDGE ( 'NONE', *, *, #44, .F. ) ;
#94 = LOCAL_TIME ( 11, 40, 22.00000000000000000, #39 ) ;
#95 = ADVANCED_FACE ( 'NONE', ( #31, #75 ), #51, .T. ) ;
#96 = CIRCLE ( 'NONE', #270, 0.6800000000000000488 ) ;
#97 = CARTESIAN_POINT ( 'NONE',  ( 2.094888803305880013E-14, -7.347880794884119736E-16, 6.000000000000000000 ) ) ;
#98 = PLANE ( 'NONE',  #186 ) ;
#99 = DIRECTION ( 'NONE',  ( -3.491481338843133355E-15, 1.224646799147353207E-16, -1.000000000000000000 ) ) ;
#100 = CYLINDRICAL_SURFACE ( 'NONE', #156, 0.6249999999999995559 ) ;
#101 = DIRECTION ( 'NONE',  ( 0.0000000000000000000, 1.000000000000000000, 0.0000000000000000000 ) ) ;
#102 = APPLICATION_CONTEXT ( 'configuration controlled 3d designs of mechanical parts and assemblies' ) ;
#103 = CARTESIAN_POINT ( 'NONE',  ( 2.094888803305880013E-14, 5.099183261050305193E-33, 6.000000000000000000 ) ) ;
#104 = CARTESIAN_POINT ( 'NONE',  ( 1.326762908760390423E-13, 1.199999999999998845, 38.00000000000000000 ) ) ;
#105 = VERTEX_POINT ( 'NONE', #16 ) ;
#106 = CC_DESIGN_PERSON_AND_ORGANIZATION_ASSIGNMENT ( #70, #89, ( #187 ) ) ;
#107 = CARTESIAN_POINT ( 'NONE',  ( 2.094888803305880013E-14, 0.6799999999999992717, 6.000000000000000000 ) ) ;
#108 = CIRCLE ( 'NONE', #15, 0.6799999999999992717 ) ;
#109 = PERSON_AND_ORGANIZATION ( #193, #299 ) ;
#110 = PERSON_AND_ORGANIZATION ( #193, #299 ) ;
#111 = CONICAL_SURFACE ( 'NONE', #207, 0.6799999999999992717, 0.5235987755982929315 ) ;
#112 = EDGE_LOOP ( 'NONE', ( #148 ) ) ;
#113 = APPROVAL_DATE_TIME ( #228, #235 ) ;
#114 = ORIENTED_EDGE ( 'NONE', *, *, #40, .F. ) ;
#115 = DATE_AND_TIME ( #22, #125 ) ;
#116 = PRODUCT_RELATED_PRODUCT_CATEGORY ( 'detail', '', ( #122 ) ) ;
#117 = CARTESIAN_POINT ( 'NONE',  ( 0.0000000000000000000, 0.0000000000000000000, 0.0000000000000000000 ) ) ;
#118 = EDGE_LOOP ( 'NONE', ( #139 ) ) ;
#119 = CC_DESIGN_APPROVAL ( #209, ( #166 ) ) ;
#120 = DIRECTION ( 'NONE',  ( 3.491481338843133355E-15, -1.224646799147353207E-16, 1.000000000000000000 ) ) ;
#121 = ADVANCED_FACE ( 'NONE', ( #219, #238 ), #293, .T. ) ;
#122 = PRODUCT ( '327023', '327023', '', ( #261 ) ) ;
#123 = AXIS2_PLACEMENT_3D ( 'NONE', #296, #134, #246 ) ;
#124 = DIRECTION ( 'NONE',  ( 0.0000000000000000000, 1.000000000000000000, 0.0000000000000000000 ) ) ;
#125 = LOCAL_TIME ( 11, 40, 22.00000000000000000, #67 ) ;
#126 = DIRECTION ( 'NONE',  ( -3.491481338843133355E-15, 1.224646799147353207E-16, -1.000000000000000000 ) ) ;
#127 = EDGE_CURVE ( 'NONE', #158, #158, #54, .T. ) ;
#128 = DIRECTION ( 'NONE',  ( 3.491481338843133355E-15, -1.224646799147353207E-16, 1.000000000000000000 ) ) ;
#129 = DIRECTION ( 'NONE',  ( 4.275831445896958607E-31, 1.000000000000000000, 1.224646799147353207E-16 ) ) ;
#130 = AXIS2_PLACEMENT_3D ( 'NONE', #292, #159, #222 ) ;
#131 = CARTESIAN_POINT ( 'NONE',  ( 2.128149630204933192E-14, 0.6249999999999983347, 6.095262794416290930 ) ) ;
#132 = CC_DESIGN_PERSON_AND_ORGANIZATION_ASSIGNMENT ( #205, #180, ( #187 ) ) ;
#133 = VERTEX_POINT ( 'NONE', #13 ) ;
#134 = DIRECTION ( 'NONE',  ( -3.491481338843133355E-15, 1.224646799147353207E-16, -1.000000000000000000 ) ) ;
#135 = AXIS2_PLACEMENT_3D ( 'NONE', #214, #263, #262 ) ;
#136 = PERSON_AND_ORGANIZATION ( #193, #299 ) ;
#137 = EDGE_LOOP ( 'NONE', ( #144 ) ) ;
#138 = CALENDAR_DATE ( 2021, 1, 12 ) ;
#139 = ORIENTED_EDGE ( 'NONE', *, *, #9, .F. ) ;
#140 = APPROVAL_DATE_TIME ( #88, #209 ) ;
#141 = EDGE_CURVE ( 'NONE', #161, #161, #108, .T. ) ;
#142 = COORDINATED_UNIVERSAL_TIME_OFFSET ( 1, 0, .AHEAD. ) ;
#143 = APPLICATION_PROTOCOL_DEFINITION ( 'international standard', 'config_control_design', 1994, #102 ) ;
#144 = ORIENTED_EDGE ( 'NONE', *, *, #127, .T. ) ;
#145 = APPROVAL_ROLE ( '' ) ;
#146 = DIRECTION ( 'NONE',  ( -3.491481338843133355E-15, 1.224646799147353207E-16, -1.000000000000000000 ) ) ;
#147 = FACE_OUTER_BOUND ( 'NONE', #47, .T. ) ;
#148 = ORIENTED_EDGE ( 'NONE', *, *, #171, .F. ) ;
#149 = AXIS2_PLACEMENT_3D ( 'NONE', #32, #283, #152 ) ;
#150 = PLANE ( 'NONE',  #184 ) ;
#151 = FACE_OUTER_BOUND ( 'NONE', #137, .T. ) ;
#152 = DIRECTION ( 'NONE',  ( 4.275831445896958607E-31, 1.000000000000000000, 1.224646799147353207E-16 ) ) ;
#153 = EDGE_LOOP ( 'NONE', ( #93 ) ) ;
#154 = DIRECTION ( 'NONE',  ( 5.664499836433052448E-31, 1.000000000000000000, 1.594414959537508159E-16 ) ) ;
#155 = ORIENTED_EDGE ( 'NONE', *, *, #171, .T. ) ;
#156 = AXIS2_PLACEMENT_3D ( 'NONE', #164, #146, #237 ) ;
#157 = CC_DESIGN_APPROVAL ( #235, ( #223 ) ) ;
#158 = VERTEX_POINT ( 'NONE', #82 ) ;
#159 = DIRECTION ( 'NONE',  ( -3.491481338843133355E-15, 1.224646799147353207E-16, -1.000000000000000000 ) ) ;
#160 = CC_DESIGN_SECURITY_CLASSIFICATION ( #166, ( #187 ) ) ;
#161 = VERTEX_POINT ( 'NONE', #177 ) ;
#162 = FACE_OUTER_BOUND ( 'NONE', #118, .T. ) ;
#163 = ORIENTED_EDGE ( 'NONE', *, *, #64, .F. ) ;
#164 = CARTESIAN_POINT ( 'NONE',  ( 0.0000000000000000000, 0.0000000000000000000, 0.0000000000000000000 ) ) ;
#165 = CIRCLE ( 'NONE', #286, 0.5356624327025948373 ) ;
#166 = SECURITY_CLASSIFICATION ( '', '', #182 ) ;
#167 = DIRECTION ( 'NONE',  ( 1.000000000000000000, 0.0000000000000000000, 0.0000000000000000000 ) ) ;
#168 = FACE_OUTER_BOUND ( 'NONE', #4, .T. ) ;
#169 = ORIENTED_EDGE ( 'NONE', *, *, #64, .T. ) ;
#170 = DIRECTION ( 'NONE',  ( -3.491481338843133355E-15, 1.224646799147353207E-16, -1.000000000000000000 ) ) ;
#171 = EDGE_CURVE ( 'NONE', #253, #253, #90, .T. ) ;
#172 = DIRECTION ( 'NONE',  ( -4.275831445896958607E-31, -1.000000000000000000, -1.224646799147353207E-16 ) ) ;
#173 = CARTESIAN_POINT ( 'NONE',  ( 2.094888803305880013E-14, -7.347880794884119736E-16, 6.000000000000000000 ) ) ;
#174 = ORIENTED_EDGE ( 'NONE', *, *, #271, .T. ) ;
#175 = DIRECTION ( 'NONE',  ( 0.0000000000000000000, 1.000000000000000000, 0.0000000000000000000 ) ) ;
#176 = CIRCLE ( 'NONE', #78, 0.6553844939755811838 ) ;
#177 = CARTESIAN_POINT ( 'NONE',  ( 8.728703347107835360E-16, 0.6799999999999992717, 0.2500000000000000555 ) ) ;
#178 = PERSON_AND_ORGANIZATION ( #193, #299 ) ;
#179 = ADVANCED_FACE ( 'NONE', ( #53 ), #150, .T. ) ;
#180 = PERSON_AND_ORGANIZATION_ROLE ( 'design_supplier' ) ;
#181 = EDGE_CURVE ( 'NONE', #41, #41, #256, .T. ) ;
#182 = SECURITY_CLASSIFICATION_LEVEL ( 'unclassified' ) ;
#183 = ORIENTED_EDGE ( 'NONE', *, *, #40, .T. ) ;
#184 = AXIS2_PLACEMENT_3D ( 'NONE', #103, #58, #57 ) ;
#185 = ORIENTED_EDGE ( 'NONE', *, *, #302, .T. ) ;
#186 = AXIS2_PLACEMENT_3D ( 'NONE', #268, #128, #172 ) ;
#187 = PRODUCT_DEFINITION_FORMATION_WITH_SPECIFIED_SOURCE ( 'ANY', '', #122, .NOT_KNOWN. ) ;
#188 = DIRECTION ( 'NONE',  ( -3.491481338843133355E-15, 1.224646799147353207E-16, -1.000000000000000000 ) ) ;
#189 = ORIENTED_EDGE ( 'NONE', *, *, #44, .T. ) ;
#190 = ADVANCED_FACE ( 'NONE', ( #289, #196 ), #216, .T. ) ;
#191 = CARTESIAN_POINT ( 'NONE',  ( 4.660183614865709118E-14, -1.634572375883072808E-15, 13.34729635533384595 ) ) ;
#192 = DIRECTION ( 'NONE',  ( 0.0000000000000000000, 1.000000000000000000, 0.0000000000000000000 ) ) ;
#193 = PERSON ( 'UNSPECIFIED', 'UNSPECIFIED', 'UNSPECIFIED', ('UNSPECIFIED'), ('UNSPECIFIED'), ('UNSPECIFIED') ) ;
#194 = AXIS2_PLACEMENT_3D ( 'NONE', #117, #210, #167 ) ;
#195 = DIRECTION ( 'NONE',  ( 0.0000000000000000000, 1.000000000000000000, 0.0000000000000000000 ) ) ;
#196 = FACE_OUTER_BOUND ( 'NONE', #208, .T. ) ;
#197 =( GEOMETRIC_REPRESENTATION_CONTEXT ( 3 ) GLOBAL_UNCERTAINTY_ASSIGNED_CONTEXT ( ( #288 ) ) GLOBAL_UNIT_ASSIGNED_CONTEXT ( ( #229, #61, #204 ) ) REPRESENTATION_CONTEXT ( 'NONE', 'WORKASPACE' ) );
#198 = APPROVAL_PERSON_ORGANIZATION ( #110, #209, #279 ) ;
#199 = VERTEX_POINT ( 'NONE', #107 ) ;
#200 = VERTEX_POINT ( 'NONE', #273 ) ;
#201 = SHAPE_DEFINITION_REPRESENTATION ( #240, #206 ) ;
#202 = CYLINDRICAL_SURFACE ( 'NONE', #123, 1.500000000000000444 ) ;
#203 = APPROVAL_PERSON_ORGANIZATION ( #280, #235, #145 ) ;
#204 =( NAMED_UNIT ( * ) SI_UNIT ( $, .STERADIAN. ) SOLID_ANGLE_UNIT ( ) );
#205 = PERSON_AND_ORGANIZATION ( #193, #299 ) ;
#206 = ADVANCED_BREP_SHAPE_REPRESENTATION ( '327023', ( #225, #221, #194 ), #197 ) ;
#207 = AXIS2_PLACEMENT_3D ( 'NONE', #277, #37, #12 ) ;
#208 = EDGE_LOOP ( 'NONE', ( #169 ) ) ;
#209 = APPROVAL ( #295, 'UNSPECIFIED' ) ;
#210 = DIRECTION ( 'NONE',  ( 0.0000000000000000000, 0.0000000000000000000, 1.000000000000000000 ) ) ;
#211 = ORIENTED_EDGE ( 'NONE', *, *, #127, .F. ) ;
#212 = EDGE_LOOP ( 'NONE', ( #211 ) ) ;
#213 = DIRECTION ( 'NONE',  ( -3.491481338843133355E-15, 1.224646799147353207E-16, -1.000000000000000000 ) ) ;
#214 = CARTESIAN_POINT ( 'NONE',  ( 4.538925740496073362E-14, -1.734723475976807094E-15, 13.00000000000000000 ) ) ;
#215 = DIRECTION ( 'NONE',  ( 0.0000000000000000000, 1.000000000000000000, 0.0000000000000000000 ) ) ;
#216 = CYLINDRICAL_SURFACE ( 'NONE', #224, 0.6799999999999996048 ) ;
#217 = DIRECTION ( 'NONE',  ( 0.0000000000000000000, -1.000000000000000000, 0.0000000000000000000 ) ) ;
#218 = CIRCLE ( 'NONE', #265, 0.6800000000000000488 ) ;
#219 = FACE_OUTER_BOUND ( 'NONE', #92, .T. ) ;
#220 = FACE_OUTER_BOUND ( 'NONE', #18, .T. ) ;
#221 = MANIFOLD_SOLID_BREP ( 'Corps-Déplacer/Copier1[2]', #84 ) ;
#222 = DIRECTION ( 'NONE',  ( 0.0000000000000000000, 1.000000000000000000, 0.0000000000000000000 ) ) ;
#223 = PRODUCT_DEFINITION ( 'UNKNOWN', '', #187, #56 ) ;
#224 = AXIS2_PLACEMENT_3D ( 'NONE', #27, #188, #129 ) ;
#225 = MANIFOLD_SOLID_BREP ( 'Corps-Déplacer/Copier1[1]', #48 ) ;
#226 = DIRECTION ( 'NONE',  ( -3.491481338843133355E-15, 1.224646799147353207E-16, -1.000000000000000000 ) ) ;
#227 = DATE_TIME_ROLE ( 'classification_date' ) ;
#228 = DATE_AND_TIME ( #138, #28 ) ;
#229 =( LENGTH_UNIT ( ) NAMED_UNIT ( * ) SI_UNIT ( .MILLI., .METRE. ) );
#230 = ORIENTED_EDGE ( 'NONE', *, *, #271, .F. ) ;
#231 = PERSON_AND_ORGANIZATION ( #193, #299 ) ;
#232 = ADVANCED_FACE ( 'NONE', ( #245, #10 ), #260, .F. ) ;
#233 = EDGE_LOOP ( 'NONE', ( #155 ) ) ;
#234 = APPROVAL_STATUS ( 'not_yet_approved' ) ;
#235 = APPROVAL ( #234, 'UNSPECIFIED' ) ;
#236 = ORIENTED_EDGE ( 'NONE', *, *, #141, .T. ) ;
#237 = DIRECTION ( 'NONE',  ( 4.275831445896959482E-31, 1.000000000000000000, 1.224646799147353454E-16 ) ) ;
#238 = FACE_BOUND ( 'NONE', #2, .T. ) ;
#239 = FACE_BOUND ( 'NONE', #233, .T. ) ;
#240 = PRODUCT_DEFINITION_SHAPE ( 'NONE', 'NONE',  #223 ) ;
#241 = AXIS2_PLACEMENT_3D ( 'NONE', #264, #213, #124 ) ;
#242 = DIRECTION ( 'NONE',  ( -3.491481338843133355E-15, 1.224646799147353207E-16, -1.000000000000000000 ) ) ;
#243 = FACE_OUTER_BOUND ( 'NONE', #255, .T. ) ;
#244 = EDGE_LOOP ( 'NONE', ( #25 ) ) ;
#245 = FACE_OUTER_BOUND ( 'NONE', #212, .T. ) ;
#246 = DIRECTION ( 'NONE',  ( 4.275831445896958607E-31, 1.000000000000000000, 1.224646799147353207E-16 ) ) ;
#247 = DIRECTION ( 'NONE',  ( -4.275831445896958607E-31, -1.000000000000000000, -1.224646799147353207E-16 ) ) ;
#248 = ADVANCED_FACE ( 'NONE', ( #147, #239 ), #1, .T. ) ;
#249 = FACE_OUTER_BOUND ( 'NONE', #68, .T. ) ;
#250 = AXIS2_PLACEMENT_3D ( 'NONE', #26, #126, #81 ) ;
#251 = VERTEX_POINT ( 'NONE', #17 ) ;
#252 = CALENDAR_DATE ( 2021, 1, 12 ) ;
#253 = VERTEX_POINT ( 'NONE', #131 ) ;
#254 = COORDINATED_UNIVERSAL_TIME_OFFSET ( 1, 0, .AHEAD. ) ;
#255 = EDGE_LOOP ( 'NONE', ( #185 ) ) ;
#256 = CIRCLE ( 'NONE', #250, 1.200000000000003286 ) ;
#257 = APPROVAL_PERSON_ORGANIZATION ( #231, #69, #65 ) ;
#258 = ORIENTED_EDGE ( 'NONE', *, *, #9, .T. ) ;
#259 = CC_DESIGN_DATE_AND_TIME_ASSIGNMENT ( #42, #227, ( #166 ) ) ;
#260 = TOROIDAL_SURFACE ( 'NONE', #135, 2.625000000000000000, 2.000000000000000000 ) ;
#261 = MECHANICAL_CONTEXT ( 'NONE', #20, 'mechanical' ) ;
#262 = DIRECTION ( 'NONE',  ( 4.275831445896958607E-31, 1.000000000000000000, 1.224646799147353207E-16 ) ) ;
#263 = DIRECTION ( 'NONE',  ( -3.491481338843133355E-15, 1.224646799147353207E-16, -1.000000000000000000 ) ) ;
#264 = CARTESIAN_POINT ( 'NONE',  ( 4.538925740496073362E-14, -1.592040838891559095E-15, 13.00000000000000000 ) ) ;
#265 = AXIS2_PLACEMENT_3D ( 'NONE', #173, #99, #195 ) ;
#266 = CARTESIAN_POINT ( 'NONE',  ( 6.332621528753465015E-14, -2.221184629893844456E-15, 18.13734891921752279 ) ) ;
#267 = ADVANCED_FACE ( 'NONE', ( #8, #220 ), #111, .T. ) ;
#268 = CARTESIAN_POINT ( 'NONE',  ( -1.618385093663499502E-31, 5.676530768454552476E-33, -4.635239133770466644E-17 ) ) ;
#269 = DIRECTION ( 'NONE',  ( 0.0000000000000000000, 1.000000000000000000, 0.0000000000000000000 ) ) ;
#270 = AXIS2_PLACEMENT_3D ( 'NONE', #97, #7, #175 ) ;
#271 = EDGE_CURVE ( 'NONE', #200, #200, #6, .T. ) ;
#272 = VERTEX_POINT ( 'NONE', #62 ) ;
#273 = CARTESIAN_POINT ( 'NONE',  ( 1.316288464743861212E-13, 1.499999999999998668, 37.69999999999999574 ) ) ;
#274 = PERSON_AND_ORGANIZATION_ROLE ( 'creator' ) ;
#275 = AXIS2_PLACEMENT_3D ( 'NONE', #52, #74, #192 ) ;
#276 = AXIS2_PLACEMENT_3D ( 'NONE', #287, #170, #269 ) ;
#277 = CARTESIAN_POINT ( 'NONE',  ( 8.728703347107831416E-16, -3.061616997868382402E-17, 0.2499999999999999445 ) ) ;
#278 = DATE_TIME_ROLE ( 'creation_date' ) ;
#279 = APPROVAL_ROLE ( '' ) ;
#280 = PERSON_AND_ORGANIZATION ( #193, #299 ) ;
#281 = EDGE_LOOP ( 'NONE', ( #174 ) ) ;
#282 = PERSON_AND_ORGANIZATION_ROLE ( 'design_owner' ) ;
#283 = DIRECTION ( 'NONE',  ( -3.491481338843133355E-15, 1.224646799147353207E-16, -1.000000000000000000 ) ) ;
#284 = DIRECTION ( 'NONE',  ( 0.0000000000000000000, 1.000000000000000000, 0.0000000000000000000 ) ) ;
#285 = CC_DESIGN_PERSON_AND_ORGANIZATION_ASSIGNMENT ( #136, #282, ( #122 ) ) ;
#286 = AXIS2_PLACEMENT_3D ( 'NONE', #35, #226, #290 ) ;
#287 = CARTESIAN_POINT ( 'NONE',  ( 1.326762908760390423E-13, -4.653657836759941941E-15, 38.00000000000000000 ) ) ;
#288 = UNCERTAINTY_MEASURE_WITH_UNIT (LENGTH_MEASURE( 1.000000000000000082E-05 ), #229, 'distance_accuracy_value', 'NONE');
#289 = FACE_OUTER_BOUND ( 'NONE', #24, .T. ) ;
#290 = DIRECTION ( 'NONE',  ( 4.275831445896958607E-31, 1.000000000000000000, 1.224646799147353207E-16 ) ) ;
#291 = ADVANCED_FACE ( 'NONE', ( #249 ), #38, .F. ) ;
#292 = CARTESIAN_POINT ( 'NONE',  ( 1.316288464743861212E-13, -4.616918432785521081E-15, 37.69999999999999574 ) ) ;
#293 = CONICAL_SURFACE ( 'NONE', #276, 1.200000000000003286, 0.7853981633974453924 ) ;
#294 = CC_DESIGN_APPROVAL ( #69, ( #187 ) ) ;
#295 = APPROVAL_STATUS ( 'not_yet_approved' ) ;
#296 = CARTESIAN_POINT ( 'NONE',  ( 0.0000000000000000000, 0.0000000000000000000, 0.0000000000000000000 ) ) ;
#297 = EDGE_LOOP ( 'NONE', ( #189 ) ) ;
#298 = ADVANCED_FACE ( 'NONE', ( #162, #60 ), #202, .T. ) ;
#299 = ORGANIZATION ( 'UNSPECIFIED', 'UNSPECIFIED', '' ) ;
#300 = APPROVAL_DATE_TIME ( #115, #69 ) ;
#301 = APPROVAL_STATUS ( 'not_yet_approved' ) ;
#302 = EDGE_CURVE ( 'NONE', #251, #251, #165, .T. ) ;
#303 = CALENDAR_DATE ( 2021, 1, 12 ) ;
ENDSEC;
END-ISO-10303-21;
