ISO-10303-21;
HEADER;
FILE_DESCRIPTION (( 'STEP AP203' ),
    '1' );
FILE_NAME ('327022.step',
    '2021-12-01T10:40:21',
    ( '' ),
    ( '' ),
    'SwSTEP 2.0',
    'SolidWorks 2019',
    '' );
FILE_SCHEMA (( 'CONFIG_CONTROL_DESIGN' ));
ENDSEC;

DATA;
#1 = AXIS2_PLACEMENT_3D ( 'NONE', #196, #156, #160 ) ;
#2 = APPLICATION_CONTEXT ( 'configuration controlled 3d designs of mechanical parts and assemblies' ) ;
#3 = PERSON_AND_ORGANIZATION ( #116, #177 ) ;
#4 = ADVANCED_FACE ( 'NONE', ( #12, #296 ), #80, .T. ) ;
#5 = COORDINATED_UNIVERSAL_TIME_OFFSET ( 1, 0, .AHEAD. ) ;
#6 = ADVANCED_FACE ( 'NONE', ( #232 ), #131, .F. ) ;
#7 = AXIS2_PLACEMENT_3D ( 'NONE', #128, #81, #169 ) ;
#8 = DIRECTION ( 'NONE',  ( -3.491481338843133355E-15, 1.224646799147353207E-16, -1.000000000000000000 ) ) ;
#9 = VERTEX_POINT ( 'NONE', #291 ) ;
#10 = APPROVAL_ROLE ( '' ) ;
#11 = VERTEX_POINT ( 'NONE', #244 ) ;
#12 = FACE_OUTER_BOUND ( 'NONE', #288, .T. ) ;
#13 = ORIENTED_EDGE ( 'NONE', *, *, #50, .T. ) ;
#14 = CARTESIAN_POINT ( 'NONE',  ( 0.0000000000000000000, 0.0000000000000000000, 0.0000000000000000000 ) ) ;
#15 = EDGE_LOOP ( 'NONE', ( #194 ) ) ;
#16 = CIRCLE ( 'NONE', #26, 1.200000000000003286 ) ;
#17 = APPROVAL_ROLE ( '' ) ;
#18 = APPROVAL_STATUS ( 'not_yet_approved' ) ;
#19 = DIRECTION ( 'NONE',  ( 3.491481338843133355E-15, -1.224646799147353207E-16, 1.000000000000000000 ) ) ;
#20 = ADVANCED_FACE ( 'NONE', ( #277 ), #110, .F. ) ;
#21 = DIRECTION ( 'NONE',  ( 3.491481338843133355E-15, -1.224646799147353207E-16, 1.000000000000000000 ) ) ;
#22 = APPROVAL_DATE_TIME ( #71, #181 ) ;
#23 = CARTESIAN_POINT ( 'NONE',  ( 4.538925740496073362E-14, -1.592040838891559095E-15, 13.00000000000000000 ) ) ;
#24 = CC_DESIGN_APPROVAL ( #161, ( #252 ) ) ;
#25 = FACE_BOUND ( 'NONE', #191, .T. ) ;
#26 = AXIS2_PLACEMENT_3D ( 'NONE', #130, #227, #201 ) ;
#27 = AXIS2_PLACEMENT_3D ( 'NONE', #193, #190, #248 ) ;
#28 = DIRECTION ( 'NONE',  ( -3.491481338843133355E-15, 1.224646799147353207E-16, -1.000000000000000000 ) ) ;
#29 = SECURITY_CLASSIFICATION ( '', '', #111 ) ;
#30 = ADVANCED_FACE ( 'NONE', ( #258 ), #67, .F. ) ;
#31 = AXIS2_PLACEMENT_3D ( 'NONE', #58, #154, #106 ) ;
#32 = FACE_OUTER_BOUND ( 'NONE', #136, .T. ) ;
#33 = FACE_OUTER_BOUND ( 'NONE', #45, .T. ) ;
#34 = EDGE_LOOP ( 'NONE', ( #142 ) ) ;
#35 = CALENDAR_DATE ( 2021, 1, 12 ) ;
#36 =( LENGTH_UNIT ( ) NAMED_UNIT ( * ) SI_UNIT ( .MILLI., .METRE. ) );
#37 = CIRCLE ( 'NONE', #46, 0.6650000000000000355 ) ;
#38 = DIRECTION ( 'NONE',  ( 3.491481338843133355E-15, -1.224646799147353207E-16, 1.000000000000000000 ) ) ;
#39 = CARTESIAN_POINT ( 'NONE',  ( 0.0000000000000000000, 0.0000000000000000000, 0.0000000000000000000 ) ) ;
#40 = COORDINATED_UNIVERSAL_TIME_OFFSET ( 1, 0, .AHEAD. ) ;
#41 = EDGE_LOOP ( 'NONE', ( #121 ) ) ;
#42 = VERTEX_POINT ( 'NONE', #281 ) ;
#43 = CARTESIAN_POINT ( 'NONE',  ( 8.728703347107829444E-16, -3.061616997868381785E-17, 0.2499999999999998890 ) ) ;
#44 = PERSON_AND_ORGANIZATION ( #116, #177 ) ;
#45 = EDGE_LOOP ( 'NONE', ( #285 ) ) ;
#46 = AXIS2_PLACEMENT_3D ( 'NONE', #247, #278, #189 ) ;
#47 = DIRECTION ( 'NONE',  ( 2.896135254717651139E-31, 1.000000000000000000, 1.630379206745121274E-16 ) ) ;
#48 = CC_DESIGN_PERSON_AND_ORGANIZATION_ASSIGNMENT ( #250, #174, ( #252 ) ) ;
#49 = FACE_OUTER_BOUND ( 'NONE', #138, .T. ) ;
#50 = EDGE_CURVE ( 'NONE', #271, #271, #16, .T. ) ;
#51 = CARTESIAN_POINT ( 'NONE',  ( 6.411826227315531218E-14, -2.248965898403675555E-15, 18.36420019200224019 ) ) ;
#52 = DIRECTION ( 'NONE',  ( -3.491481338843133355E-15, 1.224646799147353207E-16, -1.000000000000000000 ) ) ;
#53 = FACE_OUTER_BOUND ( 'NONE', #279, .T. ) ;
#54 = ORIENTED_EDGE ( 'NONE', *, *, #85, .T. ) ;
#55 = VERTEX_POINT ( 'NONE', #150 ) ;
#56 = AXIS2_PLACEMENT_3D ( 'NONE', #89, #19, #259 ) ;
#57 = VERTEX_POINT ( 'NONE', #127 ) ;
#58 = CARTESIAN_POINT ( 'NONE',  ( 2.094888803305880013E-14, -7.347880794884119736E-16, 6.000000000000000000 ) ) ;
#59 = ADVANCED_FACE ( 'NONE', ( #88, #25 ), #238, .T. ) ;
#60 = EDGE_CURVE ( 'NONE', #11, #11, #287, .T. ) ;
#61 = CALENDAR_DATE ( 2021, 1, 12 ) ;
#62 = PRODUCT_DEFINITION_FORMATION_WITH_SPECIFIED_SOURCE ( 'ANY', '', #118, .NOT_KNOWN. ) ;
#63 = DIRECTION ( 'NONE',  ( -3.491481338843133355E-15, 1.224646799147353207E-16, -1.000000000000000000 ) ) ;
#64 = CC_DESIGN_DATE_AND_TIME_ASSIGNMENT ( #212, #242, ( #29 ) ) ;
#65 = PERSON_AND_ORGANIZATION_ROLE ( 'design_owner' ) ;
#66 = AXIS2_PLACEMENT_3D ( 'NONE', #276, #253, #147 ) ;
#67 = PLANE ( 'NONE',  #235 ) ;
#68 = ADVANCED_BREP_SHAPE_REPRESENTATION ( '327022', ( #267, #264, #246 ), #243 ) ;
#69 = ORIENTED_EDGE ( 'NONE', *, *, #152, .F. ) ;
#70 = AXIS2_PLACEMENT_3D ( 'NONE', #205, #21, #284 ) ;
#71 = DATE_AND_TIME ( #93, #97 ) ;
#72 = UNCERTAINTY_MEASURE_WITH_UNIT (LENGTH_MEASURE( 1.000000000000000082E-05 ), #36, 'distance_accuracy_value', 'NONE');
#73 = AXIS2_PLACEMENT_3D ( 'NONE', #51, #82, #168 ) ;
#74 = COORDINATED_UNIVERSAL_TIME_OFFSET ( 1, 0, .AHEAD. ) ;
#75 = DIRECTION ( 'NONE',  ( 0.0000000000000000000, 1.000000000000000000, 0.0000000000000000000 ) ) ;
#76 = FACE_OUTER_BOUND ( 'NONE', #179, .T. ) ;
#77 = VERTEX_POINT ( 'NONE', #122 ) ;
#78 = CARTESIAN_POINT ( 'NONE',  ( 1.326762908760390423E-13, -4.653657836759941941E-15, 38.00000000000000000 ) ) ;
#79 = CARTESIAN_POINT ( 'NONE',  ( 0.0000000000000000000, 0.0000000000000000000, 0.0000000000000000000 ) ) ;
#80 = CYLINDRICAL_SURFACE ( 'NONE', #268, 0.5849999999999996314 ) ;
#81 = DIRECTION ( 'NONE',  ( -3.491481338843133355E-15, 1.224646799147353207E-16, -1.000000000000000000 ) ) ;
#82 = DIRECTION ( 'NONE',  ( 3.491481338843133355E-15, -1.224646799147353207E-16, 1.000000000000000000 ) ) ;
#83 = CARTESIAN_POINT ( 'NONE',  ( 8.728703347107831416E-16, 0.6649999999999992584, 0.2500000000000000000 ) ) ;
#84 = AXIS2_PLACEMENT_3D ( 'NONE', #23, #8, #115 ) ;
#85 = EDGE_CURVE ( 'NONE', #153, #153, #96, .T. ) ;
#86 = DIRECTION ( 'NONE',  ( 0.0000000000000000000, 0.0000000000000000000, 1.000000000000000000 ) ) ;
#87 = ORIENTED_EDGE ( 'NONE', *, *, #206, .T. ) ;
#88 = FACE_OUTER_BOUND ( 'NONE', #107, .T. ) ;
#89 = CARTESIAN_POINT ( 'NONE',  ( 2.094888803305880013E-14, 4.986701277350665735E-33, 6.000000000000000000 ) ) ;
#90 = CC_DESIGN_APPROVAL ( #181, ( #62 ) ) ;
#91 = CONICAL_SURFACE ( 'NONE', #197, 0.5849999999999991873, 0.5235987755982930425 ) ;
#92 = PERSON_AND_ORGANIZATION_ROLE ( 'design_supplier' ) ;
#93 = CALENDAR_DATE ( 2021, 1, 12 ) ;
#94 = ADVANCED_FACE ( 'NONE', ( #49, #32 ), #202, .T. ) ;
#95 = CLOSED_SHELL ( 'NONE', ( #6, #180, #4, #104, #299, #94, #59, #30 ) ) ;
#96 = CIRCLE ( 'NONE', #188, 1.500000000000003331 ) ;
#97 = LOCAL_TIME ( 11, 40, 21.00000000000000000, #5 ) ;
#98 = DIRECTION ( 'NONE',  ( 4.275831445896958607E-31, 1.000000000000000000, 1.224646799147353207E-16 ) ) ;
#99 = DATE_TIME_ROLE ( 'creation_date' ) ;
#100 =( NAMED_UNIT ( * ) PLANE_ANGLE_UNIT ( ) SI_UNIT ( $, .RADIAN. ) );
#101 = SHAPE_DEFINITION_REPRESENTATION ( #178, #68 ) ;
#102 = DIRECTION ( 'NONE',  ( -3.491481338843133355E-15, 1.224646799147353207E-16, -1.000000000000000000 ) ) ;
#103 = ADVANCED_FACE ( 'NONE', ( #176, #295 ), #216, .T. ) ;
#104 = ADVANCED_FACE ( 'NONE', ( #33, #148 ), #255, .F. ) ;
#105 = LOCAL_TIME ( 11, 40, 21.00000000000000000, #40 ) ;
#106 = DIRECTION ( 'NONE',  ( 0.0000000000000000000, 1.000000000000000000, 0.0000000000000000000 ) ) ;
#107 = EDGE_LOOP ( 'NONE', ( #226 ) ) ;
#108 = COORDINATED_UNIVERSAL_TIME_OFFSET ( 1, 0, .AHEAD. ) ;
#109 = DATE_AND_TIME ( #61, #105 ) ;
#110 = PLANE ( 'NONE',  #70 ) ;
#111 = SECURITY_CLASSIFICATION_LEVEL ( 'unclassified' ) ;
#112 = EDGE_LOOP ( 'NONE', ( #265 ) ) ;
#113 = CARTESIAN_POINT ( 'NONE',  ( 1.326762908760390423E-13, 8.998558695971103225E-33, 38.00000000000000000 ) ) ;
#114 = CIRCLE ( 'NONE', #158, 0.5849999999999991873 ) ;
#115 = DIRECTION ( 'NONE',  ( 0.0000000000000000000, 1.000000000000000000, 0.0000000000000000000 ) ) ;
#116 = PERSON ( 'UNSPECIFIED', 'UNSPECIFIED', 'UNSPECIFIED', ('UNSPECIFIED'), ('UNSPECIFIED'), ('UNSPECIFIED') ) ;
#117 = PERSON_AND_ORGANIZATION ( #116, #177 ) ;
#118 = PRODUCT ( '327022', '327022', '', ( #228 ) ) ;
#119 = ORIENTED_EDGE ( 'NONE', *, *, #152, .T. ) ;
#120 = PLANE ( 'NONE',  #166 ) ;
#121 = ORIENTED_EDGE ( 'NONE', *, *, #251, .T. ) ;
#122 = CARTESIAN_POINT ( 'NONE',  ( 2.094888803305880013E-14, 0.6649999999999992584, 6.000000000000000000 ) ) ;
#123 = DIRECTION ( 'NONE',  ( -3.491481338843133355E-15, 1.224646799147353207E-16, -1.000000000000000000 ) ) ;
#124 = DIRECTION ( 'NONE',  ( 0.0000000000000000000, 1.000000000000000000, 0.0000000000000000000 ) ) ;
#125 = CIRCLE ( 'NONE', #31, 0.6650000000000000355 ) ;
#126 = ORIENTED_EDGE ( 'NONE', *, *, #60, .T. ) ;
#127 = CARTESIAN_POINT ( 'NONE',  ( 2.094888803305880013E-14, 0.6649999999999992584, 6.000000000000000000 ) ) ;
#128 = CARTESIAN_POINT ( 'NONE',  ( 4.538925740496073362E-14, -1.734723475976807094E-15, 13.00000000000000000 ) ) ;
#129 = ORIENTED_EDGE ( 'NONE', *, *, #199, .F. ) ;
#130 = CARTESIAN_POINT ( 'NONE',  ( 1.326762908760390423E-13, -4.653657836759941941E-15, 38.00000000000000000 ) ) ;
#131 = PLANE ( 'NONE',  #56 ) ;
#132 = CC_DESIGN_PERSON_AND_ORGANIZATION_ASSIGNMENT ( #3, #221, ( #29 ) ) ;
#133 = EDGE_LOOP ( 'NONE', ( #220 ) ) ;
#134 = DIRECTION ( 'NONE',  ( 4.275831445896958607E-31, 1.000000000000000000, 1.224646799147353207E-16 ) ) ;
#135 = PERSON_AND_ORGANIZATION ( #116, #177 ) ;
#136 = EDGE_LOOP ( 'NONE', ( #54 ) ) ;
#137 = ORIENTED_EDGE ( 'NONE', *, *, #145, .T. ) ;
#138 = EDGE_LOOP ( 'NONE', ( #282 ) ) ;
#139 = AXIS2_PLACEMENT_3D ( 'NONE', #79, #218, #98 ) ;
#140 = ADVANCED_FACE ( 'NONE', ( #53 ), #120, .T. ) ;
#141 = CC_DESIGN_PERSON_AND_ORGANIZATION_ASSIGNMENT ( #236, #210, ( #62 ) ) ;
#142 = ORIENTED_EDGE ( 'NONE', *, *, #50, .F. ) ;
#143 = VERTEX_POINT ( 'NONE', #187 ) ;
#144 = DIRECTION ( 'NONE',  ( 0.0000000000000000000, 1.000000000000000000, 0.0000000000000000000 ) ) ;
#145 = EDGE_CURVE ( 'NONE', #57, #57, #37, .T. ) ;
#146 = AXIS2_PLACEMENT_3D ( 'NONE', #43, #63, #47 ) ;
#147 = DIRECTION ( 'NONE',  ( -2.896135254717651139E-31, -1.000000000000000000, -1.630379206745121274E-16 ) ) ;
#148 = FACE_OUTER_BOUND ( 'NONE', #41, .T. ) ;
#149 = EDGE_LOOP ( 'NONE', ( #272 ) ) ;
#150 = CARTESIAN_POINT ( 'NONE',  ( 6.411826227315531218E-14, 1.499999999999995559, 18.36420019200224019 ) ) ;
#151 = CC_DESIGN_SECURITY_CLASSIFICATION ( #29, ( #62 ) ) ;
#152 = EDGE_CURVE ( 'NONE', #143, #143, #114, .T. ) ;
#153 = VERTEX_POINT ( 'NONE', #275 ) ;
#154 = DIRECTION ( 'NONE',  ( -3.491481338843133355E-15, 1.224646799147353207E-16, -1.000000000000000000 ) ) ;
#155 = DIRECTION ( 'NONE',  ( 4.275831445896958607E-31, 1.000000000000000000, 1.224646799147353207E-16 ) ) ;
#156 = DIRECTION ( 'NONE',  ( -3.491481338843133355E-15, 1.224646799147353207E-16, -1.000000000000000000 ) ) ;
#157 = LOCAL_TIME ( 11, 40, 21.00000000000000000, #108 ) ;
#158 = AXIS2_PLACEMENT_3D ( 'NONE', #223, #102, #124 ) ;
#159 = AXIS2_PLACEMENT_3D ( 'NONE', #14, #52, #292 ) ;
#160 = DIRECTION ( 'NONE',  ( 4.275831445896959482E-31, 1.000000000000000000, 1.224646799147353454E-16 ) ) ;
#161 = APPROVAL ( #230, 'UNSPECIFIED' ) ;
#162 = ORIENTED_EDGE ( 'NONE', *, *, #206, .F. ) ;
#163 = CALENDAR_DATE ( 2021, 1, 12 ) ;
#164 = CIRCLE ( 'NONE', #146, 0.6649999999999992584 ) ;
#165 = VERTEX_POINT ( 'NONE', #83 ) ;
#166 = AXIS2_PLACEMENT_3D ( 'NONE', #249, #38, #219 ) ;
#167 = DATE_AND_TIME ( #203, #157 ) ;
#168 = DIRECTION ( 'NONE',  ( 0.0000000000000000000, -1.000000000000000000, 0.0000000000000000000 ) ) ;
#169 = DIRECTION ( 'NONE',  ( 4.275831445896958607E-31, 1.000000000000000000, 1.224646799147353207E-16 ) ) ;
#170 = DIRECTION ( 'NONE',  ( -3.491481338843133355E-15, 1.224646799147353207E-16, -1.000000000000000000 ) ) ;
#171 = DIRECTION ( 'NONE',  ( -3.491481338843133355E-15, 1.224646799147353207E-16, -1.000000000000000000 ) ) ;
#172 = DIRECTION ( 'NONE',  ( 0.0000000000000000000, 1.000000000000000000, 0.0000000000000000000 ) ) ;
#173 = APPLICATION_PROTOCOL_DEFINITION ( 'international standard', 'config_control_design', 1994, #2 ) ;
#174 = PERSON_AND_ORGANIZATION_ROLE ( 'creator' ) ;
#175 = APPLICATION_PROTOCOL_DEFINITION ( 'international standard', 'config_control_design', 1994, #289 ) ;
#176 = FACE_BOUND ( 'NONE', #200, .T. ) ;
#177 = ORGANIZATION ( 'UNSPECIFIED', 'UNSPECIFIED', '' ) ;
#178 = PRODUCT_DEFINITION_SHAPE ( 'NONE', 'NONE',  #252 ) ;
#179 = EDGE_LOOP ( 'NONE', ( #198 ) ) ;
#180 = ADVANCED_FACE ( 'NONE', ( #225, #195 ), #91, .T. ) ;
#181 = APPROVAL ( #18, 'UNSPECIFIED' ) ;
#182 = CC_DESIGN_PERSON_AND_ORGANIZATION_ASSIGNMENT ( #135, #92, ( #62 ) ) ;
#183 = CIRCLE ( 'NONE', #256, 0.6153844939755811483 ) ;
#184 = DIRECTION ( 'NONE',  ( 0.0000000000000000000, 1.000000000000000000, 0.0000000000000000000 ) ) ;
#185 = CC_DESIGN_DATE_AND_TIME_ASSIGNMENT ( #254, #99, ( #252 ) ) ;
#186 = LOCAL_TIME ( 11, 40, 21.00000000000000000, #280 ) ;
#187 = CARTESIAN_POINT ( 'NONE',  ( 2.143268187886320398E-14, 0.5849999999999984102, 6.138564064605513515 ) ) ;
#188 = AXIS2_PLACEMENT_3D ( 'NONE', #266, #211, #75 ) ;
#189 = DIRECTION ( 'NONE',  ( 0.0000000000000000000, 1.000000000000000000, 0.0000000000000000000 ) ) ;
#190 = DIRECTION ( 'NONE',  ( -3.491481338843133355E-15, 1.224646799147353207E-16, -1.000000000000000000 ) ) ;
#191 = EDGE_LOOP ( 'NONE', ( #13 ) ) ;
#192 =( NAMED_UNIT ( * ) SI_UNIT ( $, .STERADIAN. ) SOLID_ANGLE_UNIT ( ) );
#193 = CARTESIAN_POINT ( 'NONE',  ( 6.411826227315531218E-14, -2.248965898403675555E-15, 18.36420019200224019 ) ) ;
#194 = ORIENTED_EDGE ( 'NONE', *, *, #199, .T. ) ;
#195 = FACE_BOUND ( 'NONE', #245, .T. ) ;
#196 = CARTESIAN_POINT ( 'NONE',  ( -3.172632715638545300E-31, 1.112809756950982877E-32, -9.086781247668833178E-17 ) ) ;
#197 = AXIS2_PLACEMENT_3D ( 'NONE', #300, #170, #172 ) ;
#198 = ORIENTED_EDGE ( 'NONE', *, *, #214, .F. ) ;
#199 = EDGE_CURVE ( 'NONE', #77, #77, #125, .T. ) ;
#200 = EDGE_LOOP ( 'NONE', ( #162 ) ) ;
#201 = DIRECTION ( 'NONE',  ( 0.0000000000000000000, 1.000000000000000000, 0.0000000000000000000 ) ) ;
#202 = CYLINDRICAL_SURFACE ( 'NONE', #139, 1.500000000000000444 ) ;
#203 = CALENDAR_DATE ( 2021, 1, 12 ) ;
#204 = CC_DESIGN_APPROVAL ( #269, ( #29 ) ) ;
#205 = CARTESIAN_POINT ( 'NONE',  ( -1.586316357819272650E-31, 5.564048784754914387E-33, -4.543390623834416589E-17 ) ) ;
#206 = EDGE_CURVE ( 'NONE', #9, #9, #283, .T. ) ;
#207 = APPROVAL_ROLE ( '' ) ;
#208 = PRODUCT_RELATED_PRODUCT_CATEGORY ( 'detail', '', ( #118 ) ) ;
#209 = EDGE_LOOP ( 'NONE', ( #87 ) ) ;
#210 = PERSON_AND_ORGANIZATION_ROLE ( 'creator' ) ;
#211 = DIRECTION ( 'NONE',  ( -3.491481338843133355E-15, 1.224646799147353207E-16, -1.000000000000000000 ) ) ;
#212 = DATE_AND_TIME ( #163, #302 ) ;
#213 = APPROVAL_PERSON_ORGANIZATION ( #117, #269, #10 ) ;
#214 = EDGE_CURVE ( 'NONE', #165, #165, #164, .T. ) ;
#215 = APPROVAL_STATUS ( 'not_yet_approved' ) ;
#216 = CONICAL_SURFACE ( 'NONE', #66, 0.6649999999999992584, 0.5235987755982923764 ) ;
#217 = CARTESIAN_POINT ( 'NONE',  ( 1.326762908760390423E-13, 1.199999999999998845, 38.00000000000000000 ) ) ;
#218 = DIRECTION ( 'NONE',  ( -3.491481338843133355E-15, 1.224646799147353207E-16, -1.000000000000000000 ) ) ;
#219 = DIRECTION ( 'NONE',  ( -4.275831445896958607E-31, -1.000000000000000000, -1.224646799147353207E-16 ) ) ;
#220 = ORIENTED_EDGE ( 'NONE', *, *, #274, .T. ) ;
#221 = PERSON_AND_ORGANIZATION_ROLE ( 'classification_officer' ) ;
#222 = DESIGN_CONTEXT ( 'detailed design', #2, 'design' ) ;
#223 = CARTESIAN_POINT ( 'NONE',  ( 2.143268187886320398E-14, -7.517572833080108077E-16, 6.138564064605513515 ) ) ;
#224 = DIRECTION ( 'NONE',  ( 1.000000000000000000, 0.0000000000000000000, 0.0000000000000000000 ) ) ;
#225 = FACE_OUTER_BOUND ( 'NONE', #112, .T. ) ;
#226 = ORIENTED_EDGE ( 'NONE', *, *, #85, .F. ) ;
#227 = DIRECTION ( 'NONE',  ( -3.491481338843133355E-15, 1.224646799147353207E-16, -1.000000000000000000 ) ) ;
#228 = MECHANICAL_CONTEXT ( 'NONE', #289, 'mechanical' ) ;
#229 = APPROVAL_DATE_TIME ( #109, #269 ) ;
#230 = APPROVAL_STATUS ( 'not_yet_approved' ) ;
#231 = EDGE_LOOP ( 'NONE', ( #301 ) ) ;
#232 = FACE_OUTER_BOUND ( 'NONE', #286, .T. ) ;
#233 = APPROVAL_PERSON_ORGANIZATION ( #44, #161, #17 ) ;
#234 = AXIS2_PLACEMENT_3D ( 'NONE', #78, #262, #184 ) ;
#235 = AXIS2_PLACEMENT_3D ( 'NONE', #113, #171, #155 ) ;
#236 = PERSON_AND_ORGANIZATION ( #116, #177 ) ;
#237 = APPROVAL_PERSON_ORGANIZATION ( #257, #181, #207 ) ;
#238 = CONICAL_SURFACE ( 'NONE', #234, 1.200000000000003286, 0.7853981633974453924 ) ;
#239 = CARTESIAN_POINT ( 'NONE',  ( 4.660183614865709118E-14, -1.634572375883072808E-15, 13.34729635533384595 ) ) ;
#240 = CC_DESIGN_PERSON_AND_ORGANIZATION_ASSIGNMENT ( #303, #65, ( #118 ) ) ;
#241 = FACE_OUTER_BOUND ( 'NONE', #15, .T. ) ;
#242 = DATE_TIME_ROLE ( 'classification_date' ) ;
#243 =( GEOMETRIC_REPRESENTATION_CONTEXT ( 3 ) GLOBAL_UNCERTAINTY_ASSIGNED_CONTEXT ( ( #72 ) ) GLOBAL_UNIT_ASSIGNED_CONTEXT ( ( #36, #100, #192 ) ) REPRESENTATION_CONTEXT ( 'NONE', 'WORKASPACE' ) );
#244 = CARTESIAN_POINT ( 'NONE',  ( 4.538925740496073362E-14, 0.5849999999999982991, 13.00000000000000000 ) ) ;
#245 = EDGE_LOOP ( 'NONE', ( #119 ) ) ;
#246 = AXIS2_PLACEMENT_3D ( 'NONE', #39, #86, #224 ) ;
#247 = CARTESIAN_POINT ( 'NONE',  ( 2.094888803305880013E-14, -7.347880794884119736E-16, 6.000000000000000000 ) ) ;
#248 = DIRECTION ( 'NONE',  ( 0.0000000000000000000, 1.000000000000000000, 0.0000000000000000000 ) ) ;
#249 = CARTESIAN_POINT ( 'NONE',  ( 2.094888803305880013E-14, 4.986701277350665735E-33, 6.000000000000000000 ) ) ;
#250 = PERSON_AND_ORGANIZATION ( #116, #177 ) ;
#251 = EDGE_CURVE ( 'NONE', #42, #42, #183, .T. ) ;
#252 = PRODUCT_DEFINITION ( 'UNKNOWN', '', #62, #222 ) ;
#253 = DIRECTION ( 'NONE',  ( 3.491481338843133355E-15, -1.224646799147353207E-16, 1.000000000000000000 ) ) ;
#254 = DATE_AND_TIME ( #35, #186 ) ;
#255 = TOROIDAL_SURFACE ( 'NONE', #7, 2.584999999999999964, 2.000000000000000000 ) ;
#256 = AXIS2_PLACEMENT_3D ( 'NONE', #239, #28, #144 ) ;
#257 = PERSON_AND_ORGANIZATION ( #116, #177 ) ;
#258 = FACE_OUTER_BOUND ( 'NONE', #34, .T. ) ;
#259 = DIRECTION ( 'NONE',  ( -4.275831445896958607E-31, -1.000000000000000000, -1.224646799147353207E-16 ) ) ;
#260 = CLOSED_SHELL ( 'NONE', ( #20, #103, #263, #140 ) ) ;
#261 = EDGE_LOOP ( 'NONE', ( #126 ) ) ;
#262 = DIRECTION ( 'NONE',  ( -3.491481338843133355E-15, 1.224646799147353207E-16, -1.000000000000000000 ) ) ;
#263 = ADVANCED_FACE ( 'NONE', ( #76, #241 ), #290, .T. ) ;
#264 = MANIFOLD_SOLID_BREP ( 'Corps-Déplacer/Copier1[2]', #260 ) ;
#265 = ORIENTED_EDGE ( 'NONE', *, *, #145, .F. ) ;
#266 = CARTESIAN_POINT ( 'NONE',  ( 1.316288464743861212E-13, -4.616918432785521081E-15, 37.69999999999999574 ) ) ;
#267 = MANIFOLD_SOLID_BREP ( 'Corps-Déplacer/Copier1[1]', #95 ) ;
#268 = AXIS2_PLACEMENT_3D ( 'NONE', #270, #123, #134 ) ;
#269 = APPROVAL ( #215, 'UNSPECIFIED' ) ;
#270 = CARTESIAN_POINT ( 'NONE',  ( 0.0000000000000000000, 0.0000000000000000000, 0.0000000000000000000 ) ) ;
#271 = VERTEX_POINT ( 'NONE', #217 ) ;
#272 = ORIENTED_EDGE ( 'NONE', *, *, #251, .F. ) ;
#273 = APPROVAL_DATE_TIME ( #167, #161 ) ;
#274 = EDGE_CURVE ( 'NONE', #55, #55, #297, .T. ) ;
#275 = CARTESIAN_POINT ( 'NONE',  ( 1.316288464743861212E-13, 1.499999999999998668, 37.69999999999999574 ) ) ;
#276 = CARTESIAN_POINT ( 'NONE',  ( 8.728703347107829444E-16, -3.061616997868381785E-17, 0.2499999999999998890 ) ) ;
#277 = FACE_OUTER_BOUND ( 'NONE', #209, .T. ) ;
#278 = DIRECTION ( 'NONE',  ( -3.491481338843133355E-15, 1.224646799147353207E-16, -1.000000000000000000 ) ) ;
#279 = EDGE_LOOP ( 'NONE', ( #129 ) ) ;
#280 = COORDINATED_UNIVERSAL_TIME_OFFSET ( 1, 0, .AHEAD. ) ;
#281 = CARTESIAN_POINT ( 'NONE',  ( 4.660183614865709118E-14, 0.6153844939755794829, 13.34729635533384595 ) ) ;
#282 = ORIENTED_EDGE ( 'NONE', *, *, #274, .F. ) ;
#283 = CIRCLE ( 'NONE', #1, 0.5206624327025949350 ) ;
#284 = DIRECTION ( 'NONE',  ( -4.275831445896958607E-31, -1.000000000000000000, -1.224646799147353207E-16 ) ) ;
#285 = ORIENTED_EDGE ( 'NONE', *, *, #60, .F. ) ;
#286 = EDGE_LOOP ( 'NONE', ( #137 ) ) ;
#287 = CIRCLE ( 'NONE', #84, 0.5849999999999998535 ) ;
#288 = EDGE_LOOP ( 'NONE', ( #69 ) ) ;
#289 = APPLICATION_CONTEXT ( 'configuration controlled 3d designs of mechanical parts and assemblies' ) ;
#290 = CYLINDRICAL_SURFACE ( 'NONE', #159, 0.6649999999999995914 ) ;
#291 = CARTESIAN_POINT ( 'NONE',  ( -9.463679131915806782E-32, 0.5206624327025949350, -2.710505431213761085E-17 ) ) ;
#292 = DIRECTION ( 'NONE',  ( 4.275831445896958607E-31, 1.000000000000000000, 1.224646799147353207E-16 ) ) ;
#293 = FACE_BOUND ( 'NONE', #149, .T. ) ;
#294 = CONICAL_SURFACE ( 'NONE', #73, 1.499999999999997558, 0.1745329251994260922 ) ;
#295 = FACE_OUTER_BOUND ( 'NONE', #231, .T. ) ;
#296 = FACE_OUTER_BOUND ( 'NONE', #261, .T. ) ;
#297 = CIRCLE ( 'NONE', #27, 1.499999999999997558 ) ;
#298 = FACE_OUTER_BOUND ( 'NONE', #133, .T. ) ;
#299 = ADVANCED_FACE ( 'NONE', ( #293, #298 ), #294, .T. ) ;
#300 = CARTESIAN_POINT ( 'NONE',  ( 2.143268187886320398E-14, -7.517572833080108077E-16, 6.138564064605513515 ) ) ;
#301 = ORIENTED_EDGE ( 'NONE', *, *, #214, .T. ) ;
#302 = LOCAL_TIME ( 11, 40, 21.00000000000000000, #74 ) ;
#303 = PERSON_AND_ORGANIZATION ( #116, #177 ) ;
ENDSEC;
END-ISO-10303-21;
