ISO-10303-21;
HEADER;
FILE_DESCRIPTION (( 'STEP AP203' ),
    '1' );
FILE_NAME ('327021.step',
    '2021-12-01T10:40:21',
    ( '' ),
    ( '' ),
    'SwSTEP 2.0',
    'SolidWorks 2019',
    '' );
FILE_SCHEMA (( 'CONFIG_CONTROL_DESIGN' ));
ENDSEC;

DATA;
#1 = FACE_OUTER_BOUND ( 'NONE', #149, .T. ) ;
#2 = SECURITY_CLASSIFICATION_LEVEL ( 'unclassified' ) ;
#3 = CONICAL_SURFACE ( 'NONE', #252, 0.6599999999999992539, 0.5235987755982922653 ) ;
#4 = DIRECTION ( 'NONE',  ( -3.491481338843133355E-15, 1.224646799147353207E-16, -1.000000000000000000 ) ) ;
#5 = ORIENTED_EDGE ( 'NONE', *, *, #239, .T. ) ;
#6 = CARTESIAN_POINT ( 'NONE',  ( 4.538925740496073362E-14, -1.592040838891559095E-15, 13.00000000000000000 ) ) ;
#7 = ORIENTED_EDGE ( 'NONE', *, *, #225, .F. ) ;
#8 = CYLINDRICAL_SURFACE ( 'NONE', #103, 1.500000000000000444 ) ;
#9 = PRODUCT_DEFINITION_SHAPE ( 'NONE', 'NONE',  #121 ) ;
#10 = AXIS2_PLACEMENT_3D ( 'NONE', #75, #256, #162 ) ;
#11 = EDGE_CURVE ( 'NONE', #106, #106, #78, .T. ) ;
#12 = CARTESIAN_POINT ( 'NONE',  ( 4.660183614865709118E-14, 0.6153844939755794829, 13.34729635533384595 ) ) ;
#13 = EDGE_LOOP ( 'NONE', ( #67 ) ) ;
#14 = PLANE ( 'NONE',  #96 ) ;
#15 = AXIS2_PLACEMENT_3D ( 'NONE', #155, #40, #134 ) ;
#16 = ADVANCED_FACE ( 'NONE', ( #183, #160 ), #291, .T. ) ;
#17 = CLOSED_SHELL ( 'NONE', ( #60, #297, #133, #36 ) ) ;
#18 = AXIS2_PLACEMENT_3D ( 'NONE', #280, #174, #250 ) ;
#19 = CARTESIAN_POINT ( 'NONE',  ( 1.326762908760390423E-13, 8.998558695971103225E-33, 38.00000000000000000 ) ) ;
#20 = CC_DESIGN_APPROVAL ( #139, ( #259 ) ) ;
#21 = PERSON_AND_ORGANIZATION ( #240, #264 ) ;
#22 = FACE_OUTER_BOUND ( 'NONE', #265, .T. ) ;
#23 = PERSON_AND_ORGANIZATION ( #240, #264 ) ;
#24 = DIRECTION ( 'NONE',  ( 0.0000000000000000000, -1.000000000000000000, 0.0000000000000000000 ) ) ;
#25 = FACE_OUTER_BOUND ( 'NONE', #302, .T. ) ;
#26 = AXIS2_PLACEMENT_3D ( 'NONE', #151, #175, #152 ) ;
#27 = APPROVAL ( #180, 'UNSPECIFIED' ) ;
#28 = CARTESIAN_POINT ( 'NONE',  ( 4.538925740496073362E-14, 0.5849999999999982991, 13.00000000000000000 ) ) ;
#29 = EDGE_LOOP ( 'NONE', ( #144 ) ) ;
#30 = ORIENTED_EDGE ( 'NONE', *, *, #286, .F. ) ;
#31 = CIRCLE ( 'NONE', #230, 0.6153844939755811483 ) ;
#32 = CARTESIAN_POINT ( 'NONE',  ( -9.463679131915806782E-32, 0.5156624327025949306, -2.710505431213761085E-17 ) ) ;
#33 = ADVANCED_FACE ( 'NONE', ( #260, #281 ), #8, .T. ) ;
#34 = FACE_OUTER_BOUND ( 'NONE', #99, .T. ) ;
#35 = CARTESIAN_POINT ( 'NONE',  ( 2.140244476350043209E-14, -7.506967080692859607E-16, 6.129903810567669531 ) ) ;
#36 = ADVANCED_FACE ( 'NONE', ( #189 ), #284, .T. ) ;
#37 = CARTESIAN_POINT ( 'NONE',  ( 2.140244476350043209E-14, -7.506967080692859607E-16, 6.129903810567669531 ) ) ;
#38 = ORIENTED_EDGE ( 'NONE', *, *, #125, .F. ) ;
#39 = APPROVAL_ROLE ( '' ) ;
#40 = DIRECTION ( 'NONE',  ( -3.491481338843133355E-15, 1.224646799147353207E-16, -1.000000000000000000 ) ) ;
#41 = VERTEX_POINT ( 'NONE', #73 ) ;
#42 = COORDINATED_UNIVERSAL_TIME_OFFSET ( 1, 0, .AHEAD. ) ;
#43 = CIRCLE ( 'NONE', #190, 0.6599999999999992539 ) ;
#44 = PERSON_AND_ORGANIZATION ( #240, #264 ) ;
#45 = AXIS2_PLACEMENT_3D ( 'NONE', #6, #51, #72 ) ;
#46 = ADVANCED_FACE ( 'NONE', ( #1, #142 ), #277, .F. ) ;
#47 = CALENDAR_DATE ( 2021, 1, 12 ) ;
#48 = VERTEX_POINT ( 'NONE', #236 ) ;
#49 = EDGE_LOOP ( 'NONE', ( #202 ) ) ;
#50 = PRODUCT ( '327021', '327021', '', ( #197 ) ) ;
#51 = DIRECTION ( 'NONE',  ( -3.491481338843133355E-15, 1.224646799147353207E-16, -1.000000000000000000 ) ) ;
#52 = ADVANCED_BREP_SHAPE_REPRESENTATION ( '327021', ( #212, #216, #66 ), #122 ) ;
#53 = AXIS2_PLACEMENT_3D ( 'NONE', #76, #209, #24 ) ;
#54 = DIRECTION ( 'NONE',  ( 0.0000000000000000000, 1.000000000000000000, 0.0000000000000000000 ) ) ;
#55 = CIRCLE ( 'NONE', #26, 0.6600000000000000311 ) ;
#56 = DIRECTION ( 'NONE',  ( -4.275831445896958607E-31, -1.000000000000000000, -1.224646799147353207E-16 ) ) ;
#57 = DATE_AND_TIME ( #132, #217 ) ;
#58 = CARTESIAN_POINT ( 'NONE',  ( 6.411826227315531218E-14, 1.499999999999995559, 18.36420019200224019 ) ) ;
#59 = PERSON_AND_ORGANIZATION_ROLE ( 'creator' ) ;
#60 = ADVANCED_FACE ( 'NONE', ( #94 ), #164, .F. ) ;
#61 = APPLICATION_CONTEXT ( 'configuration controlled 3d designs of mechanical parts and assemblies' ) ;
#62 = AXIS2_PLACEMENT_3D ( 'NONE', #235, #114, #211 ) ;
#63 = CC_DESIGN_SECURITY_CLASSIFICATION ( #283, ( #259 ) ) ;
#64 = PLANE ( 'NONE',  #188 ) ;
#65 = PRODUCT_RELATED_PRODUCT_CATEGORY ( 'detail', '', ( #50 ) ) ;
#66 = AXIS2_PLACEMENT_3D ( 'NONE', #301, #154, #247 ) ;
#67 = ORIENTED_EDGE ( 'NONE', *, *, #249, .F. ) ;
#68 = SHAPE_DEFINITION_REPRESENTATION ( #9, #52 ) ;
#69 = CC_DESIGN_DATE_AND_TIME_ASSIGNMENT ( #157, #248, ( #121 ) ) ;
#70 = DIRECTION ( 'NONE',  ( 4.275831445896958607E-31, 1.000000000000000000, 1.224646799147353207E-16 ) ) ;
#71 = UNCERTAINTY_MEASURE_WITH_UNIT (LENGTH_MEASURE( 1.000000000000000082E-05 ), #266, 'distance_accuracy_value', 'NONE');
#72 = DIRECTION ( 'NONE',  ( 0.0000000000000000000, 1.000000000000000000, 0.0000000000000000000 ) ) ;
#73 = CARTESIAN_POINT ( 'NONE',  ( 2.094888803305880013E-14, 0.6599999999999992539, 6.000000000000000000 ) ) ;
#74 = AXIS2_PLACEMENT_3D ( 'NONE', #242, #194, #295 ) ;
#75 = CARTESIAN_POINT ( 'NONE',  ( 1.316288464743861212E-13, -4.616918432785521081E-15, 37.69999999999999574 ) ) ;
#76 = CARTESIAN_POINT ( 'NONE',  ( 6.411826227315531218E-14, -2.248965898403675555E-15, 18.36420019200224019 ) ) ;
#77 = FACE_OUTER_BOUND ( 'NONE', #147, .T. ) ;
#78 = CIRCLE ( 'NONE', #10, 1.500000000000003331 ) ;
#79 = APPROVAL_PERSON_ORGANIZATION ( #146, #241, #199 ) ;
#80 = VERTEX_POINT ( 'NONE', #124 ) ;
#81 = DIRECTION ( 'NONE',  ( -3.491481338843133355E-15, 1.224646799147353207E-16, -1.000000000000000000 ) ) ;
#82 = EDGE_CURVE ( 'NONE', #159, #159, #129, .T. ) ;
#83 =( NAMED_UNIT ( * ) SI_UNIT ( $, .STERADIAN. ) SOLID_ANGLE_UNIT ( ) );
#84 = ORIENTED_EDGE ( 'NONE', *, *, #225, .T. ) ;
#85 = CONICAL_SURFACE ( 'NONE', #204, 0.5849999999999991873, 0.5235987755982923764 ) ;
#86 =( NAMED_UNIT ( * ) PLANE_ANGLE_UNIT ( ) SI_UNIT ( $, .RADIAN. ) );
#87 = ORIENTED_EDGE ( 'NONE', *, *, #210, .T. ) ;
#88 = EDGE_LOOP ( 'NONE', ( #185 ) ) ;
#89 = APPROVAL_STATUS ( 'not_yet_approved' ) ;
#90 = FACE_BOUND ( 'NONE', #276, .T. ) ;
#91 = COORDINATED_UNIVERSAL_TIME_OFFSET ( 1, 0, .AHEAD. ) ;
#92 = DIRECTION ( 'NONE',  ( -4.275831445896958607E-31, -1.000000000000000000, -1.224646799147353207E-16 ) ) ;
#93 = AXIS2_PLACEMENT_3D ( 'NONE', #140, #228, #92 ) ;
#94 = FACE_OUTER_BOUND ( 'NONE', #88, .T. ) ;
#95 = DATE_TIME_ROLE ( 'classification_date' ) ;
#96 = AXIS2_PLACEMENT_3D ( 'NONE', #171, #156, #56 ) ;
#97 = APPROVAL_DATE_TIME ( #143, #27 ) ;
#98 = ORIENTED_EDGE ( 'NONE', *, *, #82, .T. ) ;
#99 = EDGE_LOOP ( 'NONE', ( #87 ) ) ;
#100 = ORIENTED_EDGE ( 'NONE', *, *, #125, .T. ) ;
#101 = DIRECTION ( 'NONE',  ( -3.491481338843133355E-15, 1.224646799147353207E-16, -1.000000000000000000 ) ) ;
#102 = ADVANCED_FACE ( 'NONE', ( #22 ), #64, .F. ) ;
#103 = AXIS2_PLACEMENT_3D ( 'NONE', #262, #117, #145 ) ;
#104 = AXIS2_PLACEMENT_3D ( 'NONE', #187, #257, #263 ) ;
#105 = FACE_OUTER_BOUND ( 'NONE', #287, .T. ) ;
#106 = VERTEX_POINT ( 'NONE', #215 ) ;
#107 = PERSON_AND_ORGANIZATION_ROLE ( 'design_owner' ) ;
#108 = CLOSED_SHELL ( 'NONE', ( #289, #267, #229, #46, #158, #33, #16, #102 ) ) ;
#109 = AXIS2_PLACEMENT_3D ( 'NONE', #35, #81, #220 ) ;
#110 = EDGE_LOOP ( 'NONE', ( #5 ) ) ;
#111 = DIRECTION ( 'NONE',  ( 0.0000000000000000000, 1.000000000000000000, 0.0000000000000000000 ) ) ;
#112 = LOCAL_TIME ( 11, 40, 21.00000000000000000, #255 ) ;
#113 = DIRECTION ( 'NONE',  ( 4.275831445896958607E-31, 1.000000000000000000, 1.224646799147353207E-16 ) ) ;
#114 = DIRECTION ( 'NONE',  ( -3.491481338843133355E-15, 1.224646799147353207E-16, -1.000000000000000000 ) ) ;
#115 = APPROVAL_PERSON_ORGANIZATION ( #23, #27, #253 ) ;
#116 = CALENDAR_DATE ( 2021, 1, 12 ) ;
#117 = DIRECTION ( 'NONE',  ( -3.491481338843133355E-15, 1.224646799147353207E-16, -1.000000000000000000 ) ) ;
#118 = EDGE_LOOP ( 'NONE', ( #38 ) ) ;
#119 = ORIENTED_EDGE ( 'NONE', *, *, #11, .F. ) ;
#120 = CARTESIAN_POINT ( 'NONE',  ( 8.728703347107831416E-16, -3.061616997868382402E-17, 0.2499999999999999445 ) ) ;
#121 = PRODUCT_DEFINITION ( 'UNKNOWN', '', #259, #258 ) ;
#122 =( GEOMETRIC_REPRESENTATION_CONTEXT ( 3 ) GLOBAL_UNCERTAINTY_ASSIGNED_CONTEXT ( ( #71 ) ) GLOBAL_UNIT_ASSIGNED_CONTEXT ( ( #266, #86, #83 ) ) REPRESENTATION_CONTEXT ( 'NONE', 'WORKASPACE' ) );
#123 = ORIENTED_EDGE ( 'NONE', *, *, #239, .F. ) ;
#124 = CARTESIAN_POINT ( 'NONE',  ( 2.140244476350043209E-14, 0.5849999999999984102, 6.129903810567669531 ) ) ;
#125 = EDGE_CURVE ( 'NONE', #41, #41, #213, .T. ) ;
#126 = EDGE_LOOP ( 'NONE', ( #173 ) ) ;
#127 = DIRECTION ( 'NONE',  ( 3.491481338843133355E-15, -1.224646799147353207E-16, 1.000000000000000000 ) ) ;
#128 = VERTEX_POINT ( 'NONE', #12 ) ;
#129 = CIRCLE ( 'NONE', #166, 1.499999999999997558 ) ;
#130 = FACE_OUTER_BOUND ( 'NONE', #233, .T. ) ;
#131 = FACE_BOUND ( 'NONE', #282, .T. ) ;
#132 = CALENDAR_DATE ( 2021, 1, 12 ) ;
#133 = ADVANCED_FACE ( 'NONE', ( #223, #272 ), #198, .T. ) ;
#134 = DIRECTION ( 'NONE',  ( 4.275831445896957731E-31, 1.000000000000000000, 1.224646799147353207E-16 ) ) ;
#135 = CALENDAR_DATE ( 2021, 1, 12 ) ;
#136 = LOCAL_TIME ( 11, 40, 21.00000000000000000, #42 ) ;
#137 = DIRECTION ( 'NONE',  ( -3.491481338843133355E-15, 1.224646799147353207E-16, -1.000000000000000000 ) ) ;
#138 = PERSON_AND_ORGANIZATION_ROLE ( 'creator' ) ;
#139 = APPROVAL ( #89, 'UNSPECIFIED' ) ;
#140 = CARTESIAN_POINT ( 'NONE',  ( -1.575626779204530074E-31, 5.526554790188366989E-33, -4.512774453855732210E-17 ) ) ;
#141 = ORIENTED_EDGE ( 'NONE', *, *, #11, .T. ) ;
#142 = FACE_OUTER_BOUND ( 'NONE', #110, .T. ) ;
#143 = DATE_AND_TIME ( #47, #112 ) ;
#144 = ORIENTED_EDGE ( 'NONE', *, *, #249, .T. ) ;
#145 = DIRECTION ( 'NONE',  ( 4.275831445896958607E-31, 1.000000000000000000, 1.224646799147353207E-16 ) ) ;
#146 = PERSON_AND_ORGANIZATION ( #240, #264 ) ;
#147 = EDGE_LOOP ( 'NONE', ( #30 ) ) ;
#148 = AXIS2_PLACEMENT_3D ( 'NONE', #208, #4, #70 ) ;
#149 = EDGE_LOOP ( 'NONE', ( #232 ) ) ;
#150 = CARTESIAN_POINT ( 'NONE',  ( 8.728703347107833388E-16, 0.6599999999999992539, 0.2500000000000000000 ) ) ;
#151 = CARTESIAN_POINT ( 'NONE',  ( 2.094888803305880013E-14, -7.347880794884119736E-16, 6.000000000000000000 ) ) ;
#152 = DIRECTION ( 'NONE',  ( 0.0000000000000000000, 1.000000000000000000, 0.0000000000000000000 ) ) ;
#153 = CARTESIAN_POINT ( 'NONE',  ( 8.728703347107831416E-16, -3.061616997868382402E-17, 0.2499999999999999445 ) ) ;
#154 = DIRECTION ( 'NONE',  ( 0.0000000000000000000, 0.0000000000000000000, 1.000000000000000000 ) ) ;
#155 = CARTESIAN_POINT ( 'NONE',  ( 0.0000000000000000000, 0.0000000000000000000, 0.0000000000000000000 ) ) ;
#156 = DIRECTION ( 'NONE',  ( 3.491481338843133355E-15, -1.224646799147353207E-16, 1.000000000000000000 ) ) ;
#157 = DATE_AND_TIME ( #135, #136 ) ;
#158 = ADVANCED_FACE ( 'NONE', ( #90, #25 ), #182, .T. ) ;
#159 = VERTEX_POINT ( 'NONE', #58 ) ;
#160 = FACE_BOUND ( 'NONE', #126, .T. ) ;
#161 = APPROVAL_DATE_TIME ( #176, #139 ) ;
#162 = DIRECTION ( 'NONE',  ( 0.0000000000000000000, 1.000000000000000000, 0.0000000000000000000 ) ) ;
#163 = CALENDAR_DATE ( 2021, 1, 12 ) ;
#164 = PLANE ( 'NONE',  #93 ) ;
#165 = CC_DESIGN_PERSON_AND_ORGANIZATION_ASSIGNMENT ( #21, #184, ( #283 ) ) ;
#166 = AXIS2_PLACEMENT_3D ( 'NONE', #251, #137, #111 ) ;
#167 = APPROVAL_PERSON_ORGANIZATION ( #285, #139, #39 ) ;
#168 = CARTESIAN_POINT ( 'NONE',  ( 4.660183614865709118E-14, -1.634572375883072808E-15, 13.34729635533384595 ) ) ;
#169 = EDGE_CURVE ( 'NONE', #48, #48, #292, .T. ) ;
#170 = AXIS2_PLACEMENT_3D ( 'NONE', #214, #101, #271 ) ;
#171 = CARTESIAN_POINT ( 'NONE',  ( 2.094888803305880013E-14, 4.949207282784119706E-33, 6.000000000000000000 ) ) ;
#172 = PERSON_AND_ORGANIZATION ( #240, #264 ) ;
#173 = ORIENTED_EDGE ( 'NONE', *, *, #169, .T. ) ;
#174 = DIRECTION ( 'NONE',  ( -3.491481338843133355E-15, 1.224646799147353207E-16, -1.000000000000000000 ) ) ;
#175 = DIRECTION ( 'NONE',  ( -3.491481338843133355E-15, 1.224646799147353207E-16, -1.000000000000000000 ) ) ;
#176 = DATE_AND_TIME ( #116, #195 ) ;
#177 = EDGE_LOOP ( 'NONE', ( #7 ) ) ;
#178 = DIRECTION ( 'NONE',  ( 2.918075673313996955E-31, 1.000000000000000000, 8.213652821859891190E-17 ) ) ;
#179 = CC_DESIGN_PERSON_AND_ORGANIZATION_ASSIGNMENT ( #246, #59, ( #121 ) ) ;
#180 = APPROVAL_STATUS ( 'not_yet_approved' ) ;
#181 = APPLICATION_PROTOCOL_DEFINITION ( 'international standard', 'config_control_design', 1994, #61 ) ;
#182 = CONICAL_SURFACE ( 'NONE', #53, 1.499999999999997558, 0.1745329251994260922 ) ;
#183 = FACE_OUTER_BOUND ( 'NONE', #222, .T. ) ;
#184 = PERSON_AND_ORGANIZATION_ROLE ( 'classification_officer' ) ;
#185 = ORIENTED_EDGE ( 'NONE', *, *, #279, .T. ) ;
#186 = CC_DESIGN_PERSON_AND_ORGANIZATION_ASSIGNMENT ( #207, #226, ( #259 ) ) ;
#187 = CARTESIAN_POINT ( 'NONE',  ( 1.326762908760390423E-13, -4.653657836759941941E-15, 38.00000000000000000 ) ) ;
#188 = AXIS2_PLACEMENT_3D ( 'NONE', #19, #203, #113 ) ;
#189 = FACE_OUTER_BOUND ( 'NONE', #13, .T. ) ;
#190 = AXIS2_PLACEMENT_3D ( 'NONE', #120, #200, #178 ) ;
#191 = CC_DESIGN_APPROVAL ( #27, ( #283 ) ) ;
#192 = DIRECTION ( 'NONE',  ( -3.491481338843133355E-15, 1.224646799147353207E-16, -1.000000000000000000 ) ) ;
#193 = CC_DESIGN_DATE_AND_TIME_ASSIGNMENT ( #296, #95, ( #283 ) ) ;
#194 = DIRECTION ( 'NONE',  ( -3.491481338843133355E-15, 1.224646799147353207E-16, -1.000000000000000000 ) ) ;
#195 = LOCAL_TIME ( 11, 40, 21.00000000000000000, #221 ) ;
#196 = FACE_BOUND ( 'NONE', #49, .T. ) ;
#197 = MECHANICAL_CONTEXT ( 'NONE', #61, 'mechanical' ) ;
#198 = CYLINDRICAL_SURFACE ( 'NONE', #15, 0.6599999999999995870 ) ;
#199 = APPROVAL_ROLE ( '' ) ;
#200 = DIRECTION ( 'NONE',  ( -3.491481338843133355E-15, 1.224646799147353207E-16, -1.000000000000000000 ) ) ;
#201 = EDGE_LOOP ( 'NONE', ( #275 ) ) ;
#202 = ORIENTED_EDGE ( 'NONE', *, *, #286, .T. ) ;
#203 = DIRECTION ( 'NONE',  ( -3.491481338843133355E-15, 1.224646799147353207E-16, -1.000000000000000000 ) ) ;
#204 = AXIS2_PLACEMENT_3D ( 'NONE', #37, #219, #273 ) ;
#205 = DIRECTION ( 'NONE',  ( 3.491481338843133355E-15, -1.224646799147353207E-16, 1.000000000000000000 ) ) ;
#206 = COORDINATED_UNIVERSAL_TIME_OFFSET ( 1, 0, .AHEAD. ) ;
#207 = PERSON_AND_ORGANIZATION ( #240, #264 ) ;
#208 = CARTESIAN_POINT ( 'NONE',  ( 4.538925740496073362E-14, -1.734723475976807094E-15, 13.00000000000000000 ) ) ;
#209 = DIRECTION ( 'NONE',  ( 3.491481338843133355E-15, -1.224646799147353207E-16, 1.000000000000000000 ) ) ;
#210 = EDGE_CURVE ( 'NONE', #237, #237, #224, .T. ) ;
#211 = DIRECTION ( 'NONE',  ( 0.0000000000000000000, 1.000000000000000000, 0.0000000000000000000 ) ) ;
#212 = MANIFOLD_SOLID_BREP ( 'Corps-Déplacer/Copier1[1]', #108 ) ;
#213 = CIRCLE ( 'NONE', #18, 0.6600000000000000311 ) ;
#214 = CARTESIAN_POINT ( 'NONE',  ( 0.0000000000000000000, 0.0000000000000000000, 0.0000000000000000000 ) ) ;
#215 = CARTESIAN_POINT ( 'NONE',  ( 1.316288464743861212E-13, 1.499999999999998668, 37.69999999999999574 ) ) ;
#216 = MANIFOLD_SOLID_BREP ( 'Corps-Déplacer/Copier1[2]', #17 ) ;
#217 = LOCAL_TIME ( 11, 40, 21.00000000000000000, #91 ) ;
#218 = CC_DESIGN_PERSON_AND_ORGANIZATION_ASSIGNMENT ( #44, #138, ( #259 ) ) ;
#219 = DIRECTION ( 'NONE',  ( -3.491481338843133355E-15, 1.224646799147353207E-16, -1.000000000000000000 ) ) ;
#220 = DIRECTION ( 'NONE',  ( 0.0000000000000000000, 1.000000000000000000, 0.0000000000000000000 ) ) ;
#221 = COORDINATED_UNIVERSAL_TIME_OFFSET ( 1, 0, .AHEAD. ) ;
#222 = EDGE_LOOP ( 'NONE', ( #119 ) ) ;
#223 = FACE_OUTER_BOUND ( 'NONE', #177, .T. ) ;
#224 = CIRCLE ( 'NONE', #45, 0.5849999999999998535 ) ;
#225 = EDGE_CURVE ( 'NONE', #290, #290, #43, .T. ) ;
#226 = PERSON_AND_ORGANIZATION_ROLE ( 'design_supplier' ) ;
#227 = ORIENTED_EDGE ( 'NONE', *, *, #279, .F. ) ;
#228 = DIRECTION ( 'NONE',  ( 3.491481338843133355E-15, -1.224646799147353207E-16, 1.000000000000000000 ) ) ;
#229 = ADVANCED_FACE ( 'NONE', ( #77, #34 ), #293, .T. ) ;
#230 = AXIS2_PLACEMENT_3D ( 'NONE', #168, #192, #54 ) ;
#231 = CARTESIAN_POINT ( 'NONE',  ( 2.094888803305880013E-14, 4.949207282784119706E-33, 6.000000000000000000 ) ) ;
#232 = ORIENTED_EDGE ( 'NONE', *, *, #210, .F. ) ;
#233 = EDGE_LOOP ( 'NONE', ( #84 ) ) ;
#234 = AXIS2_PLACEMENT_3D ( 'NONE', #231, #205, #254 ) ;
#235 = CARTESIAN_POINT ( 'NONE',  ( 1.326762908760390423E-13, -4.653657836759941941E-15, 38.00000000000000000 ) ) ;
#236 = CARTESIAN_POINT ( 'NONE',  ( 1.326762908760390423E-13, 1.199999999999998845, 38.00000000000000000 ) ) ;
#237 = VERTEX_POINT ( 'NONE', #28 ) ;
#238 = EDGE_LOOP ( 'NONE', ( #141 ) ) ;
#239 = EDGE_CURVE ( 'NONE', #128, #128, #31, .T. ) ;
#240 = PERSON ( 'UNSPECIFIED', 'UNSPECIFIED', 'UNSPECIFIED', ('UNSPECIFIED'), ('UNSPECIFIED'), ('UNSPECIFIED') ) ;
#241 = APPROVAL ( #274, 'UNSPECIFIED' ) ;
#242 = CARTESIAN_POINT ( 'NONE',  ( -3.151253558409060148E-31, 1.105310958037673398E-32, -9.025548907711464421E-17 ) ) ;
#243 = FACE_OUTER_BOUND ( 'NONE', #118, .T. ) ;
#244 = ORIENTED_EDGE ( 'NONE', *, *, #169, .F. ) ;
#245 = DIRECTION ( 'NONE',  ( -2.918075673313996955E-31, -1.000000000000000000, -8.213652821859891190E-17 ) ) ;
#246 = PERSON_AND_ORGANIZATION ( #240, #264 ) ;
#247 = DIRECTION ( 'NONE',  ( 1.000000000000000000, 0.0000000000000000000, 0.0000000000000000000 ) ) ;
#248 = DATE_TIME_ROLE ( 'creation_date' ) ;
#249 = EDGE_CURVE ( 'NONE', #299, #299, #55, .T. ) ;
#250 = DIRECTION ( 'NONE',  ( 0.0000000000000000000, 1.000000000000000000, 0.0000000000000000000 ) ) ;
#251 = CARTESIAN_POINT ( 'NONE',  ( 6.411826227315531218E-14, -2.248965898403675555E-15, 18.36420019200224019 ) ) ;
#252 = AXIS2_PLACEMENT_3D ( 'NONE', #153, #127, #245 ) ;
#253 = APPROVAL_ROLE ( '' ) ;
#254 = DIRECTION ( 'NONE',  ( -4.275831445896958607E-31, -1.000000000000000000, -1.224646799147353207E-16 ) ) ;
#255 = COORDINATED_UNIVERSAL_TIME_OFFSET ( 1, 0, .AHEAD. ) ;
#256 = DIRECTION ( 'NONE',  ( -3.491481338843133355E-15, 1.224646799147353207E-16, -1.000000000000000000 ) ) ;
#257 = DIRECTION ( 'NONE',  ( -3.491481338843133355E-15, 1.224646799147353207E-16, -1.000000000000000000 ) ) ;
#258 = DESIGN_CONTEXT ( 'detailed design', #261, 'design' ) ;
#259 = PRODUCT_DEFINITION_FORMATION_WITH_SPECIFIED_SOURCE ( 'ANY', '', #50, .NOT_KNOWN. ) ;
#260 = FACE_OUTER_BOUND ( 'NONE', #201, .T. ) ;
#261 = APPLICATION_CONTEXT ( 'configuration controlled 3d designs of mechanical parts and assemblies' ) ;
#262 = CARTESIAN_POINT ( 'NONE',  ( 0.0000000000000000000, 0.0000000000000000000, 0.0000000000000000000 ) ) ;
#263 = DIRECTION ( 'NONE',  ( 0.0000000000000000000, 1.000000000000000000, 0.0000000000000000000 ) ) ;
#264 = ORGANIZATION ( 'UNSPECIFIED', 'UNSPECIFIED', '' ) ;
#265 = EDGE_LOOP ( 'NONE', ( #244 ) ) ;
#266 =( LENGTH_UNIT ( ) NAMED_UNIT ( * ) SI_UNIT ( .MILLI., .METRE. ) );
#267 = ADVANCED_FACE ( 'NONE', ( #243, #196 ), #85, .T. ) ;
#268 = CARTESIAN_POINT ( 'NONE',  ( 2.094888803305880013E-14, 0.6599999999999992539, 6.000000000000000000 ) ) ;
#269 = CIRCLE ( 'NONE', #109, 0.5849999999999991873 ) ;
#270 = APPLICATION_PROTOCOL_DEFINITION ( 'international standard', 'config_control_design', 1994, #261 ) ;
#271 = DIRECTION ( 'NONE',  ( 4.275831445896958607E-31, 1.000000000000000000, 1.224646799147353207E-16 ) ) ;
#272 = FACE_OUTER_BOUND ( 'NONE', #29, .T. ) ;
#273 = DIRECTION ( 'NONE',  ( 0.0000000000000000000, 1.000000000000000000, 0.0000000000000000000 ) ) ;
#274 = APPROVAL_STATUS ( 'not_yet_approved' ) ;
#275 = ORIENTED_EDGE ( 'NONE', *, *, #82, .F. ) ;
#276 = EDGE_LOOP ( 'NONE', ( #123 ) ) ;
#277 = TOROIDAL_SURFACE ( 'NONE', #148, 2.584999999999999964, 2.000000000000000000 ) ;
#278 = CIRCLE ( 'NONE', #74, 0.5156624327025949306 ) ;
#279 = EDGE_CURVE ( 'NONE', #294, #294, #278, .T. ) ;
#280 = CARTESIAN_POINT ( 'NONE',  ( 2.094888803305880013E-14, -7.347880794884119736E-16, 6.000000000000000000 ) ) ;
#281 = FACE_OUTER_BOUND ( 'NONE', #238, .T. ) ;
#282 = EDGE_LOOP ( 'NONE', ( #227 ) ) ;
#283 = SECURITY_CLASSIFICATION ( '', '', #2 ) ;
#284 = PLANE ( 'NONE',  #234 ) ;
#285 = PERSON_AND_ORGANIZATION ( #240, #264 ) ;
#286 = EDGE_CURVE ( 'NONE', #80, #80, #269, .T. ) ;
#287 = EDGE_LOOP ( 'NONE', ( #100 ) ) ;
#288 = LOCAL_TIME ( 11, 40, 21.00000000000000000, #206 ) ;
#289 = ADVANCED_FACE ( 'NONE', ( #105 ), #14, .F. ) ;
#290 = VERTEX_POINT ( 'NONE', #150 ) ;
#291 = CONICAL_SURFACE ( 'NONE', #62, 1.200000000000003286, 0.7853981633974453924 ) ;
#292 = CIRCLE ( 'NONE', #104, 1.200000000000003286 ) ;
#293 = CYLINDRICAL_SURFACE ( 'NONE', #170, 0.5849999999999996314 ) ;
#294 = VERTEX_POINT ( 'NONE', #32 ) ;
#295 = DIRECTION ( 'NONE',  ( 4.275831445896958607E-31, 1.000000000000000000, 1.224646799147353207E-16 ) ) ;
#296 = DATE_AND_TIME ( #163, #288 ) ;
#297 = ADVANCED_FACE ( 'NONE', ( #131, #130 ), #3, .T. ) ;
#298 = CC_DESIGN_APPROVAL ( #241, ( #121 ) ) ;
#299 = VERTEX_POINT ( 'NONE', #268 ) ;
#300 = APPROVAL_DATE_TIME ( #57, #241 ) ;
#301 = CARTESIAN_POINT ( 'NONE',  ( 0.0000000000000000000, 0.0000000000000000000, 0.0000000000000000000 ) ) ;
#302 = EDGE_LOOP ( 'NONE', ( #98 ) ) ;
#303 = CC_DESIGN_PERSON_AND_ORGANIZATION_ASSIGNMENT ( #172, #107, ( #50 ) ) ;
ENDSEC;
END-ISO-10303-21;
