ISO-10303-21;
HEADER;
FILE_DESCRIPTION (( 'STEP AP203' ),
    '1' );
FILE_NAME ('327020.step',
    '2021-12-01T10:40:20',
    ( '' ),
    ( '' ),
    'SwSTEP 2.0',
    'SolidWorks 2019',
    '' );
FILE_SCHEMA (( 'CONFIG_CONTROL_DESIGN' ));
ENDSEC;

DATA;
#1 = DIRECTION ( 'NONE',  ( -3.491481338843133355E-15, 1.224646799147353207E-16, -1.000000000000000000 ) ) ;
#2 = CIRCLE ( 'NONE', #251, 0.6449999999999993516 ) ;
#3 = CARTESIAN_POINT ( 'NONE',  ( 2.094888803305880013E-14, 4.836725299084480248E-33, 6.000000000000000000 ) ) ;
#4 = SECURITY_CLASSIFICATION_LEVEL ( 'unclassified' ) ;
#5 = FACE_BOUND ( 'NONE', #292, .T. ) ;
#6 = VERTEX_POINT ( 'NONE', #128 ) ;
#7 = UNCERTAINTY_MEASURE_WITH_UNIT (LENGTH_MEASURE( 1.000000000000000082E-05 ), #93, 'distance_accuracy_value', 'NONE');
#8 = CARTESIAN_POINT ( 'NONE',  ( -2.016741999956093068E-31, 7.073778706692452362E-33, -5.776178659526560849E-17 ) ) ;
#9 = DIRECTION ( 'NONE',  ( 0.0000000000000000000, 1.000000000000000000, 0.0000000000000000000 ) ) ;
#10 = EDGE_CURVE ( 'NONE', #288, #288, #221, .T. ) ;
#11 = CIRCLE ( 'NONE', #47, 0.6450000000000000178 ) ;
#12 = ORGANIZATION ( 'UNSPECIFIED', 'UNSPECIFIED', '' ) ;
#13 = APPROVAL_STATUS ( 'not_yet_approved' ) ;
#14 = ORIENTED_EDGE ( 'NONE', *, *, #204, .F. ) ;
#15 = EDGE_LOOP ( 'NONE', ( #51 ) ) ;
#16 = EDGE_LOOP ( 'NONE', ( #183 ) ) ;
#17 = MANIFOLD_SOLID_BREP ( 'Corps-Déplacer/Copier1[1]', #36 ) ;
#18 = PRODUCT_RELATED_PRODUCT_CATEGORY ( 'detail', '', ( #21 ) ) ;
#19 = PERSON_AND_ORGANIZATION_ROLE ( 'design_owner' ) ;
#20 = MANIFOLD_SOLID_BREP ( 'Corps-Déplacer/Copier1[2]', #168 ) ;
#21 = PRODUCT ( '327020', '327020', '', ( #278 ) ) ;
#22 = AXIS2_PLACEMENT_3D ( 'NONE', #121, #43, #233 ) ;
#23 = DIRECTION ( 'NONE',  ( -3.491481338843133355E-15, 1.224646799147353207E-16, -1.000000000000000000 ) ) ;
#24 = CARTESIAN_POINT ( 'NONE',  ( 8.728703347107831416E-16, -3.061616997868382402E-17, 0.2499999999999999445 ) ) ;
#25 = CC_DESIGN_DATE_AND_TIME_ASSIGNMENT ( #62, #44, ( #219 ) ) ;
#26 = CC_DESIGN_APPROVAL ( #230, ( #289 ) ) ;
#27 = COORDINATED_UNIVERSAL_TIME_OFFSET ( 1, 0, .AHEAD. ) ;
#28 = DATE_AND_TIME ( #211, #254 ) ;
#29 = PERSON_AND_ORGANIZATION ( #244, #12 ) ;
#30 = FACE_OUTER_BOUND ( 'NONE', #250, .T. ) ;
#31 = PERSON_AND_ORGANIZATION_ROLE ( 'design_supplier' ) ;
#32 = CARTESIAN_POINT ( 'NONE',  ( 0.0000000000000000000, 0.0000000000000000000, 0.0000000000000000000 ) ) ;
#33 = AXIS2_PLACEMENT_3D ( 'NONE', #8, #64, #191 ) ;
#34 = PERSON_AND_ORGANIZATION ( #244, #12 ) ;
#35 = FACE_BOUND ( 'NONE', #54, .T. ) ;
#36 = CLOSED_SHELL ( 'NONE', ( #158, #79, #167, #156, #60, #267, #245, #279 ) ) ;
#37 = CARTESIAN_POINT ( 'NONE',  ( 6.481130338557337725E-14, -2.273274508349777075E-15, 18.56269505568886657 ) ) ;
#38 = VERTEX_POINT ( 'NONE', #112 ) ;
#39 = ORIENTED_EDGE ( 'NONE', *, *, #49, .T. ) ;
#40 = EDGE_CURVE ( 'NONE', #263, #263, #127, .T. ) ;
#41 = AXIS2_PLACEMENT_3D ( 'NONE', #280, #151, #260 ) ;
#42 = AXIS2_PLACEMENT_3D ( 'NONE', #24, #208, #300 ) ;
#43 = DIRECTION ( 'NONE',  ( -3.491481338843133355E-15, 1.224646799147353207E-16, -1.000000000000000000 ) ) ;
#44 = DATE_TIME_ROLE ( 'creation_date' ) ;
#45 = FACE_OUTER_BOUND ( 'NONE', #294, .T. ) ;
#46 = EDGE_CURVE ( 'NONE', #138, #138, #87, .T. ) ;
#47 = AXIS2_PLACEMENT_3D ( 'NONE', #110, #296, #85 ) ;
#48 = FACE_OUTER_BOUND ( 'NONE', #73, .T. ) ;
#49 = EDGE_CURVE ( 'NONE', #207, #207, #257, .T. ) ;
#50 = EDGE_LOOP ( 'NONE', ( #270 ) ) ;
#51 = ORIENTED_EDGE ( 'NONE', *, *, #46, .F. ) ;
#52 = PERSON_AND_ORGANIZATION_ROLE ( 'creator' ) ;
#53 = DIRECTION ( 'NONE',  ( -3.491481338843133355E-15, 1.224646799147353207E-16, -1.000000000000000000 ) ) ;
#54 = EDGE_LOOP ( 'NONE', ( #105 ) ) ;
#55 = ORIENTED_EDGE ( 'NONE', *, *, #195, .T. ) ;
#56 = DIRECTION ( 'NONE',  ( 0.0000000000000000000, -1.000000000000000000, 0.0000000000000000000 ) ) ;
#57 = DIRECTION ( 'NONE',  ( -3.491481338843133355E-15, 1.224646799147353207E-16, -1.000000000000000000 ) ) ;
#58 = APPROVAL_PERSON_ORGANIZATION ( #29, #130, #59 ) ;
#59 = APPROVAL_ROLE ( '' ) ;
#60 = ADVANCED_FACE ( 'NONE', ( #35, #145 ), #222, .T. ) ;
#61 = AXIS2_PLACEMENT_3D ( 'NONE', #68, #94, #196 ) ;
#62 = DATE_AND_TIME ( #298, #247 ) ;
#63 = LOCAL_TIME ( 11, 40, 20.00000000000000000, #201 ) ;
#64 = DIRECTION ( 'NONE',  ( 3.491481338843133355E-15, -1.224646799147353207E-16, 1.000000000000000000 ) ) ;
#65 = DIRECTION ( 'NONE',  ( -3.491481338843133355E-15, 1.224646799147353207E-16, -1.000000000000000000 ) ) ;
#66 = DIRECTION ( 'NONE',  ( 3.491481338843133355E-15, -1.224646799147353207E-16, 1.000000000000000000 ) ) ;
#67 = CARTESIAN_POINT ( 'NONE',  ( -4.033483999912186136E-31, 1.414755741338490472E-32, -1.155235731905312170E-16 ) ) ;
#68 = CARTESIAN_POINT ( 'NONE',  ( 1.316288464743861212E-13, -4.616918432785521081E-15, 37.69999999999999574 ) ) ;
#69 = AXIS2_PLACEMENT_3D ( 'NONE', #215, #65, #9 ) ;
#70 =( GEOMETRIC_REPRESENTATION_CONTEXT ( 3 ) GLOBAL_UNCERTAINTY_ASSIGNED_CONTEXT ( ( #7 ) ) GLOBAL_UNIT_ASSIGNED_CONTEXT ( ( #93, #152, #126 ) ) REPRESENTATION_CONTEXT ( 'NONE', 'WORKASPACE' ) );
#71 = CC_DESIGN_PERSON_AND_ORGANIZATION_ASSIGNMENT ( #131, #52, ( #219 ) ) ;
#72 = DIRECTION ( 'NONE',  ( 4.275831445896958607E-31, 1.000000000000000000, 1.224646799147353207E-16 ) ) ;
#73 = EDGE_LOOP ( 'NONE', ( #223 ) ) ;
#74 = CARTESIAN_POINT ( 'NONE',  ( 4.538925740496073362E-14, -1.734723475976807094E-15, 13.00000000000000000 ) ) ;
#75 = FACE_OUTER_BOUND ( 'NONE', #80, .T. ) ;
#76 = APPLICATION_PROTOCOL_DEFINITION ( 'international standard', 'config_control_design', 1994, #198 ) ;
#77 = DATE_AND_TIME ( #285, #238 ) ;
#78 = CC_DESIGN_APPROVAL ( #130, ( #164 ) ) ;
#79 = ADVANCED_FACE ( 'NONE', ( #187, #297 ), #271, .T. ) ;
#80 = EDGE_LOOP ( 'NONE', ( #14 ) ) ;
#81 = DIRECTION ( 'NONE',  ( 0.0000000000000000000, 1.000000000000000000, 0.0000000000000000000 ) ) ;
#82 = CARTESIAN_POINT ( 'NONE',  ( 0.0000000000000000000, 0.0000000000000000000, 0.0000000000000000000 ) ) ;
#83 = CC_DESIGN_PERSON_AND_ORGANIZATION_ASSIGNMENT ( #146, #19, ( #21 ) ) ;
#84 = VERTEX_POINT ( 'NONE', #186 ) ;
#85 = DIRECTION ( 'NONE',  ( 0.0000000000000000000, 1.000000000000000000, 0.0000000000000000000 ) ) ;
#86 = CARTESIAN_POINT ( 'NONE',  ( 2.152339322495153226E-14, -7.549390090241856445E-16, 6.164544826719047244 ) ) ;
#87 = CIRCLE ( 'NONE', #161, 0.5499999999999991562 ) ;
#88 = CIRCLE ( 'NONE', #69, 0.6450000000000000178 ) ;
#89 = DATE_AND_TIME ( #116, #241 ) ;
#90 = DIRECTION ( 'NONE',  ( 0.0000000000000000000, 1.000000000000000000, 0.0000000000000000000 ) ) ;
#91 = CARTESIAN_POINT ( 'NONE',  ( 1.326762908760390423E-13, 8.998558695971103225E-33, 38.00000000000000000 ) ) ;
#92 = PERSON_AND_ORGANIZATION_ROLE ( 'classification_officer' ) ;
#93 =( LENGTH_UNIT ( ) NAMED_UNIT ( * ) SI_UNIT ( .MILLI., .METRE. ) );
#94 = DIRECTION ( 'NONE',  ( -3.491481338843133355E-15, 1.224646799147353207E-16, -1.000000000000000000 ) ) ;
#95 = AXIS2_PLACEMENT_3D ( 'NONE', #203, #53, #163 ) ;
#96 = AXIS2_PLACEMENT_3D ( 'NONE', #37, #224, #56 ) ;
#97 = EDGE_LOOP ( 'NONE', ( #202 ) ) ;
#98 = APPLICATION_CONTEXT ( 'configuration controlled 3d designs of mechanical parts and assemblies' ) ;
#99 = APPROVAL_ROLE ( '' ) ;
#100 = ORIENTED_EDGE ( 'NONE', *, *, #104, .F. ) ;
#101 = DIRECTION ( 'NONE',  ( 1.000000000000000000, 0.0000000000000000000, 0.0000000000000000000 ) ) ;
#102 = TOROIDAL_SURFACE ( 'NONE', #184, 2.550000000000000266, 2.000000000000000000 ) ;
#103 = CC_DESIGN_PERSON_AND_ORGANIZATION_ASSIGNMENT ( #239, #92, ( #289 ) ) ;
#104 = EDGE_CURVE ( 'NONE', #38, #38, #11, .T. ) ;
#105 = ORIENTED_EDGE ( 'NONE', *, *, #10, .F. ) ;
#106 = CARTESIAN_POINT ( 'NONE',  ( 4.660183614865709118E-14, 0.5803844939755797849, 13.34729635533384595 ) ) ;
#107 = DIRECTION ( 'NONE',  ( 0.0000000000000000000, 1.000000000000000000, 0.0000000000000000000 ) ) ;
#108 = AXIS2_PLACEMENT_3D ( 'NONE', #3, #66, #125 ) ;
#109 = CC_DESIGN_APPROVAL ( #228, ( #219 ) ) ;
#110 = CARTESIAN_POINT ( 'NONE',  ( 2.094888803305880013E-14, -7.347880794884119736E-16, 6.000000000000000000 ) ) ;
#111 = DIRECTION ( 'NONE',  ( 0.0000000000000000000, 1.000000000000000000, 0.0000000000000000000 ) ) ;
#112 = CARTESIAN_POINT ( 'NONE',  ( 2.094888803305880013E-14, 0.6449999999999993516, 6.000000000000000000 ) ) ;
#113 = EDGE_LOOP ( 'NONE', ( #179 ) ) ;
#114 = ADVANCED_FACE ( 'NONE', ( #188, #276 ), #237, .T. ) ;
#115 = COORDINATED_UNIVERSAL_TIME_OFFSET ( 1, 0, .AHEAD. ) ;
#116 = CALENDAR_DATE ( 2021, 1, 12 ) ;
#117 = PLANE ( 'NONE',  #108 ) ;
#118 = CC_DESIGN_DATE_AND_TIME_ASSIGNMENT ( #77, #177, ( #289 ) ) ;
#119 = DIRECTION ( 'NONE',  ( -3.491481338843133355E-15, 1.224646799147353207E-16, -1.000000000000000000 ) ) ;
#120 = CC_DESIGN_SECURITY_CLASSIFICATION ( #289, ( #164 ) ) ;
#121 = CARTESIAN_POINT ( 'NONE',  ( 0.0000000000000000000, 0.0000000000000000000, 0.0000000000000000000 ) ) ;
#122 = FACE_OUTER_BOUND ( 'NONE', #113, .T. ) ;
#123 = DIRECTION ( 'NONE',  ( 4.275831445896957731E-31, 1.000000000000000000, 1.224646799147353207E-16 ) ) ;
#124 = APPLICATION_PROTOCOL_DEFINITION ( 'international standard', 'config_control_design', 1994, #98 ) ;
#125 = DIRECTION ( 'NONE',  ( -4.275831445896958607E-31, -1.000000000000000000, -1.224646799147353207E-16 ) ) ;
#126 =( NAMED_UNIT ( * ) SI_UNIT ( $, .STERADIAN. ) SOLID_ANGLE_UNIT ( ) );
#127 = CIRCLE ( 'NONE', #154, 1.499999999999997558 ) ;
#128 = CARTESIAN_POINT ( 'NONE',  ( 1.316288464743861212E-13, 1.499999999999998668, 37.69999999999999574 ) ) ;
#129 = PERSON_AND_ORGANIZATION_ROLE ( 'creator' ) ;
#130 = APPROVAL ( #169, 'UNSPECIFIED' ) ;
#131 = PERSON_AND_ORGANIZATION ( #244, #12 ) ;
#132 = CARTESIAN_POINT ( 'NONE',  ( 6.481130338557337725E-14, 1.499999999999995559, 18.56269505568886657 ) ) ;
#133 = EDGE_LOOP ( 'NONE', ( #100 ) ) ;
#134 = DIRECTION ( 'NONE',  ( 0.0000000000000000000, 0.0000000000000000000, 1.000000000000000000 ) ) ;
#135 = EDGE_LOOP ( 'NONE', ( #242 ) ) ;
#136 = CONICAL_SURFACE ( 'NONE', #41, 1.200000000000003286, 0.7853981633974453924 ) ;
#137 = APPROVAL_PERSON_ORGANIZATION ( #176, #228, #140 ) ;
#138 = VERTEX_POINT ( 'NONE', #162 ) ;
#139 = ORIENTED_EDGE ( 'NONE', *, *, #40, .T. ) ;
#140 = APPROVAL_ROLE ( '' ) ;
#141 = ORIENTED_EDGE ( 'NONE', *, *, #40, .F. ) ;
#142 = AXIS2_PLACEMENT_3D ( 'NONE', #86, #23, #229 ) ;
#143 = APPROVAL_PERSON_ORGANIZATION ( #199, #230, #99 ) ;
#144 = EDGE_LOOP ( 'NONE', ( #139 ) ) ;
#145 = FACE_OUTER_BOUND ( 'NONE', #144, .T. ) ;
#146 = PERSON_AND_ORGANIZATION ( #244, #12 ) ;
#147 = DIRECTION ( 'NONE',  ( -3.491481338843133355E-15, 1.224646799147353207E-16, -1.000000000000000000 ) ) ;
#148 = FACE_OUTER_BOUND ( 'NONE', #16, .T. ) ;
#149 = CARTESIAN_POINT ( 'NONE',  ( 2.094888803305880013E-14, 4.836725299084480248E-33, 6.000000000000000000 ) ) ;
#150 = CARTESIAN_POINT ( 'NONE',  ( -1.892735826383160919E-31, 0.5006624327025950283, -5.421010862427520937E-17 ) ) ;
#151 = DIRECTION ( 'NONE',  ( -3.491481338843133355E-15, 1.224646799147353207E-16, -1.000000000000000000 ) ) ;
#152 =( NAMED_UNIT ( * ) PLANE_ANGLE_UNIT ( ) SI_UNIT ( $, .RADIAN. ) );
#153 = SHAPE_DEFINITION_REPRESENTATION ( #205, #185 ) ;
#154 = AXIS2_PLACEMENT_3D ( 'NONE', #295, #248, #81 ) ;
#155 = AXIS2_PLACEMENT_3D ( 'NONE', #32, #119, #209 ) ;
#156 = ADVANCED_FACE ( 'NONE', ( #182, #148 ), #102, .F. ) ;
#157 = FACE_OUTER_BOUND ( 'NONE', #159, .T. ) ;
#158 = ADVANCED_FACE ( 'NONE', ( #122 ), #170, .F. ) ;
#159 = EDGE_LOOP ( 'NONE', ( #141 ) ) ;
#160 = DATE_AND_TIME ( #269, #63 ) ;
#161 = AXIS2_PLACEMENT_3D ( 'NONE', #226, #272, #107 ) ;
#162 = CARTESIAN_POINT ( 'NONE',  ( 2.152339322495153226E-14, 0.5499999999999983791, 6.164544826719047244 ) ) ;
#163 = DIRECTION ( 'NONE',  ( 0.0000000000000000000, 1.000000000000000000, 0.0000000000000000000 ) ) ;
#164 = PRODUCT_DEFINITION_FORMATION_WITH_SPECIFIED_SOURCE ( 'ANY', '', #21, .NOT_KNOWN. ) ;
#165 = EDGE_LOOP ( 'NONE', ( #39 ) ) ;
#166 = AXIS2_PLACEMENT_3D ( 'NONE', #91, #174, #72 ) ;
#167 = ADVANCED_FACE ( 'NONE', ( #232, #261 ), #240, .T. ) ;
#168 = CLOSED_SHELL ( 'NONE', ( #284, #114, #262, #252 ) ) ;
#169 = APPROVAL_STATUS ( 'not_yet_approved' ) ;
#170 = PLANE ( 'NONE',  #265 ) ;
#171 = DIRECTION ( 'NONE',  ( -3.491481338843133355E-15, 1.224646799147353207E-16, -1.000000000000000000 ) ) ;
#172 = DIRECTION ( 'NONE',  ( -4.275831445896958607E-31, -1.000000000000000000, -1.224646799147353207E-16 ) ) ;
#173 = FACE_OUTER_BOUND ( 'NONE', #181, .T. ) ;
#174 = DIRECTION ( 'NONE',  ( -3.491481338843133355E-15, 1.224646799147353207E-16, -1.000000000000000000 ) ) ;
#175 = APPROVAL_DATE_TIME ( #28, #230 ) ;
#176 = PERSON_AND_ORGANIZATION ( #244, #12 ) ;
#177 = DATE_TIME_ROLE ( 'classification_date' ) ;
#178 = EDGE_CURVE ( 'NONE', #84, #84, #88, .T. ) ;
#179 = ORIENTED_EDGE ( 'NONE', *, *, #104, .T. ) ;
#180 = AXIS2_PLACEMENT_3D ( 'NONE', #67, #171, #255 ) ;
#181 = EDGE_LOOP ( 'NONE', ( #217 ) ) ;
#182 = FACE_OUTER_BOUND ( 'NONE', #291, .T. ) ;
#183 = ORIENTED_EDGE ( 'NONE', *, *, #10, .T. ) ;
#184 = AXIS2_PLACEMENT_3D ( 'NONE', #74, #190, #256 ) ;
#185 = ADVANCED_BREP_SHAPE_REPRESENTATION ( '327020', ( #17, #20, #212 ), #70 ) ;
#186 = CARTESIAN_POINT ( 'NONE',  ( 2.094888803305880013E-14, 0.6449999999999993516, 6.000000000000000000 ) ) ;
#187 = FACE_OUTER_BOUND ( 'NONE', #133, .T. ) ;
#188 = FACE_BOUND ( 'NONE', #135, .T. ) ;
#189 = PLANE ( 'NONE',  #33 ) ;
#190 = DIRECTION ( 'NONE',  ( -3.491481338843133355E-15, 1.224646799147353207E-16, -1.000000000000000000 ) ) ;
#191 = DIRECTION ( 'NONE',  ( -4.275831445896958607E-31, -1.000000000000000000, -1.224646799147353207E-16 ) ) ;
#192 = COORDINATED_UNIVERSAL_TIME_OFFSET ( 1, 0, .AHEAD. ) ;
#193 = FACE_OUTER_BOUND ( 'NONE', #246, .T. ) ;
#194 = DESIGN_CONTEXT ( 'detailed design', #198, 'design' ) ;
#195 = EDGE_CURVE ( 'NONE', #225, #225, #216, .T. ) ;
#196 = DIRECTION ( 'NONE',  ( 0.0000000000000000000, 1.000000000000000000, 0.0000000000000000000 ) ) ;
#197 = CARTESIAN_POINT ( 'NONE',  ( 1.326762908760390423E-13, -4.653657836759941941E-15, 38.00000000000000000 ) ) ;
#198 = APPLICATION_CONTEXT ( 'configuration controlled 3d designs of mechanical parts and assemblies' ) ;
#199 = PERSON_AND_ORGANIZATION ( #244, #12 ) ;
#200 = ORIENTED_EDGE ( 'NONE', *, *, #49, .F. ) ;
#201 = COORDINATED_UNIVERSAL_TIME_OFFSET ( 1, 0, .AHEAD. ) ;
#202 = ORIENTED_EDGE ( 'NONE', *, *, #46, .T. ) ;
#203 = CARTESIAN_POINT ( 'NONE',  ( 4.660183614865709118E-14, -1.634572375883072808E-15, 13.34729635533384595 ) ) ;
#204 = EDGE_CURVE ( 'NONE', #299, #299, #2, .T. ) ;
#205 = PRODUCT_DEFINITION_SHAPE ( 'NONE', 'NONE',  #219 ) ;
#206 = CIRCLE ( 'NONE', #61, 1.500000000000003331 ) ;
#207 = VERTEX_POINT ( 'NONE', #249 ) ;
#208 = DIRECTION ( 'NONE',  ( 3.491481338843133355E-15, -1.224646799147353207E-16, 1.000000000000000000 ) ) ;
#209 = DIRECTION ( 'NONE',  ( 4.275831445896958607E-31, 1.000000000000000000, 1.224646799147353207E-16 ) ) ;
#210 = CARTESIAN_POINT ( 'NONE',  ( 0.0000000000000000000, 0.0000000000000000000, 0.0000000000000000000 ) ) ;
#211 = CALENDAR_DATE ( 2021, 1, 12 ) ;
#212 = AXIS2_PLACEMENT_3D ( 'NONE', #82, #134, #101 ) ;
#213 = FACE_OUTER_BOUND ( 'NONE', #50, .T. ) ;
#214 = CYLINDRICAL_SURFACE ( 'NONE', #22, 1.500000000000000444 ) ;
#215 = CARTESIAN_POINT ( 'NONE',  ( 2.094888803305880013E-14, -7.347880794884119736E-16, 6.000000000000000000 ) ) ;
#216 = CIRCLE ( 'NONE', #253, 1.200000000000003286 ) ;
#217 = ORIENTED_EDGE ( 'NONE', *, *, #195, .F. ) ;
#218 = ORIENTED_EDGE ( 'NONE', *, *, #178, .T. ) ;
#219 = PRODUCT_DEFINITION ( 'UNKNOWN', '', #164, #194 ) ;
#220 = CC_DESIGN_PERSON_AND_ORGANIZATION_ASSIGNMENT ( #34, #129, ( #164 ) ) ;
#221 = CIRCLE ( 'NONE', #95, 0.5803844939755814503 ) ;
#222 = CONICAL_SURFACE ( 'NONE', #96, 1.499999999999997558, 0.1745329251994260644 ) ;
#223 = ORIENTED_EDGE ( 'NONE', *, *, #231, .T. ) ;
#224 = DIRECTION ( 'NONE',  ( 3.491481338843133355E-15, -1.224646799147353207E-16, 1.000000000000000000 ) ) ;
#225 = VERTEX_POINT ( 'NONE', #227 ) ;
#226 = CARTESIAN_POINT ( 'NONE',  ( 2.152339322495153226E-14, -7.549390090241856445E-16, 6.164544826719047244 ) ) ;
#227 = CARTESIAN_POINT ( 'NONE',  ( 1.326762908760390423E-13, 1.199999999999998845, 38.00000000000000000 ) ) ;
#228 = APPROVAL ( #13, 'UNSPECIFIED' ) ;
#229 = DIRECTION ( 'NONE',  ( 0.0000000000000000000, 1.000000000000000000, 0.0000000000000000000 ) ) ;
#230 = APPROVAL ( #266, 'UNSPECIFIED' ) ;
#231 = EDGE_CURVE ( 'NONE', #303, #303, #258, .T. ) ;
#232 = FACE_OUTER_BOUND ( 'NONE', #15, .T. ) ;
#233 = DIRECTION ( 'NONE',  ( 4.275831445896958607E-31, 1.000000000000000000, 1.224646799147353207E-16 ) ) ;
#234 = PERSON_AND_ORGANIZATION ( #244, #12 ) ;
#235 = CARTESIAN_POINT ( 'NONE',  ( 8.728703347107831416E-16, -3.061616997868382402E-17, 0.2499999999999999445 ) ) ;
#236 = CYLINDRICAL_SURFACE ( 'NONE', #281, 0.6449999999999997957 ) ;
#237 = CONICAL_SURFACE ( 'NONE', #42, 0.6449999999999993516, 0.5235987755982922653 ) ;
#238 = LOCAL_TIME ( 11, 40, 20.00000000000000000, #192 ) ;
#239 = PERSON_AND_ORGANIZATION ( #244, #12 ) ;
#240 = CYLINDRICAL_SURFACE ( 'NONE', #155, 0.5499999999999996003 ) ;
#241 = LOCAL_TIME ( 11, 40, 20.00000000000000000, #27 ) ;
#242 = ORIENTED_EDGE ( 'NONE', *, *, #231, .F. ) ;
#243 = ORIENTED_EDGE ( 'NONE', *, *, #302, .T. ) ;
#244 = PERSON ( 'UNSPECIFIED', 'UNSPECIFIED', 'UNSPECIFIED', ('UNSPECIFIED'), ('UNSPECIFIED'), ('UNSPECIFIED') ) ;
#245 = ADVANCED_FACE ( 'NONE', ( #213, #5 ), #136, .T. ) ;
#246 = EDGE_LOOP ( 'NONE', ( #218 ) ) ;
#247 = LOCAL_TIME ( 11, 40, 20.00000000000000000, #115 ) ;
#248 = DIRECTION ( 'NONE',  ( -3.491481338843133355E-15, 1.224646799147353207E-16, -1.000000000000000000 ) ) ;
#249 = CARTESIAN_POINT ( 'NONE',  ( 4.538925740496073362E-14, 0.5499999999999983791, 13.00000000000000000 ) ) ;
#250 = EDGE_LOOP ( 'NONE', ( #268 ) ) ;
#251 = AXIS2_PLACEMENT_3D ( 'NONE', #235, #286, #282 ) ;
#252 = ADVANCED_FACE ( 'NONE', ( #30 ), #117, .T. ) ;
#253 = AXIS2_PLACEMENT_3D ( 'NONE', #197, #1, #90 ) ;
#254 = LOCAL_TIME ( 11, 40, 20.00000000000000000, #293 ) ;
#255 = DIRECTION ( 'NONE',  ( 4.275831445896958607E-31, 1.000000000000000000, 1.224646799147353207E-16 ) ) ;
#256 = DIRECTION ( 'NONE',  ( 4.275831445896958607E-31, 1.000000000000000000, 1.224646799147353207E-16 ) ) ;
#257 = CIRCLE ( 'NONE', #301, 0.5500000000000000444 ) ;
#258 = CIRCLE ( 'NONE', #180, 0.5006624327025950283 ) ;
#259 = DIRECTION ( 'NONE',  ( 3.491481338843133355E-15, -1.224646799147353207E-16, 1.000000000000000000 ) ) ;
#260 = DIRECTION ( 'NONE',  ( 0.0000000000000000000, 1.000000000000000000, 0.0000000000000000000 ) ) ;
#261 = FACE_OUTER_BOUND ( 'NONE', #165, .T. ) ;
#262 = ADVANCED_FACE ( 'NONE', ( #75, #193 ), #236, .T. ) ;
#263 = VERTEX_POINT ( 'NONE', #132 ) ;
#264 = APPROVAL_DATE_TIME ( #160, #228 ) ;
#265 = AXIS2_PLACEMENT_3D ( 'NONE', #149, #259, #172 ) ;
#266 = APPROVAL_STATUS ( 'not_yet_approved' ) ;
#267 = ADVANCED_FACE ( 'NONE', ( #157, #45 ), #214, .T. ) ;
#268 = ORIENTED_EDGE ( 'NONE', *, *, #178, .F. ) ;
#269 = CALENDAR_DATE ( 2021, 1, 12 ) ;
#270 = ORIENTED_EDGE ( 'NONE', *, *, #302, .F. ) ;
#271 = CONICAL_SURFACE ( 'NONE', #142, 0.5499999999999991562, 0.5235987755982923764 ) ;
#272 = DIRECTION ( 'NONE',  ( -3.491481338843133355E-15, 1.224646799147353207E-16, -1.000000000000000000 ) ) ;
#273 = ORIENTED_EDGE ( 'NONE', *, *, #204, .T. ) ;
#274 = CARTESIAN_POINT ( 'NONE',  ( 4.538925740496073362E-14, -1.592040838891559095E-15, 13.00000000000000000 ) ) ;
#275 = EDGE_LOOP ( 'NONE', ( #273 ) ) ;
#276 = FACE_OUTER_BOUND ( 'NONE', #275, .T. ) ;
#277 = CARTESIAN_POINT ( 'NONE',  ( 8.728703347107833388E-16, 0.6449999999999993516, 0.2500000000000000000 ) ) ;
#278 = MECHANICAL_CONTEXT ( 'NONE', #98, 'mechanical' ) ;
#279 = ADVANCED_FACE ( 'NONE', ( #173 ), #283, .F. ) ;
#280 = CARTESIAN_POINT ( 'NONE',  ( 1.326762908760390423E-13, -4.653657836759941941E-15, 38.00000000000000000 ) ) ;
#281 = AXIS2_PLACEMENT_3D ( 'NONE', #210, #147, #123 ) ;
#282 = DIRECTION ( 'NONE',  ( 2.985937898274787164E-31, 1.000000000000000000, 8.404668003763608414E-17 ) ) ;
#283 = PLANE ( 'NONE',  #166 ) ;
#284 = ADVANCED_FACE ( 'NONE', ( #48 ), #189, .F. ) ;
#285 = CALENDAR_DATE ( 2021, 1, 12 ) ;
#286 = DIRECTION ( 'NONE',  ( -3.491481338843133355E-15, 1.224646799147353207E-16, -1.000000000000000000 ) ) ;
#287 = CC_DESIGN_PERSON_AND_ORGANIZATION_ASSIGNMENT ( #234, #31, ( #164 ) ) ;
#288 = VERTEX_POINT ( 'NONE', #106 ) ;
#289 = SECURITY_CLASSIFICATION ( '', '', #4 ) ;
#290 = APPROVAL_DATE_TIME ( #89, #130 ) ;
#291 = EDGE_LOOP ( 'NONE', ( #200 ) ) ;
#292 = EDGE_LOOP ( 'NONE', ( #55 ) ) ;
#293 = COORDINATED_UNIVERSAL_TIME_OFFSET ( 1, 0, .AHEAD. ) ;
#294 = EDGE_LOOP ( 'NONE', ( #243 ) ) ;
#295 = CARTESIAN_POINT ( 'NONE',  ( 6.481130338557337725E-14, -2.273274508349777075E-15, 18.56269505568886657 ) ) ;
#296 = DIRECTION ( 'NONE',  ( -3.491481338843133355E-15, 1.224646799147353207E-16, -1.000000000000000000 ) ) ;
#297 = FACE_BOUND ( 'NONE', #97, .T. ) ;
#298 = CALENDAR_DATE ( 2021, 1, 12 ) ;
#299 = VERTEX_POINT ( 'NONE', #277 ) ;
#300 = DIRECTION ( 'NONE',  ( -2.985937898274787164E-31, -1.000000000000000000, -8.404668003763608414E-17 ) ) ;
#301 = AXIS2_PLACEMENT_3D ( 'NONE', #274, #57, #111 ) ;
#302 = EDGE_CURVE ( 'NONE', #6, #6, #206, .T. ) ;
#303 = VERTEX_POINT ( 'NONE', #150 ) ;
ENDSEC;
END-ISO-10303-21;
