ISO-10303-21;
HEADER;
FILE_DESCRIPTION (( 'STEP AP203' ),
    '1' );
FILE_NAME ('327019.step',
    '2021-12-01T10:40:20',
    ( '' ),
    ( '' ),
    'SwSTEP 2.0',
    'SolidWorks 2019',
    '' );
FILE_SCHEMA (( 'CONFIG_CONTROL_DESIGN' ));
ENDSEC;

DATA;
#1 = VERTEX_POINT ( 'NONE', #201 ) ;
#2 = PERSON_AND_ORGANIZATION ( #268, #157 ) ;
#3 = CIRCLE ( 'NONE', #232, 0.6199999999999999956 ) ;
#4 = FACE_OUTER_BOUND ( 'NONE', #166, .T. ) ;
#5 = ORIENTED_EDGE ( 'NONE', *, *, #116, .T. ) ;
#6 = DESIGN_CONTEXT ( 'detailed design', #224, 'design' ) ;
#7 = SHAPE_DEFINITION_REPRESENTATION ( #298, #279 ) ;
#8 = EDGE_LOOP ( 'NONE', ( #127 ) ) ;
#9 = EDGE_CURVE ( 'NONE', #138, #138, #50, .T. ) ;
#10 = FACE_BOUND ( 'NONE', #264, .T. ) ;
#11 = ORIENTED_EDGE ( 'NONE', *, *, #262, .T. ) ;
#12 = FACE_BOUND ( 'NONE', #190, .T. ) ;
#13 = PLANE ( 'NONE',  #33 ) ;
#14 = CYLINDRICAL_SURFACE ( 'NONE', #202, 1.500000000000000444 ) ;
#15 = CARTESIAN_POINT ( 'NONE',  ( 2.094888803305880013E-14, 4.649255326251747363E-33, 6.000000000000000000 ) ) ;
#16 = AXIS2_PLACEMENT_3D ( 'NONE', #74, #126, #102 ) ;
#17 = DIRECTION ( 'NONE',  ( 0.0000000000000000000, 1.000000000000000000, 0.0000000000000000000 ) ) ;
#18 = APPROVAL ( #169, 'UNSPECIFIED' ) ;
#19 = PERSON_AND_ORGANIZATION_ROLE ( 'design_owner' ) ;
#20 = AXIS2_PLACEMENT_3D ( 'NONE', #84, #174, #243 ) ;
#21 = CARTESIAN_POINT ( 'NONE',  ( 6.599937386400436398E-14, 1.499999999999995559, 18.90297196486594444 ) ) ;
#22 = VERTEX_POINT ( 'NONE', #204 ) ;
#23 = DIRECTION ( 'NONE',  ( 3.491481338843133355E-15, -1.224646799147353207E-16, 1.000000000000000000 ) ) ;
#24 = COORDINATED_UNIVERSAL_TIME_OFFSET ( 1, 0, .AHEAD. ) ;
#25 = ORIENTED_EDGE ( 'NONE', *, *, #219, .T. ) ;
#26 = CC_DESIGN_PERSON_AND_ORGANIZATION_ASSIGNMENT ( #182, #27, ( #206 ) ) ;
#27 = PERSON_AND_ORGANIZATION_ROLE ( 'creator' ) ;
#28 = ORIENTED_EDGE ( 'NONE', *, *, #9, .F. ) ;
#29 = CALENDAR_DATE ( 2021, 1, 12 ) ;
#30 = APPROVAL ( #282, 'UNSPECIFIED' ) ;
#31 = ORIENTED_EDGE ( 'NONE', *, *, #97, .F. ) ;
#32 = APPROVAL_DATE_TIME ( #238, #30 ) ;
#33 = AXIS2_PLACEMENT_3D ( 'NONE', #15, #242, #134 ) ;
#34 = EDGE_LOOP ( 'NONE', ( #49 ) ) ;
#35 = APPROVAL_PERSON_ORGANIZATION ( #95, #30, #283 ) ;
#36 = EDGE_LOOP ( 'NONE', ( #290 ) ) ;
#37 = DIRECTION ( 'NONE',  ( 0.0000000000000000000, 1.000000000000000000, 0.0000000000000000000 ) ) ;
#38 = FACE_BOUND ( 'NONE', #193, .T. ) ;
#39 = DIRECTION ( 'NONE',  ( 0.0000000000000000000, 1.000000000000000000, 0.0000000000000000000 ) ) ;
#40 = FACE_OUTER_BOUND ( 'NONE', #80, .T. ) ;
#41 = DIRECTION ( 'NONE',  ( 3.491481338843133355E-15, -1.224646799147353207E-16, 1.000000000000000000 ) ) ;
#42 = COORDINATED_UNIVERSAL_TIME_OFFSET ( 1, 0, .AHEAD. ) ;
#43 = ADVANCED_FACE ( 'NONE', ( #10, #124 ), #123, .T. ) ;
#44 = CARTESIAN_POINT ( 'NONE',  ( 2.094888803305880013E-14, 0.6199999999999992184, 6.000000000000000000 ) ) ;
#45 = DIRECTION ( 'NONE',  ( 1.000000000000000000, 0.0000000000000000000, 0.0000000000000000000 ) ) ;
#46 = ADVANCED_FACE ( 'NONE', ( #261, #237 ), #289, .T. ) ;
#47 = DIRECTION ( 'NONE',  ( -3.491481338843133355E-15, 1.224646799147353207E-16, -1.000000000000000000 ) ) ;
#48 = CALENDAR_DATE ( 2021, 1, 12 ) ;
#49 = ORIENTED_EDGE ( 'NONE', *, *, #276, .F. ) ;
#50 = CIRCLE ( 'NONE', #213, 0.4899999999999991029 ) ;
#51 = APPROVAL_PERSON_ORGANIZATION ( #2, #18, #288 ) ;
#52 = DIRECTION ( 'NONE',  ( 3.491481338843133355E-15, -1.224646799147353207E-16, 1.000000000000000000 ) ) ;
#53 = APPROVAL_DATE_TIME ( #191, #18 ) ;
#54 = DIRECTION ( 'NONE',  ( 0.0000000000000000000, -1.000000000000000000, 0.0000000000000000000 ) ) ;
#55 = ADVANCED_FACE ( 'NONE', ( #4 ), #96, .F. ) ;
#56 = DIRECTION ( 'NONE',  ( 4.275831445896958607E-31, 1.000000000000000000, 1.224646799147353207E-16 ) ) ;
#57 = ORIENTED_EDGE ( 'NONE', *, *, #130, .F. ) ;
#58 = PRODUCT_DEFINITION_FORMATION_WITH_SPECIFIED_SOURCE ( 'ANY', '', #247, .NOT_KNOWN. ) ;
#59 = DIRECTION ( 'NONE',  ( 4.275831445896958607E-31, 1.000000000000000000, 1.224646799147353207E-16 ) ) ;
#60 = EDGE_CURVE ( 'NONE', #163, #163, #106, .T. ) ;
#61 = DIRECTION ( 'NONE',  ( -3.491481338843133355E-15, 1.224646799147353207E-16, -1.000000000000000000 ) ) ;
#62 = FACE_BOUND ( 'NONE', #187, .T. ) ;
#63 = CC_DESIGN_APPROVAL ( #83, ( #206 ) ) ;
#64 = FACE_OUTER_BOUND ( 'NONE', #129, .T. ) ;
#65 = FACE_OUTER_BOUND ( 'NONE', #215, .T. ) ;
#66 = AXIS2_PLACEMENT_3D ( 'NONE', #246, #198, #173 ) ;
#67 = SECURITY_CLASSIFICATION ( '', '', #205 ) ;
#68 = ADVANCED_FACE ( 'NONE', ( #135 ), #196, .F. ) ;
#69 = UNCERTAINTY_MEASURE_WITH_UNIT (LENGTH_MEASURE( 1.000000000000000082E-05 ), #89, 'distance_accuracy_value', 'NONE');
#70 = DIRECTION ( 'NONE',  ( -3.106338619979416777E-31, -1.000000000000000000, -8.743565907141176361E-17 ) ) ;
#71 = DIRECTION ( 'NONE',  ( 0.0000000000000000000, 0.0000000000000000000, 1.000000000000000000 ) ) ;
#72 = CIRCLE ( 'NONE', #240, 0.4899999999999998801 ) ;
#73 = CC_DESIGN_DATE_AND_TIME_ASSIGNMENT ( #125, #236, ( #206 ) ) ;
#74 = CARTESIAN_POINT ( 'NONE',  ( 1.326762908760390423E-13, 8.998558695971103225E-33, 38.00000000000000000 ) ) ;
#75 = AXIS2_PLACEMENT_3D ( 'NONE', #217, #223, #17 ) ;
#76 = LOCAL_TIME ( 11, 40, 20.00000000000000000, #144 ) ;
#77 = EDGE_LOOP ( 'NONE', ( #11 ) ) ;
#78 = PERSON_AND_ORGANIZATION_ROLE ( 'design_supplier' ) ;
#79 = DIRECTION ( 'NONE',  ( -3.491481338843133355E-15, 1.224646799147353207E-16, -1.000000000000000000 ) ) ;
#80 = EDGE_LOOP ( 'NONE', ( #25 ) ) ;
#81 =( GEOMETRIC_REPRESENTATION_CONTEXT ( 3 ) GLOBAL_UNCERTAINTY_ASSIGNED_CONTEXT ( ( #69 ) ) GLOBAL_UNIT_ASSIGNED_CONTEXT ( ( #89, #117, #299 ) ) REPRESENTATION_CONTEXT ( 'NONE', 'WORKASPACE' ) );
#82 = DIRECTION ( 'NONE',  ( -3.491481338843133355E-15, 1.224646799147353207E-16, -1.000000000000000000 ) ) ;
#83 = APPROVAL ( #161, 'UNSPECIFIED' ) ;
#84 = CARTESIAN_POINT ( 'NONE',  ( 4.538925740496073362E-14, -1.734723475976807094E-15, 13.00000000000000000 ) ) ;
#85 = DIRECTION ( 'NONE',  ( 0.0000000000000000000, 1.000000000000000000, 0.0000000000000000000 ) ) ;
#86 = CARTESIAN_POINT ( 'NONE',  ( 0.0000000000000000000, 0.0000000000000000000, 0.0000000000000000000 ) ) ;
#87 = AXIS2_PLACEMENT_3D ( 'NONE', #119, #47, #180 ) ;
#88 = DIRECTION ( 'NONE',  ( 4.275831445896958607E-31, 1.000000000000000000, 1.224646799147353207E-16 ) ) ;
#89 =( LENGTH_UNIT ( ) NAMED_UNIT ( * ) SI_UNIT ( .MILLI., .METRE. ) );
#90 = CARTESIAN_POINT ( 'NONE',  ( 2.094888803305880013E-14, 0.6199999999999992184, 6.000000000000000000 ) ) ;
#91 = APPROVAL_DATE_TIME ( #301, #83 ) ;
#92 = VERTEX_POINT ( 'NONE', #44 ) ;
#93 = MANIFOLD_SOLID_BREP ( 'Corps-Déplacer/Copier1[1]', #194 ) ;
#94 = MANIFOLD_SOLID_BREP ( 'Corps-Déplacer/Copier1[2]', #197 ) ;
#95 = PERSON_AND_ORGANIZATION ( #268, #157 ) ;
#96 = PLANE ( 'NONE',  #16 ) ;
#97 = EDGE_CURVE ( 'NONE', #121, #121, #118, .T. ) ;
#98 = COORDINATED_UNIVERSAL_TIME_OFFSET ( 1, 0, .AHEAD. ) ;
#99 = EDGE_LOOP ( 'NONE', ( #151 ) ) ;
#100 = AXIS2_PLACEMENT_3D ( 'NONE', #192, #171, #210 ) ;
#101 = EDGE_LOOP ( 'NONE', ( #28 ) ) ;
#102 = DIRECTION ( 'NONE',  ( 4.275831445896958607E-31, 1.000000000000000000, 1.224646799147353207E-16 ) ) ;
#103 = ORIENTED_EDGE ( 'NONE', *, *, #60, .F. ) ;
#104 = APPLICATION_CONTEXT ( 'configuration controlled 3d designs of mechanical parts and assemblies' ) ;
#105 = CC_DESIGN_PERSON_AND_ORGANIZATION_ASSIGNMENT ( #263, #78, ( #58 ) ) ;
#106 = CIRCLE ( 'NONE', #100, 1.500000000000003331 ) ;
#107 = CONICAL_SURFACE ( 'NONE', #176, 0.4899999999999991029, 0.5235987755982932645 ) ;
#108 = FACE_OUTER_BOUND ( 'NONE', #99, .T. ) ;
#109 = CARTESIAN_POINT ( 'NONE',  ( -3.926588213764762127E-31, 1.377261746771944032E-32, -1.124619561926628284E-16 ) ) ;
#110 = DIRECTION ( 'NONE',  ( 0.0000000000000000000, 1.000000000000000000, 0.0000000000000000000 ) ) ;
#111 = DIRECTION ( 'NONE',  ( 0.0000000000000000000, 1.000000000000000000, 0.0000000000000000000 ) ) ;
#112 = AXIS2_PLACEMENT_3D ( 'NONE', #218, #160, #37 ) ;
#113 = AXIS2_PLACEMENT_3D ( 'NONE', #162, #71, #45 ) ;
#114 = CARTESIAN_POINT ( 'NONE',  ( 2.094888803305880013E-14, -7.347880794884119736E-16, 6.000000000000000000 ) ) ;
#115 = APPLICATION_PROTOCOL_DEFINITION ( 'international standard', 'config_control_design', 1994, #224 ) ;
#116 = EDGE_CURVE ( 'NONE', #297, #297, #72, .T. ) ;
#117 =( NAMED_UNIT ( * ) PLANE_ANGLE_UNIT ( ) SI_UNIT ( $, .RADIAN. ) );
#118 = CIRCLE ( 'NONE', #147, 0.4756624327025948396 ) ;
#119 = CARTESIAN_POINT ( 'NONE',  ( 4.660183614865709749E-14, -1.634572375883073005E-15, 13.34729635533384773 ) ) ;
#120 = EDGE_CURVE ( 'NONE', #22, #22, #271, .T. ) ;
#121 = VERTEX_POINT ( 'NONE', #229 ) ;
#122 = PERSON_AND_ORGANIZATION_ROLE ( 'creator' ) ;
#123 = CONICAL_SURFACE ( 'NONE', #167, 1.499999999999997780, 0.1745329251994259812 ) ;
#124 = FACE_OUTER_BOUND ( 'NONE', #241, .T. ) ;
#125 = DATE_AND_TIME ( #185, #76 ) ;
#126 = DIRECTION ( 'NONE',  ( -3.491481338843133355E-15, 1.224646799147353207E-16, -1.000000000000000000 ) ) ;
#127 = ORIENTED_EDGE ( 'NONE', *, *, #186, .T. ) ;
#128 = CIRCLE ( 'NONE', #184, 0.6199999999999992184 ) ;
#129 = EDGE_LOOP ( 'NONE', ( #287 ) ) ;
#130 = EDGE_CURVE ( 'NONE', #303, #303, #295, .T. ) ;
#131 = EDGE_LOOP ( 'NONE', ( #149 ) ) ;
#132 = DIRECTION ( 'NONE',  ( -3.491481338843133355E-15, 1.224646799147353207E-16, -1.000000000000000000 ) ) ;
#133 = CARTESIAN_POINT ( 'NONE',  ( 2.173505303249095757E-14, -7.623630356952600666E-16, 6.225166604983958685 ) ) ;
#134 = DIRECTION ( 'NONE',  ( -4.275831445896958607E-31, -1.000000000000000000, -1.224646799147353207E-16 ) ) ;
#135 = FACE_OUTER_BOUND ( 'NONE', #36, .T. ) ;
#136 = DIRECTION ( 'NONE',  ( -4.275831445896958607E-31, -1.000000000000000000, -1.224646799147353207E-16 ) ) ;
#137 = AXIS2_PLACEMENT_3D ( 'NONE', #291, #61, #39 ) ;
#138 = VERTEX_POINT ( 'NONE', #199 ) ;
#139 = CALENDAR_DATE ( 2021, 1, 12 ) ;
#140 = CC_DESIGN_DATE_AND_TIME_ASSIGNMENT ( #211, #209, ( #67 ) ) ;
#141 = CIRCLE ( 'NONE', #75, 0.6199999999999999956 ) ;
#142 = APPLICATION_PROTOCOL_DEFINITION ( 'international standard', 'config_control_design', 1994, #104 ) ;
#143 = MECHANICAL_CONTEXT ( 'NONE', #104, 'mechanical' ) ;
#144 = COORDINATED_UNIVERSAL_TIME_OFFSET ( 1, 0, .AHEAD. ) ;
#145 = ADVANCED_FACE ( 'NONE', ( #294, #40 ), #216, .T. ) ;
#146 = CARTESIAN_POINT ( 'NONE',  ( 2.173505303249095757E-14, -7.623630356952600666E-16, 6.225166604983958685 ) ) ;
#147 = AXIS2_PLACEMENT_3D ( 'NONE', #109, #267, #59 ) ;
#148 = LOCAL_TIME ( 11, 40, 20.00000000000000000, #24 ) ;
#149 = ORIENTED_EDGE ( 'NONE', *, *, #219, .F. ) ;
#150 = PERSON_AND_ORGANIZATION_ROLE ( 'classification_officer' ) ;
#151 = ORIENTED_EDGE ( 'NONE', *, *, #116, .F. ) ;
#152 = CIRCLE ( 'NONE', #87, 0.5203844939755823962 ) ;
#153 = ORIENTED_EDGE ( 'NONE', *, *, #130, .T. ) ;
#154 = CARTESIAN_POINT ( 'NONE',  ( 4.538925740496072731E-14, -1.592040838891558898E-15, 12.99999999999999822 ) ) ;
#155 = FACE_OUTER_BOUND ( 'NONE', #77, .T. ) ;
#156 = ADVANCED_FACE ( 'NONE', ( #269 ), #13, .T. ) ;
#157 = ORGANIZATION ( 'UNSPECIFIED', 'UNSPECIFIED', '' ) ;
#158 = FACE_OUTER_BOUND ( 'NONE', #235, .T. ) ;
#159 = CARTESIAN_POINT ( 'NONE',  ( 2.094888803305880013E-14, 4.649255326251747363E-33, 6.000000000000000000 ) ) ;
#160 = DIRECTION ( 'NONE',  ( -3.491481338843133355E-15, 1.224646799147353207E-16, -1.000000000000000000 ) ) ;
#161 = APPROVAL_STATUS ( 'not_yet_approved' ) ;
#162 = CARTESIAN_POINT ( 'NONE',  ( 0.0000000000000000000, 0.0000000000000000000, 0.0000000000000000000 ) ) ;
#163 = VERTEX_POINT ( 'NONE', #183 ) ;
#164 = ADVANCED_FACE ( 'NONE', ( #65, #12 ), #221, .T. ) ;
#165 = ORIENTED_EDGE ( 'NONE', *, *, #120, .T. ) ;
#166 = EDGE_LOOP ( 'NONE', ( #256 ) ) ;
#167 = AXIS2_PLACEMENT_3D ( 'NONE', #259, #52, #54 ) ;
#168 = EDGE_LOOP ( 'NONE', ( #189 ) ) ;
#169 = APPROVAL_STATUS ( 'not_yet_approved' ) ;
#170 = EDGE_LOOP ( 'NONE', ( #57 ) ) ;
#171 = DIRECTION ( 'NONE',  ( -3.491481338843133355E-15, 1.224646799147353207E-16, -1.000000000000000000 ) ) ;
#172 = LOCAL_TIME ( 11, 40, 20.00000000000000000, #98 ) ;
#173 = DIRECTION ( 'NONE',  ( -4.275831445896958607E-31, -1.000000000000000000, -1.224646799147353207E-16 ) ) ;
#174 = DIRECTION ( 'NONE',  ( -3.491481338843133355E-15, 1.224646799147353207E-16, -1.000000000000000000 ) ) ;
#175 = DIRECTION ( 'NONE',  ( -3.491481338843133355E-15, 1.224646799147353207E-16, -1.000000000000000000 ) ) ;
#176 = AXIS2_PLACEMENT_3D ( 'NONE', #133, #175, #270 ) ;
#177 = CARTESIAN_POINT ( 'NONE',  ( 0.0000000000000000000, 0.0000000000000000000, 0.0000000000000000000 ) ) ;
#178 = ADVANCED_FACE ( 'NONE', ( #293, #64 ), #14, .T. ) ;
#179 = CARTESIAN_POINT ( 'NONE',  ( 6.599937386400436398E-14, -2.314946411114523329E-15, 18.90297196486594444 ) ) ;
#180 = DIRECTION ( 'NONE',  ( 0.0000000000000000000, 1.000000000000000000, 0.0000000000000000000 ) ) ;
#181 = ADVANCED_FACE ( 'NONE', ( #272 ), #248, .F. ) ;
#182 = PERSON_AND_ORGANIZATION ( #268, #157 ) ;
#183 = CARTESIAN_POINT ( 'NONE',  ( 1.316288464743861212E-13, 1.499999999999998668, 37.69999999999999574 ) ) ;
#184 = AXIS2_PLACEMENT_3D ( 'NONE', #274, #227, #226 ) ;
#185 = CALENDAR_DATE ( 2021, 1, 12 ) ;
#186 = EDGE_CURVE ( 'NONE', #255, #255, #141, .T. ) ;
#187 = EDGE_LOOP ( 'NONE', ( #31 ) ) ;
#188 = CALENDAR_DATE ( 2021, 1, 12 ) ;
#189 = ORIENTED_EDGE ( 'NONE', *, *, #186, .F. ) ;
#190 = EDGE_LOOP ( 'NONE', ( #165 ) ) ;
#191 = DATE_AND_TIME ( #48, #172 ) ;
#192 = CARTESIAN_POINT ( 'NONE',  ( 1.316288464743861212E-13, -4.616918432785521081E-15, 37.69999999999999574 ) ) ;
#193 = EDGE_LOOP ( 'NONE', ( #214 ) ) ;
#194 = CLOSED_SHELL ( 'NONE', ( #181, #245, #46, #225, #43, #178, #164, #55 ) ) ;
#195 = DIRECTION ( 'NONE',  ( -3.491481338843133355E-15, 1.224646799147353207E-16, -1.000000000000000000 ) ) ;
#196 = PLANE ( 'NONE',  #66 ) ;
#197 = CLOSED_SHELL ( 'NONE', ( #68, #257, #145, #156 ) ) ;
#198 = DIRECTION ( 'NONE',  ( 3.491481338843133355E-15, -1.224646799147353207E-16, 1.000000000000000000 ) ) ;
#199 = CARTESIAN_POINT ( 'NONE',  ( 2.173505303249095757E-14, 0.4899999999999983813, 6.225166604983958685 ) ) ;
#200 = PERSON_AND_ORGANIZATION ( #268, #157 ) ;
#201 = CARTESIAN_POINT ( 'NONE',  ( 8.728703347107833388E-16, 0.6199999999999992184, 0.2500000000000000000 ) ) ;
#202 = AXIS2_PLACEMENT_3D ( 'NONE', #86, #296, #88 ) ;
#203 = CARTESIAN_POINT ( 'NONE',  ( 4.538925740496072731E-14, 0.4899999999999982703, 12.99999999999999822 ) ) ;
#204 = CARTESIAN_POINT ( 'NONE',  ( 1.326762908760390423E-13, 1.199999999999998845, 38.00000000000000000 ) ) ;
#205 = SECURITY_CLASSIFICATION_LEVEL ( 'unclassified' ) ;
#206 = PRODUCT_DEFINITION ( 'UNKNOWN', '', #58, #6 ) ;
#207 = PERSON_AND_ORGANIZATION ( #268, #157 ) ;
#208 = CARTESIAN_POINT ( 'NONE',  ( 0.0000000000000000000, 0.0000000000000000000, 0.0000000000000000000 ) ) ;
#209 = DATE_TIME_ROLE ( 'classification_date' ) ;
#210 = DIRECTION ( 'NONE',  ( 0.0000000000000000000, 1.000000000000000000, 0.0000000000000000000 ) ) ;
#211 = DATE_AND_TIME ( #29, #265 ) ;
#212 = ORIENTED_EDGE ( 'NONE', *, *, #262, .F. ) ;
#213 = AXIS2_PLACEMENT_3D ( 'NONE', #146, #260, #233 ) ;
#214 = ORIENTED_EDGE ( 'NONE', *, *, #9, .T. ) ;
#215 = EDGE_LOOP ( 'NONE', ( #103 ) ) ;
#216 = CYLINDRICAL_SURFACE ( 'NONE', #300, 0.6199999999999996625 ) ;
#217 = CARTESIAN_POINT ( 'NONE',  ( 2.094888803305880013E-14, -7.347880794884119736E-16, 6.000000000000000000 ) ) ;
#218 = CARTESIAN_POINT ( 'NONE',  ( 1.326762908760390423E-13, -4.653657836759941941E-15, 38.00000000000000000 ) ) ;
#219 = EDGE_CURVE ( 'NONE', #92, #92, #3, .T. ) ;
#220 = DIRECTION ( 'NONE',  ( 4.275831445896958607E-31, 1.000000000000000000, 1.224646799147353207E-16 ) ) ;
#221 = CONICAL_SURFACE ( 'NONE', #112, 1.200000000000003286, 0.7853981633974453924 ) ;
#222 = CC_DESIGN_APPROVAL ( #30, ( #67 ) ) ;
#223 = DIRECTION ( 'NONE',  ( -3.491481338843133355E-15, 1.224646799147353207E-16, -1.000000000000000000 ) ) ;
#224 = APPLICATION_CONTEXT ( 'configuration controlled 3d designs of mechanical parts and assemblies' ) ;
#225 = ADVANCED_FACE ( 'NONE', ( #108, #155 ), #286, .F. ) ;
#226 = DIRECTION ( 'NONE',  ( 3.106338619979416777E-31, 1.000000000000000000, 8.743565907141176361E-17 ) ) ;
#227 = DIRECTION ( 'NONE',  ( -3.491481338843133355E-15, 1.224646799147353207E-16, -1.000000000000000000 ) ) ;
#228 = LOCAL_TIME ( 11, 40, 20.00000000000000000, #42 ) ;
#229 = CARTESIAN_POINT ( 'NONE',  ( -1.892735826383160919E-31, 0.4756624327025948396, -5.421010862427522170E-17 ) ) ;
#230 = PERSON_AND_ORGANIZATION ( #268, #157 ) ;
#231 = COORDINATED_UNIVERSAL_TIME_OFFSET ( 1, 0, .AHEAD. ) ;
#232 = AXIS2_PLACEMENT_3D ( 'NONE', #114, #132, #85 ) ;
#233 = DIRECTION ( 'NONE',  ( 0.0000000000000000000, 1.000000000000000000, 0.0000000000000000000 ) ) ;
#234 = AXIS2_PLACEMENT_3D ( 'NONE', #159, #41, #136 ) ;
#235 = EDGE_LOOP ( 'NONE', ( #239 ) ) ;
#236 = DATE_TIME_ROLE ( 'creation_date' ) ;
#237 = FACE_OUTER_BOUND ( 'NONE', #284, .T. ) ;
#238 = DATE_AND_TIME ( #188, #148 ) ;
#239 = ORIENTED_EDGE ( 'NONE', *, *, #276, .T. ) ;
#240 = AXIS2_PLACEMENT_3D ( 'NONE', #154, #82, #110 ) ;
#241 = EDGE_LOOP ( 'NONE', ( #153 ) ) ;
#242 = DIRECTION ( 'NONE',  ( 3.491481338843133355E-15, -1.224646799147353207E-16, 1.000000000000000000 ) ) ;
#243 = DIRECTION ( 'NONE',  ( 4.275831445896958607E-31, 1.000000000000000000, 1.224646799147353207E-16 ) ) ;
#244 = CARTESIAN_POINT ( 'NONE',  ( 8.728703347107831416E-16, -3.061616997868382402E-17, 0.2499999999999999445 ) ) ;
#245 = ADVANCED_FACE ( 'NONE', ( #292, #38 ), #107, .T. ) ;
#246 = CARTESIAN_POINT ( 'NONE',  ( -1.963294106882381063E-31, 6.886308733859720161E-33, -5.623097809633141421E-17 ) ) ;
#247 = PRODUCT ( '327019', '327019', '', ( #143 ) ) ;
#248 = PLANE ( 'NONE',  #234 ) ;
#249 = CC_DESIGN_SECURITY_CLASSIFICATION ( #67, ( #58 ) ) ;
#250 = APPROVAL_ROLE ( '' ) ;
#251 = VERTEX_POINT ( 'NONE', #277 ) ;
#252 = CONICAL_SURFACE ( 'NONE', #280, 0.6199999999999992184, 0.5235987755982925984 ) ;
#253 = APPROVAL_PERSON_ORGANIZATION ( #200, #83, #250 ) ;
#254 = CC_DESIGN_PERSON_AND_ORGANIZATION_ASSIGNMENT ( #230, #19, ( #247 ) ) ;
#255 = VERTEX_POINT ( 'NONE', #90 ) ;
#256 = ORIENTED_EDGE ( 'NONE', *, *, #120, .F. ) ;
#257 = ADVANCED_FACE ( 'NONE', ( #62, #158 ), #252, .T. ) ;
#258 = AXIS2_PLACEMENT_3D ( 'NONE', #208, #79, #56 ) ;
#259 = CARTESIAN_POINT ( 'NONE',  ( 6.599937386400436398E-14, -2.314946411114523329E-15, 18.90297196486594444 ) ) ;
#260 = DIRECTION ( 'NONE',  ( -3.491481338843133355E-15, 1.224646799147353207E-16, -1.000000000000000000 ) ) ;
#261 = FACE_OUTER_BOUND ( 'NONE', #101, .T. ) ;
#262 = EDGE_CURVE ( 'NONE', #251, #251, #152, .T. ) ;
#263 = PERSON_AND_ORGANIZATION ( #268, #157 ) ;
#264 = EDGE_LOOP ( 'NONE', ( #212 ) ) ;
#265 = LOCAL_TIME ( 11, 40, 20.00000000000000000, #231 ) ;
#266 = CC_DESIGN_PERSON_AND_ORGANIZATION_ASSIGNMENT ( #285, #122, ( #58 ) ) ;
#267 = DIRECTION ( 'NONE',  ( -3.491481338843133355E-15, 1.224646799147353207E-16, -1.000000000000000000 ) ) ;
#268 = PERSON ( 'UNSPECIFIED', 'UNSPECIFIED', 'UNSPECIFIED', ('UNSPECIFIED'), ('UNSPECIFIED'), ('UNSPECIFIED') ) ;
#269 = FACE_OUTER_BOUND ( 'NONE', #131, .T. ) ;
#270 = DIRECTION ( 'NONE',  ( 0.0000000000000000000, 1.000000000000000000, 0.0000000000000000000 ) ) ;
#271 = CIRCLE ( 'NONE', #137, 1.200000000000003286 ) ;
#272 = FACE_OUTER_BOUND ( 'NONE', #8, .T. ) ;
#273 = DIRECTION ( 'NONE',  ( -3.491481338843133355E-15, 1.224646799147353207E-16, -1.000000000000000000 ) ) ;
#274 = CARTESIAN_POINT ( 'NONE',  ( 8.728703347107831416E-16, -3.061616997868382402E-17, 0.2499999999999999445 ) ) ;
#275 = AXIS2_PLACEMENT_3D ( 'NONE', #179, #273, #111 ) ;
#276 = EDGE_CURVE ( 'NONE', #1, #1, #128, .T. ) ;
#277 = CARTESIAN_POINT ( 'NONE',  ( 4.660183614865709749E-14, 0.5203844939755807308, 13.34729635533384773 ) ) ;
#278 = PRODUCT_RELATED_PRODUCT_CATEGORY ( 'detail', '', ( #247 ) ) ;
#279 = ADVANCED_BREP_SHAPE_REPRESENTATION ( '327019', ( #93, #94, #113 ), #81 ) ;
#280 = AXIS2_PLACEMENT_3D ( 'NONE', #244, #23, #70 ) ;
#281 = CC_DESIGN_APPROVAL ( #18, ( #58 ) ) ;
#282 = APPROVAL_STATUS ( 'not_yet_approved' ) ;
#283 = APPROVAL_ROLE ( '' ) ;
#284 = EDGE_LOOP ( 'NONE', ( #5 ) ) ;
#285 = PERSON_AND_ORGANIZATION ( #268, #157 ) ;
#286 = TOROIDAL_SURFACE ( 'NONE', #20, 2.490000000000000213, 2.000000000000000000 ) ;
#287 = ORIENTED_EDGE ( 'NONE', *, *, #60, .T. ) ;
#288 = APPROVAL_ROLE ( '' ) ;
#289 = CYLINDRICAL_SURFACE ( 'NONE', #258, 0.4899999999999995470 ) ;
#290 = ORIENTED_EDGE ( 'NONE', *, *, #97, .T. ) ;
#291 = CARTESIAN_POINT ( 'NONE',  ( 1.326762908760390423E-13, -4.653657836759941941E-15, 38.00000000000000000 ) ) ;
#292 = FACE_OUTER_BOUND ( 'NONE', #168, .T. ) ;
#293 = FACE_OUTER_BOUND ( 'NONE', #170, .T. ) ;
#294 = FACE_OUTER_BOUND ( 'NONE', #34, .T. ) ;
#295 = CIRCLE ( 'NONE', #275, 1.499999999999997780 ) ;
#296 = DIRECTION ( 'NONE',  ( -3.491481338843133355E-15, 1.224646799147353207E-16, -1.000000000000000000 ) ) ;
#297 = VERTEX_POINT ( 'NONE', #203 ) ;
#298 = PRODUCT_DEFINITION_SHAPE ( 'NONE', 'NONE',  #206 ) ;
#299 =( NAMED_UNIT ( * ) SI_UNIT ( $, .STERADIAN. ) SOLID_ANGLE_UNIT ( ) );
#300 = AXIS2_PLACEMENT_3D ( 'NONE', #177, #195, #220 ) ;
#301 = DATE_AND_TIME ( #139, #228 ) ;
#302 = CC_DESIGN_PERSON_AND_ORGANIZATION_ASSIGNMENT ( #207, #150, ( #67 ) ) ;
#303 = VERTEX_POINT ( 'NONE', #21 ) ;
ENDSEC;
END-ISO-10303-21;
