ISO-10303-21;
HEADER;
FILE_DESCRIPTION (( 'STEP AP203' ),
    '1' );
FILE_NAME ('327018.step',
    '2021-12-01T10:40:19',
    ( '' ),
    ( '' ),
    'SwSTEP 2.0',
    'SolidWorks 2019',
    '' );
FILE_SCHEMA (( 'CONFIG_CONTROL_DESIGN' ));
ENDSEC;

DATA;
#1 = DIRECTION ( 'NONE',  ( 3.131593405507704487E-31, 1.000000000000000000, 8.814651808825250314E-17 ) ) ;
#2 = PERSON ( 'UNSPECIFIED', 'UNSPECIFIED', 'UNSPECIFIED', ('UNSPECIFIED'), ('UNSPECIFIED'), ('UNSPECIFIED') ) ;
#3 = AXIS2_PLACEMENT_3D ( 'NONE', #66, #93, #282 ) ;
#4 = ORIENTED_EDGE ( 'NONE', *, *, #140, .T. ) ;
#5 = VERTEX_POINT ( 'NONE', #46 ) ;
#6 = APPROVAL_DATE_TIME ( #290, #193 ) ;
#7 = EDGE_LOOP ( 'NONE', ( #144 ) ) ;
#8 = APPROVAL_PERSON_ORGANIZATION ( #30, #193, #130 ) ;
#9 = EDGE_CURVE ( 'NONE', #281, #281, #226, .T. ) ;
#10 = DIRECTION ( 'NONE',  ( -3.491481338843133355E-15, 1.224646799147353207E-16, -1.000000000000000000 ) ) ;
#11 = ORIENTED_EDGE ( 'NONE', *, *, #272, .T. ) ;
#12 = FACE_OUTER_BOUND ( 'NONE', #247, .T. ) ;
#13 = AXIS2_PLACEMENT_3D ( 'NONE', #285, #303, #117 ) ;
#14 = CC_DESIGN_PERSON_AND_ORGANIZATION_ASSIGNMENT ( #194, #198, ( #263 ) ) ;
#15 = FACE_BOUND ( 'NONE', #246, .T. ) ;
#16 = DIRECTION ( 'NONE',  ( -3.491481338843133355E-15, 1.224646799147353207E-16, -1.000000000000000000 ) ) ;
#17 = CARTESIAN_POINT ( 'NONE',  ( 1.326762908760390423E-13, -4.653657836759941941E-15, 38.00000000000000000 ) ) ;
#18 = AXIS2_PLACEMENT_3D ( 'NONE', #98, #92, #170 ) ;
#19 = CARTESIAN_POINT ( 'NONE',  ( 0.0000000000000000000, 0.0000000000000000000, 0.0000000000000000000 ) ) ;
#20 = VERTEX_POINT ( 'NONE', #69 ) ;
#21 = DIRECTION ( 'NONE',  ( -3.491481338843133355E-15, 1.224646799147353207E-16, -1.000000000000000000 ) ) ;
#22 = VERTEX_POINT ( 'NONE', #230 ) ;
#23 = CARTESIAN_POINT ( 'NONE',  ( 4.538925740496073362E-14, -1.734723475976807094E-15, 13.00000000000000000 ) ) ;
#24 = ADVANCED_FACE ( 'NONE', ( #294, #250 ), #89, .T. ) ;
#25 = CARTESIAN_POINT ( 'NONE',  ( 4.660183614865709749E-14, -1.634572375883073005E-15, 13.34729635533384773 ) ) ;
#26 = DATE_AND_TIME ( #83, #109 ) ;
#27 = APPROVAL ( #105, 'UNSPECIFIED' ) ;
#28 = APPROVAL_ROLE ( '' ) ;
#29 = ORIENTED_EDGE ( 'NONE', *, *, #78, .F. ) ;
#30 = PERSON_AND_ORGANIZATION ( #2, #75 ) ;
#31 = PERSON_AND_ORGANIZATION_ROLE ( 'design_supplier' ) ;
#32 = APPLICATION_CONTEXT ( 'configuration controlled 3d designs of mechanical parts and assemblies' ) ;
#33 = CALENDAR_DATE ( 2021, 1, 12 ) ;
#34 = ORIENTED_EDGE ( 'NONE', *, *, #251, .F. ) ;
#35 = CONICAL_SURFACE ( 'NONE', #13, 0.6149999999999992140, 0.5235987755982921543 ) ;
#36 = ORIENTED_EDGE ( 'NONE', *, *, #67, .T. ) ;
#37 = DIRECTION ( 'NONE',  ( -3.491481338843133355E-15, 1.224646799147353207E-16, -1.000000000000000000 ) ) ;
#38 = CLOSED_SHELL ( 'NONE', ( #44, #187, #24, #255 ) ) ;
#39 = AXIS2_PLACEMENT_3D ( 'NONE', #284, #16, #148 ) ;
#40 = DIRECTION ( 'NONE',  ( 4.275831445896958607E-31, 1.000000000000000000, 1.224646799147353207E-16 ) ) ;
#41 = DIRECTION ( 'NONE',  ( -4.275831445896958607E-31, -1.000000000000000000, -1.224646799147353207E-16 ) ) ;
#42 = DIRECTION ( 'NONE',  ( 0.0000000000000000000, 1.000000000000000000, 0.0000000000000000000 ) ) ;
#43 = VERTEX_POINT ( 'NONE', #171 ) ;
#44 = ADVANCED_FACE ( 'NONE', ( #12 ), #227, .F. ) ;
#45 = FACE_OUTER_BOUND ( 'NONE', #107, .T. ) ;
#46 = CARTESIAN_POINT ( 'NONE',  ( 2.094888803305880013E-14, 0.6149999999999992140, 6.000000000000000000 ) ) ;
#47 = AXIS2_PLACEMENT_3D ( 'NONE', #70, #277, #40 ) ;
#48 = AXIS2_PLACEMENT_3D ( 'NONE', #262, #127, #50 ) ;
#49 = CARTESIAN_POINT ( 'NONE',  ( 8.728703347107831416E-16, -3.061616997868382402E-17, 0.2499999999999999445 ) ) ;
#50 = DIRECTION ( 'NONE',  ( 1.000000000000000000, 0.0000000000000000000, 0.0000000000000000000 ) ) ;
#51 = FACE_OUTER_BOUND ( 'NONE', #157, .T. ) ;
#52 = EDGE_CURVE ( 'NONE', #20, #20, #121, .T. ) ;
#53 = FACE_OUTER_BOUND ( 'NONE', #274, .T. ) ;
#54 = SECURITY_CLASSIFICATION ( '', '', #266 ) ;
#55 = PERSON_AND_ORGANIZATION ( #2, #75 ) ;
#56 = ORIENTED_EDGE ( 'NONE', *, *, #140, .F. ) ;
#57 = DATE_AND_TIME ( #141, #122 ) ;
#58 = EDGE_CURVE ( 'NONE', #5, #5, #108, .T. ) ;
#59 = ORIENTED_EDGE ( 'NONE', *, *, #78, .T. ) ;
#60 = DIRECTION ( 'NONE',  ( -3.491481338843133355E-15, 1.224646799147353207E-16, -1.000000000000000000 ) ) ;
#61 = CC_DESIGN_PERSON_AND_ORGANIZATION_ASSIGNMENT ( #137, #219, ( #54 ) ) ;
#62 = PRODUCT_DEFINITION_FORMATION_WITH_SPECIFIED_SOURCE ( 'ANY', '', #203, .NOT_KNOWN. ) ;
#63 = APPLICATION_CONTEXT ( 'configuration controlled 3d designs of mechanical parts and assemblies' ) ;
#64 = DIRECTION ( 'NONE',  ( -3.491481338843133355E-15, 1.224646799147353207E-16, -1.000000000000000000 ) ) ;
#65 = AXIS2_PLACEMENT_3D ( 'NONE', #279, #147, #283 ) ;
#66 = CARTESIAN_POINT ( 'NONE',  ( 6.599937386400436398E-14, -2.314946411114523329E-15, 18.90297196486594444 ) ) ;
#67 = EDGE_CURVE ( 'NONE', #212, #212, #276, .T. ) ;
#68 = DESIGN_CONTEXT ( 'detailed design', #63, 'design' ) ;
#69 = CARTESIAN_POINT ( 'NONE',  ( 4.538925740496072731E-14, 0.4899999999999982703, 12.99999999999999822 ) ) ;
#70 = CARTESIAN_POINT ( 'NONE',  ( 1.326762908760390423E-13, 8.998558695971103225E-33, 38.00000000000000000 ) ) ;
#71 =( NAMED_UNIT ( * ) SI_UNIT ( $, .STERADIAN. ) SOLID_ANGLE_UNIT ( ) );
#72 = FACE_OUTER_BOUND ( 'NONE', #217, .T. ) ;
#73 = CARTESIAN_POINT ( 'NONE',  ( 4.660183614865709749E-14, 0.5203844939755807308, 13.34729635533384773 ) ) ;
#74 = CIRCLE ( 'NONE', #146, 1.200000000000003286 ) ;
#75 = ORGANIZATION ( 'UNSPECIFIED', 'UNSPECIFIED', '' ) ;
#76 = FACE_BOUND ( 'NONE', #110, .T. ) ;
#77 = VERTEX_POINT ( 'NONE', #128 ) ;
#78 = EDGE_CURVE ( 'NONE', #99, #99, #181, .T. ) ;
#79 = ORIENTED_EDGE ( 'NONE', *, *, #67, .F. ) ;
#80 = DATE_AND_TIME ( #33, #254 ) ;
#81 = EDGE_LOOP ( 'NONE', ( #34 ) ) ;
#82 = APPROVAL_DATE_TIME ( #57, #88 ) ;
#83 = CALENDAR_DATE ( 2021, 1, 12 ) ;
#84 = DATE_TIME_ROLE ( 'creation_date' ) ;
#85 = ORIENTED_EDGE ( 'NONE', *, *, #52, .T. ) ;
#86 = CIRCLE ( 'NONE', #218, 0.6149999999999999911 ) ;
#87 = CC_DESIGN_APPROVAL ( #193, ( #263 ) ) ;
#88 = APPROVAL ( #132, 'UNSPECIFIED' ) ;
#89 = CYLINDRICAL_SURFACE ( 'NONE', #248, 0.6149999999999996581 ) ;
#90 = EDGE_LOOP ( 'NONE', ( #245 ) ) ;
#91 = CIRCLE ( 'NONE', #211, 0.4706624327025950016 ) ;
#92 = DIRECTION ( 'NONE',  ( -3.491481338843133355E-15, 1.224646799147353207E-16, -1.000000000000000000 ) ) ;
#93 = DIRECTION ( 'NONE',  ( 3.491481338843133355E-15, -1.224646799147353207E-16, 1.000000000000000000 ) ) ;
#94 = TOROIDAL_SURFACE ( 'NONE', #102, 2.490000000000000213, 2.000000000000000000 ) ;
#95 = FACE_OUTER_BOUND ( 'NONE', #90, .T. ) ;
#96 = DIRECTION ( 'NONE',  ( -3.491481338843133355E-15, 1.224646799147353207E-16, -1.000000000000000000 ) ) ;
#97 = CARTESIAN_POINT ( 'NONE',  ( 2.170481591712817937E-14, 0.4899999999999983813, 6.216506350946114701 ) ) ;
#98 = CARTESIAN_POINT ( 'NONE',  ( 6.599937386400436398E-14, -2.314946411114523329E-15, 18.90297196486594444 ) ) ;
#99 = VERTEX_POINT ( 'NONE', #169 ) ;
#100 = PLANE ( 'NONE',  #47 ) ;
#101 =( NAMED_UNIT ( * ) PLANE_ANGLE_UNIT ( ) SI_UNIT ( $, .RADIAN. ) );
#102 = AXIS2_PLACEMENT_3D ( 'NONE', #23, #172, #264 ) ;
#103 = CC_DESIGN_APPROVAL ( #88, ( #62 ) ) ;
#104 = DIRECTION ( 'NONE',  ( 0.0000000000000000000, 1.000000000000000000, 0.0000000000000000000 ) ) ;
#105 = APPROVAL_STATUS ( 'not_yet_approved' ) ;
#106 = EDGE_CURVE ( 'NONE', #22, #22, #91, .T. ) ;
#107 = EDGE_LOOP ( 'NONE', ( #59 ) ) ;
#108 = CIRCLE ( 'NONE', #142, 0.6149999999999999911 ) ;
#109 = LOCAL_TIME ( 11, 40, 19.00000000000000000, #215 ) ;
#110 = EDGE_LOOP ( 'NONE', ( #4 ) ) ;
#111 = EDGE_LOOP ( 'NONE', ( #11 ) ) ;
#112 = PERSON_AND_ORGANIZATION ( #2, #75 ) ;
#113 = CC_DESIGN_DATE_AND_TIME_ASSIGNMENT ( #291, #241, ( #54 ) ) ;
#114 = AXIS2_PLACEMENT_3D ( 'NONE', #49, #236, #1 ) ;
#115 = EDGE_LOOP ( 'NONE', ( #195 ) ) ;
#116 = DIRECTION ( 'NONE',  ( 0.0000000000000000000, 1.000000000000000000, 0.0000000000000000000 ) ) ;
#117 = DIRECTION ( 'NONE',  ( -3.131593405507704487E-31, -1.000000000000000000, -8.814651808825250314E-17 ) ) ;
#118 = DIRECTION ( 'NONE',  ( 0.0000000000000000000, 1.000000000000000000, 0.0000000000000000000 ) ) ;
#119 = CC_DESIGN_PERSON_AND_ORGANIZATION_ASSIGNMENT ( #270, #31, ( #62 ) ) ;
#120 = DIRECTION ( 'NONE',  ( -4.275831445896958607E-31, -1.000000000000000000, -1.224646799147353207E-16 ) ) ;
#121 = CIRCLE ( 'NONE', #289, 0.4899999999999998801 ) ;
#122 = LOCAL_TIME ( 11, 40, 19.00000000000000000, #271 ) ;
#123 = DIRECTION ( 'NONE',  ( -3.491481338843133355E-15, 1.224646799147353207E-16, -1.000000000000000000 ) ) ;
#124 = APPLICATION_PROTOCOL_DEFINITION ( 'international standard', 'config_control_design', 1994, #32 ) ;
#125 = DIRECTION ( 'NONE',  ( 0.0000000000000000000, 1.000000000000000000, 0.0000000000000000000 ) ) ;
#126 = ADVANCED_FACE ( 'NONE', ( #253, #72 ), #152, .T. ) ;
#127 = DIRECTION ( 'NONE',  ( 0.0000000000000000000, 0.0000000000000000000, 1.000000000000000000 ) ) ;
#128 = CARTESIAN_POINT ( 'NONE',  ( 1.316288464743861212E-13, 1.499999999999998668, 37.69999999999999574 ) ) ;
#129 = AXIS2_PLACEMENT_3D ( 'NONE', #150, #239, #104 ) ;
#130 = APPROVAL_ROLE ( '' ) ;
#131 = ORIENTED_EDGE ( 'NONE', *, *, #174, .F. ) ;
#132 = APPROVAL_STATUS ( 'not_yet_approved' ) ;
#133 = MANIFOLD_SOLID_BREP ( 'Corps-Déplacer/Copier1[1]', #201 ) ;
#134 = CALENDAR_DATE ( 2021, 1, 12 ) ;
#135 = PRODUCT_DEFINITION_SHAPE ( 'NONE', 'NONE',  #263 ) ;
#136 = CC_DESIGN_SECURITY_CLASSIFICATION ( #54, ( #62 ) ) ;
#137 = PERSON_AND_ORGANIZATION ( #2, #75 ) ;
#138 = PRODUCT_RELATED_PRODUCT_CATEGORY ( 'detail', '', ( #203 ) ) ;
#139 = ORIENTED_EDGE ( 'NONE', *, *, #272, .F. ) ;
#140 = EDGE_CURVE ( 'NONE', #258, #258, #74, .T. ) ;
#141 = CALENDAR_DATE ( 2021, 1, 12 ) ;
#142 = AXIS2_PLACEMENT_3D ( 'NONE', #299, #96, #125 ) ;
#143 = DIRECTION ( 'NONE',  ( 4.275831445896958607E-31, 1.000000000000000000, 1.224646799147353207E-16 ) ) ;
#144 = ORIENTED_EDGE ( 'NONE', *, *, #52, .F. ) ;
#145 = DIRECTION ( 'NONE',  ( -3.491481338843133355E-15, 1.224646799147353207E-16, -1.000000000000000000 ) ) ;
#146 = AXIS2_PLACEMENT_3D ( 'NONE', #17, #21, #116 ) ;
#147 = DIRECTION ( 'NONE',  ( 3.491481338843133355E-15, -1.224646799147353207E-16, 1.000000000000000000 ) ) ;
#148 = DIRECTION ( 'NONE',  ( 0.0000000000000000000, 1.000000000000000000, 0.0000000000000000000 ) ) ;
#149 = DIRECTION ( 'NONE',  ( 4.275831445896958607E-31, 1.000000000000000000, 1.224646799147353207E-16 ) ) ;
#150 = CARTESIAN_POINT ( 'NONE',  ( 1.316288464743861212E-13, -4.616918432785521081E-15, 37.69999999999999574 ) ) ;
#151 = CARTESIAN_POINT ( 'NONE',  ( 1.326762908760390423E-13, -4.653657836759941941E-15, 38.00000000000000000 ) ) ;
#152 = CYLINDRICAL_SURFACE ( 'NONE', #260, 0.4899999999999995470 ) ;
#153 = CARTESIAN_POINT ( 'NONE',  ( 0.0000000000000000000, 0.0000000000000000000, 0.0000000000000000000 ) ) ;
#154 = CARTESIAN_POINT ( 'NONE',  ( 6.599937386400436398E-14, 1.499999999999995559, 18.90297196486594444 ) ) ;
#155 = ADVANCED_FACE ( 'NONE', ( #207, #206 ), #156, .T. ) ;
#156 = CONICAL_SURFACE ( 'NONE', #3, 1.499999999999997780, 0.1745329251994259812 ) ;
#157 = EDGE_LOOP ( 'NONE', ( #199 ) ) ;
#158 = APPROVAL_STATUS ( 'not_yet_approved' ) ;
#159 = EDGE_LOOP ( 'NONE', ( #165 ) ) ;
#160 = APPROVAL_DATE_TIME ( #26, #27 ) ;
#161 = LOCAL_TIME ( 11, 40, 19.00000000000000000, #175 ) ;
#162 = EDGE_LOOP ( 'NONE', ( #163 ) ) ;
#163 = ORIENTED_EDGE ( 'NONE', *, *, #9, .F. ) ;
#164 = ADVANCED_FACE ( 'NONE', ( #210 ), #100, .F. ) ;
#165 = ORIENTED_EDGE ( 'NONE', *, *, #58, .T. ) ;
#166 = DIRECTION ( 'NONE',  ( 0.0000000000000000000, 1.000000000000000000, 0.0000000000000000000 ) ) ;
#167 =( LENGTH_UNIT ( ) NAMED_UNIT ( * ) SI_UNIT ( .MILLI., .METRE. ) );
#168 = DIRECTION ( 'NONE',  ( 0.0000000000000000000, 1.000000000000000000, 0.0000000000000000000 ) ) ;
#169 = CARTESIAN_POINT ( 'NONE',  ( 8.728703347107833388E-16, 0.6149999999999992140, 0.2500000000000000000 ) ) ;
#170 = DIRECTION ( 'NONE',  ( 0.0000000000000000000, 1.000000000000000000, 0.0000000000000000000 ) ) ;
#171 = CARTESIAN_POINT ( 'NONE',  ( 2.094888803305880013E-14, 0.6149999999999992140, 6.000000000000000000 ) ) ;
#172 = DIRECTION ( 'NONE',  ( -3.491481338843133355E-15, 1.224646799147353207E-16, -1.000000000000000000 ) ) ;
#173 = PERSON_AND_ORGANIZATION_ROLE ( 'design_owner' ) ;
#174 = EDGE_CURVE ( 'NONE', #43, #43, #86, .T. ) ;
#175 = COORDINATED_UNIVERSAL_TIME_OFFSET ( 1, 0, .AHEAD. ) ;
#176 = COORDINATED_UNIVERSAL_TIME_OFFSET ( 1, 0, .AHEAD. ) ;
#177 = SHAPE_DEFINITION_REPRESENTATION ( #135, #261 ) ;
#178 = PERSON_AND_ORGANIZATION ( #2, #75 ) ;
#179 = EDGE_LOOP ( 'NONE', ( #56 ) ) ;
#180 = EDGE_LOOP ( 'NONE', ( #29 ) ) ;
#181 = CIRCLE ( 'NONE', #114, 0.6149999999999992140 ) ;
#182 = ADVANCED_FACE ( 'NONE', ( #229 ), #190, .F. ) ;
#183 = DIRECTION ( 'NONE',  ( 4.275831445896958607E-31, 1.000000000000000000, 1.224646799147352961E-16 ) ) ;
#184 = UNCERTAINTY_MEASURE_WITH_UNIT (LENGTH_MEASURE( 1.000000000000000082E-05 ), #167, 'distance_accuracy_value', 'NONE');
#185 = FACE_BOUND ( 'NONE', #115, .T. ) ;
#186 = CARTESIAN_POINT ( 'NONE',  ( -3.905209056535278289E-31, 1.369762947858634963E-32, -1.118496327930891902E-16 ) ) ;
#187 = ADVANCED_FACE ( 'NONE', ( #15, #45 ), #35, .T. ) ;
#188 = FACE_OUTER_BOUND ( 'NONE', #81, .T. ) ;
#189 = CARTESIAN_POINT ( 'NONE',  ( 1.326762908760390423E-13, 1.199999999999998845, 38.00000000000000000 ) ) ;
#190 = PLANE ( 'NONE',  #204 ) ;
#191 = AXIS2_PLACEMENT_3D ( 'NONE', #151, #123, #42 ) ;
#192 = VERTEX_POINT ( 'NONE', #73 ) ;
#193 = APPROVAL ( #158, 'UNSPECIFIED' ) ;
#194 = PERSON_AND_ORGANIZATION ( #2, #75 ) ;
#195 = ORIENTED_EDGE ( 'NONE', *, *, #9, .T. ) ;
#196 = EDGE_LOOP ( 'NONE', ( #139 ) ) ;
#197 = PERSON_AND_ORGANIZATION_ROLE ( 'creator' ) ;
#198 = PERSON_AND_ORGANIZATION_ROLE ( 'creator' ) ;
#199 = ORIENTED_EDGE ( 'NONE', *, *, #251, .T. ) ;
#200 = APPROVAL_ROLE ( '' ) ;
#201 = CLOSED_SHELL ( 'NONE', ( #182, #269, #126, #225, #155, #231, #216, #164 ) ) ;
#202 = DIRECTION ( 'NONE',  ( 0.0000000000000000000, 1.000000000000000000, 0.0000000000000000000 ) ) ;
#203 = PRODUCT ( '327018', '327018', '', ( #237 ) ) ;
#204 = AXIS2_PLACEMENT_3D ( 'NONE', #257, #209, #120 ) ;
#205 =( GEOMETRIC_REPRESENTATION_CONTEXT ( 3 ) GLOBAL_UNCERTAINTY_ASSIGNED_CONTEXT ( ( #184 ) ) GLOBAL_UNIT_ASSIGNED_CONTEXT ( ( #167, #101, #71 ) ) REPRESENTATION_CONTEXT ( 'NONE', 'WORKASPACE' ) );
#206 = FACE_OUTER_BOUND ( 'NONE', #275, .T. ) ;
#207 = FACE_BOUND ( 'NONE', #196, .T. ) ;
#208 = DIRECTION ( 'NONE',  ( 4.275831445896958607E-31, 1.000000000000000000, 1.224646799147353207E-16 ) ) ;
#209 = DIRECTION ( 'NONE',  ( 3.491481338843133355E-15, -1.224646799147353207E-16, 1.000000000000000000 ) ) ;
#210 = FACE_OUTER_BOUND ( 'NONE', #179, .T. ) ;
#211 = AXIS2_PLACEMENT_3D ( 'NONE', #186, #145, #183 ) ;
#212 = VERTEX_POINT ( 'NONE', #154 ) ;
#213 = CC_DESIGN_PERSON_AND_ORGANIZATION_ASSIGNMENT ( #178, #197, ( #62 ) ) ;
#214 = COORDINATED_UNIVERSAL_TIME_OFFSET ( 1, 0, .AHEAD. ) ;
#215 = COORDINATED_UNIVERSAL_TIME_OFFSET ( 1, 0, .AHEAD. ) ;
#216 = ADVANCED_FACE ( 'NONE', ( #188, #76 ), #286, .T. ) ;
#217 = EDGE_LOOP ( 'NONE', ( #85 ) ) ;
#218 = AXIS2_PLACEMENT_3D ( 'NONE', #259, #64, #168 ) ;
#219 = PERSON_AND_ORGANIZATION_ROLE ( 'classification_officer' ) ;
#220 = CARTESIAN_POINT ( 'NONE',  ( 2.170481591712817937E-14, -7.613024604565352196E-16, 6.216506350946114701 ) ) ;
#221 = ORIENTED_EDGE ( 'NONE', *, *, #174, .T. ) ;
#222 = EDGE_LOOP ( 'NONE', ( #79 ) ) ;
#223 = MANIFOLD_SOLID_BREP ( 'Corps-Déplacer/Copier1[2]', #38 ) ;
#224 = ORIENTED_EDGE ( 'NONE', *, *, #106, .F. ) ;
#225 = ADVANCED_FACE ( 'NONE', ( #234, #232 ), #94, .F. ) ;
#226 = CIRCLE ( 'NONE', #296, 0.4899999999999991029 ) ;
#227 = PLANE ( 'NONE',  #65 ) ;
#228 = APPROVAL_PERSON_ORGANIZATION ( #112, #88, #200 ) ;
#229 = FACE_OUTER_BOUND ( 'NONE', #159, .T. ) ;
#230 = CARTESIAN_POINT ( 'NONE',  ( -1.892735826383161794E-31, 0.4706624327025950016, -5.421010862427523403E-17 ) ) ;
#231 = ADVANCED_FACE ( 'NONE', ( #252, #51 ), #238, .T. ) ;
#232 = FACE_OUTER_BOUND ( 'NONE', #111, .T. ) ;
#233 = CARTESIAN_POINT ( 'NONE',  ( 2.094888803305880013E-14, 4.611761331685201333E-33, 6.000000000000000000 ) ) ;
#234 = FACE_OUTER_BOUND ( 'NONE', #7, .T. ) ;
#235 = CONICAL_SURFACE ( 'NONE', #39, 0.4899999999999991029, 0.5235987755982928205 ) ;
#236 = DIRECTION ( 'NONE',  ( -3.491481338843133355E-15, 1.224646799147353207E-16, -1.000000000000000000 ) ) ;
#237 = MECHANICAL_CONTEXT ( 'NONE', #32, 'mechanical' ) ;
#238 = CYLINDRICAL_SURFACE ( 'NONE', #292, 1.500000000000000444 ) ;
#239 = DIRECTION ( 'NONE',  ( -3.491481338843133355E-15, 1.224646799147353207E-16, -1.000000000000000000 ) ) ;
#240 = CIRCLE ( 'NONE', #129, 1.500000000000003331 ) ;
#241 = DATE_TIME_ROLE ( 'classification_date' ) ;
#242 = APPLICATION_PROTOCOL_DEFINITION ( 'international standard', 'config_control_design', 1994, #63 ) ;
#243 = EDGE_LOOP ( 'NONE', ( #221 ) ) ;
#244 = LOCAL_TIME ( 11, 40, 19.00000000000000000, #214 ) ;
#245 = ORIENTED_EDGE ( 'NONE', *, *, #58, .F. ) ;
#246 = EDGE_LOOP ( 'NONE', ( #224 ) ) ;
#247 = EDGE_LOOP ( 'NONE', ( #267 ) ) ;
#248 = AXIS2_PLACEMENT_3D ( 'NONE', #295, #60, #143 ) ;
#249 = AXIS2_PLACEMENT_3D ( 'NONE', #25, #302, #118 ) ;
#250 = FACE_OUTER_BOUND ( 'NONE', #243, .T. ) ;
#251 = EDGE_CURVE ( 'NONE', #77, #77, #240, .T. ) ;
#252 = FACE_OUTER_BOUND ( 'NONE', #222, .T. ) ;
#253 = FACE_OUTER_BOUND ( 'NONE', #162, .T. ) ;
#254 = LOCAL_TIME ( 11, 40, 19.00000000000000000, #176 ) ;
#255 = ADVANCED_FACE ( 'NONE', ( #53 ), #256, .T. ) ;
#256 = PLANE ( 'NONE',  #278 ) ;
#257 = CARTESIAN_POINT ( 'NONE',  ( 2.094888803305880013E-14, 4.611761331685201333E-33, 6.000000000000000000 ) ) ;
#258 = VERTEX_POINT ( 'NONE', #189 ) ;
#259 = CARTESIAN_POINT ( 'NONE',  ( 2.094888803305880013E-14, -7.347880794884119736E-16, 6.000000000000000000 ) ) ;
#260 = AXIS2_PLACEMENT_3D ( 'NONE', #19, #301, #149 ) ;
#261 = ADVANCED_BREP_SHAPE_REPRESENTATION ( '327018', ( #133, #223, #48 ), #205 ) ;
#262 = CARTESIAN_POINT ( 'NONE',  ( 0.0000000000000000000, 0.0000000000000000000, 0.0000000000000000000 ) ) ;
#263 = PRODUCT_DEFINITION ( 'UNKNOWN', '', #62, #68 ) ;
#264 = DIRECTION ( 'NONE',  ( 4.275831445896958607E-31, 1.000000000000000000, 1.224646799147353207E-16 ) ) ;
#265 = DIRECTION ( 'NONE',  ( -3.491481338843133355E-15, 1.224646799147353207E-16, -1.000000000000000000 ) ) ;
#266 = SECURITY_CLASSIFICATION_LEVEL ( 'unclassified' ) ;
#267 = ORIENTED_EDGE ( 'NONE', *, *, #106, .T. ) ;
#268 = CIRCLE ( 'NONE', #249, 0.5203844939755823962 ) ;
#269 = ADVANCED_FACE ( 'NONE', ( #95, #185 ), #235, .T. ) ;
#270 = PERSON_AND_ORGANIZATION ( #2, #75 ) ;
#271 = COORDINATED_UNIVERSAL_TIME_OFFSET ( 1, 0, .AHEAD. ) ;
#272 = EDGE_CURVE ( 'NONE', #192, #192, #268, .T. ) ;
#273 = CC_DESIGN_DATE_AND_TIME_ASSIGNMENT ( #80, #84, ( #263 ) ) ;
#274 = EDGE_LOOP ( 'NONE', ( #131 ) ) ;
#275 = EDGE_LOOP ( 'NONE', ( #36 ) ) ;
#276 = CIRCLE ( 'NONE', #18, 1.499999999999997780 ) ;
#277 = DIRECTION ( 'NONE',  ( -3.491481338843133355E-15, 1.224646799147353207E-16, -1.000000000000000000 ) ) ;
#278 = AXIS2_PLACEMENT_3D ( 'NONE', #233, #300, #41 ) ;
#279 = CARTESIAN_POINT ( 'NONE',  ( -1.952604528267639144E-31, 6.848814739293174816E-33, -5.592481639654459508E-17 ) ) ;
#280 = CC_DESIGN_PERSON_AND_ORGANIZATION_ASSIGNMENT ( #287, #173, ( #203 ) ) ;
#281 = VERTEX_POINT ( 'NONE', #97 ) ;
#282 = DIRECTION ( 'NONE',  ( 0.0000000000000000000, -1.000000000000000000, 0.0000000000000000000 ) ) ;
#283 = DIRECTION ( 'NONE',  ( -4.275831445896958607E-31, -1.000000000000000000, -1.224646799147353207E-16 ) ) ;
#284 = CARTESIAN_POINT ( 'NONE',  ( 2.170481591712817937E-14, -7.613024604565352196E-16, 6.216506350946114701 ) ) ;
#285 = CARTESIAN_POINT ( 'NONE',  ( 8.728703347107831416E-16, -3.061616997868382402E-17, 0.2499999999999999445 ) ) ;
#286 = CONICAL_SURFACE ( 'NONE', #191, 1.200000000000003286, 0.7853981633974453924 ) ;
#287 = PERSON_AND_ORGANIZATION ( #2, #75 ) ;
#288 = CALENDAR_DATE ( 2021, 1, 12 ) ;
#289 = AXIS2_PLACEMENT_3D ( 'NONE', #298, #37, #166 ) ;
#290 = DATE_AND_TIME ( #288, #161 ) ;
#291 = DATE_AND_TIME ( #134, #244 ) ;
#292 = AXIS2_PLACEMENT_3D ( 'NONE', #153, #265, #208 ) ;
#293 = APPROVAL_PERSON_ORGANIZATION ( #55, #27, #28 ) ;
#294 = FACE_OUTER_BOUND ( 'NONE', #180, .T. ) ;
#295 = CARTESIAN_POINT ( 'NONE',  ( 0.0000000000000000000, 0.0000000000000000000, 0.0000000000000000000 ) ) ;
#296 = AXIS2_PLACEMENT_3D ( 'NONE', #220, #10, #202 ) ;
#297 = CC_DESIGN_APPROVAL ( #27, ( #54 ) ) ;
#298 = CARTESIAN_POINT ( 'NONE',  ( 4.538925740496072731E-14, -1.592040838891558898E-15, 12.99999999999999822 ) ) ;
#299 = CARTESIAN_POINT ( 'NONE',  ( 2.094888803305880013E-14, -7.347880794884119736E-16, 6.000000000000000000 ) ) ;
#300 = DIRECTION ( 'NONE',  ( 3.491481338843133355E-15, -1.224646799147353207E-16, 1.000000000000000000 ) ) ;
#301 = DIRECTION ( 'NONE',  ( -3.491481338843133355E-15, 1.224646799147353207E-16, -1.000000000000000000 ) ) ;
#302 = DIRECTION ( 'NONE',  ( -3.491481338843133355E-15, 1.224646799147353207E-16, -1.000000000000000000 ) ) ;
#303 = DIRECTION ( 'NONE',  ( 3.491481338843133355E-15, -1.224646799147353207E-16, 1.000000000000000000 ) ) ;
ENDSEC;
END-ISO-10303-21;
