ISO-10303-21;
HEADER;
FILE_DESCRIPTION (( 'STEP AP203' ),
    '1' );
FILE_NAME ('327017.step',
    '2021-12-01T10:40:18',
    ( '' ),
    ( '' ),
    'SwSTEP 2.0',
    'SolidWorks 2019',
    '' );
FILE_SCHEMA (( 'CONFIG_CONTROL_DESIGN' ));
ENDSEC;

DATA;
#1 = PRODUCT_DEFINITION_SHAPE ( 'NONE', 'NONE',  #62 ) ;
#2 = CARTESIAN_POINT ( 'NONE',  ( 2.167457880176540117E-14, -7.602418852178100768E-16, 6.207846096908268940 ) ) ;
#3 = CIRCLE ( 'NONE', #237, 0.5203844939755823962 ) ;
#4 = FACE_OUTER_BOUND ( 'NONE', #65, .T. ) ;
#5 = DIRECTION ( 'NONE',  ( 0.0000000000000000000, 1.000000000000000000, 0.0000000000000000000 ) ) ;
#6 = APPROVAL_DATE_TIME ( #117, #14 ) ;
#7 = DIRECTION ( 'NONE',  ( 0.0000000000000000000, 1.000000000000000000, 0.0000000000000000000 ) ) ;
#8 = CARTESIAN_POINT ( 'NONE',  ( 2.094888803305880013E-14, 0.6099999999999993205, 6.000000000000000000 ) ) ;
#9 = DATE_TIME_ROLE ( 'classification_date' ) ;
#10 = AXIS2_PLACEMENT_3D ( 'NONE', #37, #126, #182 ) ;
#11 = CC_DESIGN_APPROVAL ( #222, ( #106 ) ) ;
#12 = FACE_BOUND ( 'NONE', #234, .T. ) ;
#13 = ORIENTED_EDGE ( 'NONE', *, *, #241, .T. ) ;
#14 = APPROVAL ( #100, 'UNSPECIFIED' ) ;
#15 = CALENDAR_DATE ( 2021, 1, 12 ) ;
#16 = CONICAL_SURFACE ( 'NONE', #269, 0.6099999999999993205, 0.5235987755982922653 ) ;
#17 = ORIENTED_EDGE ( 'NONE', *, *, #121, .T. ) ;
#18 = AXIS2_PLACEMENT_3D ( 'NONE', #115, #119, #208 ) ;
#19 = DIRECTION ( 'NONE',  ( -3.491481338843133355E-15, 1.224646799147353207E-16, -1.000000000000000000 ) ) ;
#20 = ADVANCED_BREP_SHAPE_REPRESENTATION ( '327017', ( #207, #21, #99 ), #76 ) ;
#21 = MANIFOLD_SOLID_BREP ( 'Corps-Déplacer/Copier1[2]', #152 ) ;
#22 = ADVANCED_FACE ( 'NONE', ( #12, #129 ), #203, .T. ) ;
#23 = CARTESIAN_POINT ( 'NONE',  ( 1.326762908760390423E-13, -4.653657836759941941E-15, 38.00000000000000000 ) ) ;
#24 = EDGE_LOOP ( 'NONE', ( #85 ) ) ;
#25 = CIRCLE ( 'NONE', #134, 0.6100000000000000977 ) ;
#26 = DIRECTION ( 'NONE',  ( -3.491481338843133355E-15, 1.224646799147353207E-16, -1.000000000000000000 ) ) ;
#27 = COORDINATED_UNIVERSAL_TIME_OFFSET ( 1, 0, .AHEAD. ) ;
#28 = DIRECTION ( 'NONE',  ( -3.491481338843133355E-15, 1.224646799147353207E-16, -1.000000000000000000 ) ) ;
#29 = CIRCLE ( 'NONE', #303, 1.200000000000003286 ) ;
#30 = PERSON_AND_ORGANIZATION_ROLE ( 'creator' ) ;
#31 = VERTEX_POINT ( 'NONE', #157 ) ;
#32 = DATE_AND_TIME ( #33, #176 ) ;
#33 = CALENDAR_DATE ( 2021, 1, 12 ) ;
#34 = VERTEX_POINT ( 'NONE', #118 ) ;
#35 = CIRCLE ( 'NONE', #58, 0.6100000000000000977 ) ;
#36 = EDGE_LOOP ( 'NONE', ( #13 ) ) ;
#37 = CARTESIAN_POINT ( 'NONE',  ( -1.941914949652897006E-31, 6.811320744726628102E-33, -5.561865469675775129E-17 ) ) ;
#38 = ADVANCED_FACE ( 'NONE', ( #135 ), #111, .F. ) ;
#39 = CIRCLE ( 'NONE', #83, 1.499999999999997780 ) ;
#40 = LOCAL_TIME ( 11, 40, 18.00000000000000000, #124 ) ;
#41 = CARTESIAN_POINT ( 'NONE',  ( 4.538925740496073362E-14, -1.734723475976807094E-15, 13.00000000000000000 ) ) ;
#42 = ADVANCED_FACE ( 'NONE', ( #46 ), #68, .T. ) ;
#43 = DIRECTION ( 'NONE',  ( 0.0000000000000000000, 1.000000000000000000, 0.0000000000000000000 ) ) ;
#44 = DIRECTION ( 'NONE',  ( 4.275831445896958607E-31, 1.000000000000000000, 1.224646799147353207E-16 ) ) ;
#45 = ORGANIZATION ( 'UNSPECIFIED', 'UNSPECIFIED', '' ) ;
#46 = FACE_OUTER_BOUND ( 'NONE', #168, .T. ) ;
#47 = PERSON ( 'UNSPECIFIED', 'UNSPECIFIED', 'UNSPECIFIED', ('UNSPECIFIED'), ('UNSPECIFIED'), ('UNSPECIFIED') ) ;
#48 = AXIS2_PLACEMENT_3D ( 'NONE', #188, #275, #204 ) ;
#49 = LOCAL_TIME ( 11, 40, 18.00000000000000000, #209 ) ;
#50 = EDGE_CURVE ( 'NONE', #229, #229, #39, .T. ) ;
#51 = APPROVAL_ROLE ( '' ) ;
#52 = CARTESIAN_POINT ( 'NONE',  ( 2.167457880176540117E-14, 0.4899999999999984923, 6.207846096908268940 ) ) ;
#53 = FACE_BOUND ( 'NONE', #147, .T. ) ;
#54 = AXIS2_PLACEMENT_3D ( 'NONE', #268, #299, #173 ) ;
#55 = CARTESIAN_POINT ( 'NONE',  ( 0.0000000000000000000, 0.0000000000000000000, 0.0000000000000000000 ) ) ;
#56 = DIRECTION ( 'NONE',  ( 0.0000000000000000000, 1.000000000000000000, 0.0000000000000000000 ) ) ;
#57 = APPROVAL_STATUS ( 'not_yet_approved' ) ;
#58 = AXIS2_PLACEMENT_3D ( 'NONE', #139, #278, #7 ) ;
#59 = ORIENTED_EDGE ( 'NONE', *, *, #50, .F. ) ;
#60 = EDGE_LOOP ( 'NONE', ( #224 ) ) ;
#61 = DIRECTION ( 'NONE',  ( 3.491481338843133355E-15, -1.224646799147353207E-16, 1.000000000000000000 ) ) ;
#62 = PRODUCT_DEFINITION ( 'UNKNOWN', '', #106, #194 ) ;
#63 = AXIS2_PLACEMENT_3D ( 'NONE', #190, #284, #239 ) ;
#64 = FACE_OUTER_BOUND ( 'NONE', #265, .T. ) ;
#65 = EDGE_LOOP ( 'NONE', ( #233 ) ) ;
#66 = CARTESIAN_POINT ( 'NONE',  ( 2.094888803305880013E-14, 4.574267337118655988E-33, 6.000000000000000000 ) ) ;
#67 = CC_DESIGN_DATE_AND_TIME_ASSIGNMENT ( #162, #231, ( #62 ) ) ;
#68 = PLANE ( 'NONE',  #150 ) ;
#69 = PRODUCT ( '327017', '327017', '', ( #113 ) ) ;
#70 = PERSON_AND_ORGANIZATION ( #47, #45 ) ;
#71 = CARTESIAN_POINT ( 'NONE',  ( 1.316288464743861212E-13, -4.616918432785521081E-15, 37.69999999999999574 ) ) ;
#72 = PERSON_AND_ORGANIZATION_ROLE ( 'design_owner' ) ;
#73 = CARTESIAN_POINT ( 'NONE',  ( 1.326762908760390423E-13, 1.199999999999998845, 38.00000000000000000 ) ) ;
#74 = CARTESIAN_POINT ( 'NONE',  ( 8.728703347107831416E-16, -3.061616997868382402E-17, 0.2499999999999999445 ) ) ;
#75 = VERTEX_POINT ( 'NONE', #98 ) ;
#76 =( GEOMETRIC_REPRESENTATION_CONTEXT ( 3 ) GLOBAL_UNCERTAINTY_ASSIGNED_CONTEXT ( ( #298 ) ) GLOBAL_UNIT_ASSIGNED_CONTEXT ( ( #226, #144, #252 ) ) REPRESENTATION_CONTEXT ( 'NONE', 'WORKASPACE' ) );
#77 = CYLINDRICAL_SURFACE ( 'NONE', #92, 0.4899999999999995470 ) ;
#78 = ORIENTED_EDGE ( 'NONE', *, *, #156, .F. ) ;
#79 = APPROVAL_ROLE ( '' ) ;
#80 = DIRECTION ( 'NONE',  ( 1.000000000000000000, 0.0000000000000000000, 0.0000000000000000000 ) ) ;
#81 = FACE_OUTER_BOUND ( 'NONE', #36, .T. ) ;
#82 = PERSON_AND_ORGANIZATION ( #47, #45 ) ;
#83 = AXIS2_PLACEMENT_3D ( 'NONE', #266, #19, #294 ) ;
#84 = CC_DESIGN_PERSON_AND_ORGANIZATION_ASSIGNMENT ( #256, #215, ( #172 ) ) ;
#85 = ORIENTED_EDGE ( 'NONE', *, *, #121, .F. ) ;
#86 = APPROVAL_DATE_TIME ( #217, #153 ) ;
#87 = FACE_OUTER_BOUND ( 'NONE', #60, .T. ) ;
#88 = DIRECTION ( 'NONE',  ( 0.0000000000000000000, 1.000000000000000000, 0.0000000000000000000 ) ) ;
#89 = CONICAL_SURFACE ( 'NONE', #160, 1.200000000000003286, 0.7853981633974453924 ) ;
#90 = DIRECTION ( 'NONE',  ( 4.275831445896958607E-31, 1.000000000000000000, 1.224646799147353207E-16 ) ) ;
#91 = DIRECTION ( 'NONE',  ( -3.491481338843133355E-15, 1.224646799147353207E-16, -1.000000000000000000 ) ) ;
#92 = AXIS2_PLACEMENT_3D ( 'NONE', #55, #26, #96 ) ;
#93 = DIRECTION ( 'NONE',  ( 0.0000000000000000000, 1.000000000000000000, 0.0000000000000000000 ) ) ;
#94 = DIRECTION ( 'NONE',  ( 3.491481338843133355E-15, -1.224646799147353207E-16, 1.000000000000000000 ) ) ;
#95 = FACE_OUTER_BOUND ( 'NONE', #24, .T. ) ;
#96 = DIRECTION ( 'NONE',  ( 4.275831445896958607E-31, 1.000000000000000000, 1.224646799147353207E-16 ) ) ;
#97 = PERSON_AND_ORGANIZATION_ROLE ( 'creator' ) ;
#98 = CARTESIAN_POINT ( 'NONE',  ( 8.728703347107833388E-16, 0.6099999999999993205, 0.2500000000000000000 ) ) ;
#99 = AXIS2_PLACEMENT_3D ( 'NONE', #192, #149, #80 ) ;
#100 = APPROVAL_STATUS ( 'not_yet_approved' ) ;
#101 = CALENDAR_DATE ( 2021, 1, 12 ) ;
#102 = EDGE_LOOP ( 'NONE', ( #131 ) ) ;
#103 = FACE_OUTER_BOUND ( 'NONE', #288, .T. ) ;
#104 = CIRCLE ( 'NONE', #141, 1.500000000000003331 ) ;
#105 = ORIENTED_EDGE ( 'NONE', *, *, #274, .T. ) ;
#106 = PRODUCT_DEFINITION_FORMATION_WITH_SPECIFIED_SOURCE ( 'ANY', '', #69, .NOT_KNOWN. ) ;
#107 = CC_DESIGN_PERSON_AND_ORGANIZATION_ASSIGNMENT ( #120, #185, ( #106 ) ) ;
#108 = DIRECTION ( 'NONE',  ( -3.491481338843133355E-15, 1.224646799147353207E-16, -1.000000000000000000 ) ) ;
#109 = DIRECTION ( 'NONE',  ( -3.491481338843133355E-15, 1.224646799147353207E-16, -1.000000000000000000 ) ) ;
#110 = DIRECTION ( 'NONE',  ( -3.491481338843133355E-15, 1.224646799147353207E-16, -1.000000000000000000 ) ) ;
#111 = PLANE ( 'NONE',  #54 ) ;
#112 = FACE_OUTER_BOUND ( 'NONE', #293, .T. ) ;
#113 = MECHANICAL_CONTEXT ( 'NONE', #292, 'mechanical' ) ;
#114 = PERSON_AND_ORGANIZATION ( #47, #45 ) ;
#115 = CARTESIAN_POINT ( 'NONE',  ( 8.728703347107831416E-16, -3.061616997868382402E-17, 0.2499999999999999445 ) ) ;
#116 = ADVANCED_FACE ( 'NONE', ( #64, #240 ), #198, .T. ) ;
#117 = DATE_AND_TIME ( #277, #257 ) ;
#118 = CARTESIAN_POINT ( 'NONE',  ( 2.094888803305880013E-14, 0.6099999999999993205, 6.000000000000000000 ) ) ;
#119 = DIRECTION ( 'NONE',  ( -3.491481338843133355E-15, 1.224646799147353207E-16, -1.000000000000000000 ) ) ;
#120 = PERSON_AND_ORGANIZATION ( #47, #45 ) ;
#121 = EDGE_CURVE ( 'NONE', #273, #273, #29, .T. ) ;
#122 = DIRECTION ( 'NONE',  ( -3.491481338843133355E-15, 1.224646799147353207E-16, -1.000000000000000000 ) ) ;
#123 = AXIS2_PLACEMENT_3D ( 'NONE', #2, #91, #186 ) ;
#124 = COORDINATED_UNIVERSAL_TIME_OFFSET ( 1, 0, .AHEAD. ) ;
#125 = EDGE_LOOP ( 'NONE', ( #166 ) ) ;
#126 = DIRECTION ( 'NONE',  ( 3.491481338843133355E-15, -1.224646799147353207E-16, 1.000000000000000000 ) ) ;
#127 = ADVANCED_FACE ( 'NONE', ( #112, #221 ), #89, .T. ) ;
#128 = EDGE_LOOP ( 'NONE', ( #17 ) ) ;
#129 = FACE_OUTER_BOUND ( 'NONE', #102, .T. ) ;
#130 = CLOSED_SHELL ( 'NONE', ( #38, #236, #270, #137, #22, #116, #127, #205 ) ) ;
#131 = ORIENTED_EDGE ( 'NONE', *, *, #50, .T. ) ;
#132 = ORIENTED_EDGE ( 'NONE', *, *, #156, .T. ) ;
#133 = EDGE_CURVE ( 'NONE', #178, #178, #25, .T. ) ;
#134 = AXIS2_PLACEMENT_3D ( 'NONE', #302, #196, #43 ) ;
#135 = FACE_OUTER_BOUND ( 'NONE', #235, .T. ) ;
#136 = DIRECTION ( 'NONE',  ( -4.275831445896958607E-31, -1.000000000000000000, -1.224646799147353207E-16 ) ) ;
#137 = ADVANCED_FACE ( 'NONE', ( #87, #175 ), #138, .F. ) ;
#138 = TOROIDAL_SURFACE ( 'NONE', #246, 2.490000000000000213, 2.000000000000000000 ) ;
#139 = CARTESIAN_POINT ( 'NONE',  ( 2.094888803305880013E-14, -7.347880794884119736E-16, 6.000000000000000000 ) ) ;
#140 = DIRECTION ( 'NONE',  ( -3.157262203913504945E-31, -1.000000000000000000, -8.886903053159882392E-17 ) ) ;
#141 = AXIS2_PLACEMENT_3D ( 'NONE', #71, #181, #56 ) ;
#142 = CC_DESIGN_APPROVAL ( #153, ( #62 ) ) ;
#143 = PERSON_AND_ORGANIZATION ( #47, #45 ) ;
#144 =( NAMED_UNIT ( * ) PLANE_ANGLE_UNIT ( ) SI_UNIT ( $, .RADIAN. ) );
#145 = CALENDAR_DATE ( 2021, 1, 12 ) ;
#146 = CARTESIAN_POINT ( 'NONE',  ( 6.599937386400436398E-14, 1.499999999999995559, 18.90297196486594444 ) ) ;
#147 = EDGE_LOOP ( 'NONE', ( #200 ) ) ;
#148 = EDGE_LOOP ( 'NONE', ( #216 ) ) ;
#149 = DIRECTION ( 'NONE',  ( 0.0000000000000000000, 0.0000000000000000000, 1.000000000000000000 ) ) ;
#150 = AXIS2_PLACEMENT_3D ( 'NONE', #66, #61, #136 ) ;
#151 = ORIENTED_EDGE ( 'NONE', *, *, #133, .T. ) ;
#152 = CLOSED_SHELL ( 'NONE', ( #174, #289, #214, #42 ) ) ;
#153 = APPROVAL ( #155, 'UNSPECIFIED' ) ;
#154 = FACE_OUTER_BOUND ( 'NONE', #148, .T. ) ;
#155 = APPROVAL_STATUS ( 'not_yet_approved' ) ;
#156 = EDGE_CURVE ( 'NONE', #31, #31, #3, .T. ) ;
#157 = CARTESIAN_POINT ( 'NONE',  ( 4.660183614865709749E-14, 0.5203844939755807308, 13.34729635533384773 ) ) ;
#158 = VERTEX_POINT ( 'NONE', #52 ) ;
#159 = APPLICATION_CONTEXT ( 'configuration controlled 3d designs of mechanical parts and assemblies' ) ;
#160 = AXIS2_PLACEMENT_3D ( 'NONE', #297, #267, #88 ) ;
#161 = CC_DESIGN_APPROVAL ( #14, ( #172 ) ) ;
#162 = DATE_AND_TIME ( #145, #40 ) ;
#163 = FACE_OUTER_BOUND ( 'NONE', #244, .T. ) ;
#164 = APPLICATION_PROTOCOL_DEFINITION ( 'international standard', 'config_control_design', 1994, #292 ) ;
#165 = CYLINDRICAL_SURFACE ( 'NONE', #48, 0.6099999999999996536 ) ;
#166 = ORIENTED_EDGE ( 'NONE', *, *, #255, .T. ) ;
#167 = DATE_AND_TIME ( #101, #49 ) ;
#168 = EDGE_LOOP ( 'NONE', ( #170 ) ) ;
#169 = CARTESIAN_POINT ( 'NONE',  ( 0.0000000000000000000, 0.0000000000000000000, 0.0000000000000000000 ) ) ;
#170 = ORIENTED_EDGE ( 'NONE', *, *, #241, .F. ) ;
#171 = CIRCLE ( 'NONE', #279, 0.4899999999999992140 ) ;
#172 = SECURITY_CLASSIFICATION ( '', '', #212 ) ;
#173 = DIRECTION ( 'NONE',  ( -4.275831445896958607E-31, -1.000000000000000000, -1.224646799147353207E-16 ) ) ;
#174 = ADVANCED_FACE ( 'NONE', ( #249 ), #283, .F. ) ;
#175 = FACE_OUTER_BOUND ( 'NONE', #197, .T. ) ;
#176 = LOCAL_TIME ( 11, 40, 18.00000000000000000, #285 ) ;
#177 = EDGE_LOOP ( 'NONE', ( #291 ) ) ;
#178 = VERTEX_POINT ( 'NONE', #8 ) ;
#179 = CIRCLE ( 'NONE', #242, 0.4899999999999998801 ) ;
#180 = CARTESIAN_POINT ( 'NONE',  ( 4.538925740496072731E-14, -1.592040838891558898E-15, 12.99999999999999822 ) ) ;
#181 = DIRECTION ( 'NONE',  ( -3.491481338843133355E-15, 1.224646799147353207E-16, -1.000000000000000000 ) ) ;
#182 = DIRECTION ( 'NONE',  ( -4.275831445896958607E-31, -1.000000000000000000, -1.224646799147353207E-16 ) ) ;
#183 = APPROVAL_DATE_TIME ( #32, #222 ) ;
#184 = EDGE_CURVE ( 'NONE', #158, #158, #171, .T. ) ;
#185 = PERSON_AND_ORGANIZATION_ROLE ( 'design_supplier' ) ;
#186 = DIRECTION ( 'NONE',  ( 0.0000000000000000000, 1.000000000000000000, 0.0000000000000000000 ) ) ;
#187 = APPROVAL_ROLE ( '' ) ;
#188 = CARTESIAN_POINT ( 'NONE',  ( 0.0000000000000000000, 0.0000000000000000000, 0.0000000000000000000 ) ) ;
#189 = AXIS2_PLACEMENT_3D ( 'NONE', #250, #122, #90 ) ;
#190 = CARTESIAN_POINT ( 'NONE',  ( 6.599937386400436398E-14, -2.314946411114523329E-15, 18.90297196486594444 ) ) ;
#191 = LOCAL_TIME ( 11, 40, 18.00000000000000000, #27 ) ;
#192 = CARTESIAN_POINT ( 'NONE',  ( 0.0000000000000000000, 0.0000000000000000000, 0.0000000000000000000 ) ) ;
#193 = ORIENTED_EDGE ( 'NONE', *, *, #255, .F. ) ;
#194 = DESIGN_CONTEXT ( 'detailed design', #159, 'design' ) ;
#195 = CC_DESIGN_DATE_AND_TIME_ASSIGNMENT ( #167, #9, ( #172 ) ) ;
#196 = DIRECTION ( 'NONE',  ( -3.491481338843133355E-15, 1.224646799147353207E-16, -1.000000000000000000 ) ) ;
#197 = EDGE_LOOP ( 'NONE', ( #132 ) ) ;
#198 = CYLINDRICAL_SURFACE ( 'NONE', #251, 1.500000000000000444 ) ;
#199 = CC_DESIGN_SECURITY_CLASSIFICATION ( #172, ( #106 ) ) ;
#200 = ORIENTED_EDGE ( 'NONE', *, *, #274, .F. ) ;
#201 = PRODUCT_RELATED_PRODUCT_CATEGORY ( 'detail', '', ( #69 ) ) ;
#202 = FACE_OUTER_BOUND ( 'NONE', #125, .T. ) ;
#203 = CONICAL_SURFACE ( 'NONE', #63, 1.499999999999997780, 0.1745329251994259812 ) ;
#204 = DIRECTION ( 'NONE',  ( 4.275831445896958607E-31, 1.000000000000000000, 1.224646799147353207E-16 ) ) ;
#205 = ADVANCED_FACE ( 'NONE', ( #95 ), #276, .F. ) ;
#206 = CARTESIAN_POINT ( 'NONE',  ( -1.892735826383161794E-31, 0.4656624327025950527, -5.421010862427523403E-17 ) ) ;
#207 = MANIFOLD_SOLID_BREP ( 'Corps-Déplacer/Copier1[1]', #130 ) ;
#208 = DIRECTION ( 'NONE',  ( 3.157262203913504945E-31, 1.000000000000000000, 8.886903053159882392E-17 ) ) ;
#209 = COORDINATED_UNIVERSAL_TIME_OFFSET ( 1, 0, .AHEAD. ) ;
#210 = AXIS2_PLACEMENT_3D ( 'NONE', #230, #258, #287 ) ;
#211 = VERTEX_POINT ( 'NONE', #271 ) ;
#212 = SECURITY_CLASSIFICATION_LEVEL ( 'unclassified' ) ;
#213 = ORIENTED_EDGE ( 'NONE', *, *, #301, .F. ) ;
#214 = ADVANCED_FACE ( 'NONE', ( #103, #81 ), #165, .T. ) ;
#215 = PERSON_AND_ORGANIZATION_ROLE ( 'classification_officer' ) ;
#216 = ORIENTED_EDGE ( 'NONE', *, *, #260, .T. ) ;
#217 = DATE_AND_TIME ( #15, #191 ) ;
#218 = DIRECTION ( 'NONE',  ( -3.491481338843133355E-15, 1.224646799147353207E-16, -1.000000000000000000 ) ) ;
#219 = CARTESIAN_POINT ( 'NONE',  ( 4.660183614865709749E-14, -1.634572375883073005E-15, 13.34729635533384773 ) ) ;
#220 = CONICAL_SURFACE ( 'NONE', #123, 0.4899999999999992140, 0.5235987755982942637 ) ;
#221 = FACE_BOUND ( 'NONE', #128, .T. ) ;
#222 = APPROVAL ( #57, 'UNSPECIFIED' ) ;
#223 = DIRECTION ( 'NONE',  ( 0.0000000000000000000, 1.000000000000000000, 0.0000000000000000000 ) ) ;
#224 = ORIENTED_EDGE ( 'NONE', *, *, #260, .F. ) ;
#225 = DIRECTION ( 'NONE',  ( -3.491481338843133355E-15, 1.224646799147353207E-16, -1.000000000000000000 ) ) ;
#226 =( LENGTH_UNIT ( ) NAMED_UNIT ( * ) SI_UNIT ( .MILLI., .METRE. ) );
#227 = CARTESIAN_POINT ( 'NONE',  ( 2.167457880176540117E-14, -7.602418852178100768E-16, 6.207846096908268940 ) ) ;
#228 = APPROVAL_PERSON_ORGANIZATION ( #254, #14, #187 ) ;
#229 = VERTEX_POINT ( 'NONE', #146 ) ;
#230 = CARTESIAN_POINT ( 'NONE',  ( 1.326762908760390423E-13, 8.998558695971103225E-33, 38.00000000000000000 ) ) ;
#231 = DATE_TIME_ROLE ( 'creation_date' ) ;
#232 = VERTEX_POINT ( 'NONE', #206 ) ;
#233 = ORIENTED_EDGE ( 'NONE', *, *, #184, .F. ) ;
#234 = EDGE_LOOP ( 'NONE', ( #78 ) ) ;
#235 = EDGE_LOOP ( 'NONE', ( #151 ) ) ;
#236 = ADVANCED_FACE ( 'NONE', ( #163, #253 ), #220, .T. ) ;
#237 = AXIS2_PLACEMENT_3D ( 'NONE', #219, #109, #93 ) ;
#238 = ORIENTED_EDGE ( 'NONE', *, *, #133, .F. ) ;
#239 = DIRECTION ( 'NONE',  ( 0.0000000000000000000, -1.000000000000000000, 0.0000000000000000000 ) ) ;
#240 = FACE_OUTER_BOUND ( 'NONE', #177, .T. ) ;
#241 = EDGE_CURVE ( 'NONE', #34, #34, #35, .T. ) ;
#242 = AXIS2_PLACEMENT_3D ( 'NONE', #180, #225, #280 ) ;
#243 = APPROVAL_PERSON_ORGANIZATION ( #70, #153, #51 ) ;
#244 = EDGE_LOOP ( 'NONE', ( #238 ) ) ;
#245 = CC_DESIGN_PERSON_AND_ORGANIZATION_ASSIGNMENT ( #114, #72, ( #69 ) ) ;
#246 = AXIS2_PLACEMENT_3D ( 'NONE', #41, #108, #264 ) ;
#247 = CARTESIAN_POINT ( 'NONE',  ( 4.538925740496072731E-14, 0.4899999999999982703, 12.99999999999999822 ) ) ;
#248 = VERTEX_POINT ( 'NONE', #247 ) ;
#249 = FACE_OUTER_BOUND ( 'NONE', #261, .T. ) ;
#250 = CARTESIAN_POINT ( 'NONE',  ( -3.883829899305794012E-31, 1.362264148945325620E-32, -1.112373093935155026E-16 ) ) ;
#251 = AXIS2_PLACEMENT_3D ( 'NONE', #169, #218, #44 ) ;
#252 =( NAMED_UNIT ( * ) SI_UNIT ( $, .STERADIAN. ) SOLID_ANGLE_UNIT ( ) );
#253 = FACE_BOUND ( 'NONE', #286, .T. ) ;
#254 = PERSON_AND_ORGANIZATION ( #47, #45 ) ;
#255 = EDGE_CURVE ( 'NONE', #75, #75, #272, .T. ) ;
#256 = PERSON_AND_ORGANIZATION ( #47, #45 ) ;
#257 = LOCAL_TIME ( 11, 40, 18.00000000000000000, #259 ) ;
#258 = DIRECTION ( 'NONE',  ( -3.491481338843133355E-15, 1.224646799147353207E-16, -1.000000000000000000 ) ) ;
#259 = COORDINATED_UNIVERSAL_TIME_OFFSET ( 1, 0, .AHEAD. ) ;
#260 = EDGE_CURVE ( 'NONE', #248, #248, #179, .T. ) ;
#261 = EDGE_LOOP ( 'NONE', ( #105 ) ) ;
#262 = ORIENTED_EDGE ( 'NONE', *, *, #184, .T. ) ;
#263 = APPROVAL_PERSON_ORGANIZATION ( #143, #222, #79 ) ;
#264 = DIRECTION ( 'NONE',  ( 4.275831445896958607E-31, 1.000000000000000000, 1.224646799147353207E-16 ) ) ;
#265 = EDGE_LOOP ( 'NONE', ( #59 ) ) ;
#266 = CARTESIAN_POINT ( 'NONE',  ( 6.599937386400436398E-14, -2.314946411114523329E-15, 18.90297196486594444 ) ) ;
#267 = DIRECTION ( 'NONE',  ( -3.491481338843133355E-15, 1.224646799147353207E-16, -1.000000000000000000 ) ) ;
#268 = CARTESIAN_POINT ( 'NONE',  ( 2.094888803305880013E-14, 4.574267337118655988E-33, 6.000000000000000000 ) ) ;
#269 = AXIS2_PLACEMENT_3D ( 'NONE', #74, #94, #140 ) ;
#270 = ADVANCED_FACE ( 'NONE', ( #4, #154 ), #77, .T. ) ;
#271 = CARTESIAN_POINT ( 'NONE',  ( 1.316288464743861212E-13, 1.499999999999998668, 37.69999999999999574 ) ) ;
#272 = CIRCLE ( 'NONE', #18, 0.6099999999999993205 ) ;
#273 = VERTEX_POINT ( 'NONE', #73 ) ;
#274 = EDGE_CURVE ( 'NONE', #232, #232, #290, .T. ) ;
#275 = DIRECTION ( 'NONE',  ( -3.491481338843133355E-15, 1.224646799147353207E-16, -1.000000000000000000 ) ) ;
#276 = PLANE ( 'NONE',  #210 ) ;
#277 = CALENDAR_DATE ( 2021, 1, 12 ) ;
#278 = DIRECTION ( 'NONE',  ( -3.491481338843133355E-15, 1.224646799147353207E-16, -1.000000000000000000 ) ) ;
#279 = AXIS2_PLACEMENT_3D ( 'NONE', #227, #28, #5 ) ;
#280 = DIRECTION ( 'NONE',  ( 0.0000000000000000000, 1.000000000000000000, 0.0000000000000000000 ) ) ;
#281 = CC_DESIGN_PERSON_AND_ORGANIZATION_ASSIGNMENT ( #82, #30, ( #106 ) ) ;
#282 = SHAPE_DEFINITION_REPRESENTATION ( #1, #20 ) ;
#283 = PLANE ( 'NONE',  #10 ) ;
#284 = DIRECTION ( 'NONE',  ( 3.491481338843133355E-15, -1.224646799147353207E-16, 1.000000000000000000 ) ) ;
#285 = COORDINATED_UNIVERSAL_TIME_OFFSET ( 1, 0, .AHEAD. ) ;
#286 = EDGE_LOOP ( 'NONE', ( #262 ) ) ;
#287 = DIRECTION ( 'NONE',  ( 4.275831445896958607E-31, 1.000000000000000000, 1.224646799147353207E-16 ) ) ;
#288 = EDGE_LOOP ( 'NONE', ( #193 ) ) ;
#289 = ADVANCED_FACE ( 'NONE', ( #53, #202 ), #16, .T. ) ;
#290 = CIRCLE ( 'NONE', #189, 0.4656624327025950527 ) ;
#291 = ORIENTED_EDGE ( 'NONE', *, *, #301, .T. ) ;
#292 = APPLICATION_CONTEXT ( 'configuration controlled 3d designs of mechanical parts and assemblies' ) ;
#293 = EDGE_LOOP ( 'NONE', ( #213 ) ) ;
#294 = DIRECTION ( 'NONE',  ( 0.0000000000000000000, 1.000000000000000000, 0.0000000000000000000 ) ) ;
#295 = PERSON_AND_ORGANIZATION ( #47, #45 ) ;
#296 = CC_DESIGN_PERSON_AND_ORGANIZATION_ASSIGNMENT ( #295, #97, ( #62 ) ) ;
#297 = CARTESIAN_POINT ( 'NONE',  ( 1.326762908760390423E-13, -4.653657836759941941E-15, 38.00000000000000000 ) ) ;
#298 = UNCERTAINTY_MEASURE_WITH_UNIT (LENGTH_MEASURE( 1.000000000000000082E-05 ), #226, 'distance_accuracy_value', 'NONE');
#299 = DIRECTION ( 'NONE',  ( 3.491481338843133355E-15, -1.224646799147353207E-16, 1.000000000000000000 ) ) ;
#300 = APPLICATION_PROTOCOL_DEFINITION ( 'international standard', 'config_control_design', 1994, #159 ) ;
#301 = EDGE_CURVE ( 'NONE', #211, #211, #104, .T. ) ;
#302 = CARTESIAN_POINT ( 'NONE',  ( 2.094888803305880013E-14, -7.347880794884119736E-16, 6.000000000000000000 ) ) ;
#303 = AXIS2_PLACEMENT_3D ( 'NONE', #23, #110, #223 ) ;
ENDSEC;
END-ISO-10303-21;
