ISO-10303-21;
HEADER;
FILE_DESCRIPTION (( 'STEP AP203' ),
    '1' );
FILE_NAME ('327016.step',
    '2021-12-01T10:40:18',
    ( '' ),
    ( '' ),
    'SwSTEP 2.0',
    'SolidWorks 2019',
    '' );
FILE_SCHEMA (( 'CONFIG_CONTROL_DESIGN' ));
ENDSEC;

DATA;
#1 = APPROVAL_DATE_TIME ( #298, #242 ) ;
#2 = CC_DESIGN_PERSON_AND_ORGANIZATION_ASSIGNMENT ( #205, #94, ( #103 ) ) ;
#3 = ADVANCED_FACE ( 'NONE', ( #261, #193 ), #259, .T. ) ;
#4 = CIRCLE ( 'NONE', #213, 0.4849999999999999312 ) ;
#5 = APPROVAL_DATE_TIME ( #117, #46 ) ;
#6 = AXIS2_PLACEMENT_3D ( 'NONE', #192, #111, #216 ) ;
#7 = COORDINATED_UNIVERSAL_TIME_OFFSET ( 1, 0, .AHEAD. ) ;
#8 = CARTESIAN_POINT ( 'NONE',  ( 1.812262323219672088E-14, -6.356560548256250374E-16, 5.190525588832580084 ) ) ;
#9 = DIRECTION ( 'NONE',  ( 3.491481338843133355E-15, -1.224646799147353207E-16, 1.000000000000000000 ) ) ;
#10 = ORIENTED_EDGE ( 'NONE', *, *, #77, .F. ) ;
#11 = CARTESIAN_POINT ( 'NONE',  ( 1.326762908760390423E-13, 1.199999999999998845, 38.00000000000000000 ) ) ;
#12 = DIRECTION ( 'NONE',  ( -3.236857049390316185E-31, -1.000000000000000000, -9.110942625928619461E-17 ) ) ;
#13 = EDGE_LOOP ( 'NONE', ( #262 ) ) ;
#14 = VERTEX_POINT ( 'NONE', #59 ) ;
#15 = FACE_OUTER_BOUND ( 'NONE', #222, .T. ) ;
#16 = CARTESIAN_POINT ( 'NONE',  ( 1.745740669421566678E-14, 0.5949999999999993072, 5.000000000000000000 ) ) ;
#17 = EDGE_LOOP ( 'NONE', ( #220 ) ) ;
#18 = DIRECTION ( 'NONE',  ( 0.0000000000000000000, 1.000000000000000000, 0.0000000000000000000 ) ) ;
#19 =( NAMED_UNIT ( * ) PLANE_ANGLE_UNIT ( ) SI_UNIT ( $, .RADIAN. ) );
#20 = ORIENTED_EDGE ( 'NONE', *, *, #148, .T. ) ;
#21 = AXIS2_PLACEMENT_3D ( 'NONE', #75, #172, #240 ) ;
#22 = ADVANCED_FACE ( 'NONE', ( #285, #167 ), #195, .T. ) ;
#23 = PERSON_AND_ORGANIZATION_ROLE ( 'creator' ) ;
#24 = APPLICATION_CONTEXT ( 'configuration controlled 3d designs of mechanical parts and assemblies' ) ;
#25 = EDGE_LOOP ( 'NONE', ( #239 ) ) ;
#26 = ADVANCED_FACE ( 'NONE', ( #290, #234 ), #268, .F. ) ;
#27 = CC_DESIGN_PERSON_AND_ORGANIZATION_ASSIGNMENT ( #203, #86, ( #127 ) ) ;
#28 =( GEOMETRIC_REPRESENTATION_CONTEXT ( 3 ) GLOBAL_UNCERTAINTY_ASSIGNED_CONTEXT ( ( #297 ) ) GLOBAL_UNIT_ASSIGNED_CONTEXT ( ( #64, #19, #115 ) ) REPRESENTATION_CONTEXT ( 'NONE', 'WORKASPACE' ) );
#29 = EDGE_LOOP ( 'NONE', ( #79 ) ) ;
#30 = AXIS2_PLACEMENT_3D ( 'NONE', #56, #299, #60 ) ;
#31 = DIRECTION ( 'NONE',  ( 4.275831445896958607E-31, 1.000000000000000000, 1.224646799147353454E-16 ) ) ;
#32 = DIRECTION ( 'NONE',  ( -3.491481338843133355E-15, 1.224646799147353207E-16, -1.000000000000000000 ) ) ;
#33 = VERTEX_POINT ( 'NONE', #151 ) ;
#34 = DIRECTION ( 'NONE',  ( 0.0000000000000000000, 1.000000000000000000, 0.0000000000000000000 ) ) ;
#35 = CARTESIAN_POINT ( 'NONE',  ( 1.326762908760390423E-13, -4.653657836759941941E-15, 38.00000000000000000 ) ) ;
#36 = CARTESIAN_POINT ( 'NONE',  ( 1.316288464743861212E-13, 1.499999999999998668, 37.69999999999999574 ) ) ;
#37 = DATE_AND_TIME ( #273, #211 ) ;
#38 = FACE_OUTER_BOUND ( 'NONE', #214, .T. ) ;
#39 = SHAPE_DEFINITION_REPRESENTATION ( #154, #225 ) ;
#40 = CIRCLE ( 'NONE', #254, 0.5153844939755807264 ) ;
#41 = APPROVAL_ROLE ( '' ) ;
#42 = FACE_BOUND ( 'NONE', #81, .T. ) ;
#43 = LOCAL_TIME ( 11, 40, 18.00000000000000000, #301 ) ;
#44 = DIRECTION ( 'NONE',  ( 0.0000000000000000000, 1.000000000000000000, 0.0000000000000000000 ) ) ;
#45 = AXIS2_PLACEMENT_3D ( 'NONE', #130, #168, #245 ) ;
#46 = APPROVAL ( #258, 'UNSPECIFIED' ) ;
#47 = ADVANCED_FACE ( 'NONE', ( #118 ), #100, .F. ) ;
#48 = CC_DESIGN_APPROVAL ( #46, ( #103 ) ) ;
#49 = DIRECTION ( 'NONE',  ( 0.0000000000000000000, 1.000000000000000000, 0.0000000000000000000 ) ) ;
#50 = CIRCLE ( 'NONE', #132, 1.499999999999997558 ) ;
#51 = CARTESIAN_POINT ( 'NONE',  ( -2.873324514425758425E-31, 1.007826572164652763E-32, -8.229528488265685366E-17 ) ) ;
#52 = DIRECTION ( 'NONE',  ( 3.491481338843133355E-15, -1.224646799147353207E-16, 1.000000000000000000 ) ) ;
#53 = EDGE_LOOP ( 'NONE', ( #153 ) ) ;
#54 = PLANE ( 'NONE',  #300 ) ;
#55 = DIRECTION ( 'NONE',  ( -3.491481338843133355E-15, 1.224646799147353207E-16, -1.000000000000000000 ) ) ;
#56 = CARTESIAN_POINT ( 'NONE',  ( 0.0000000000000000000, 0.0000000000000000000, 0.0000000000000000000 ) ) ;
#57 = CC_DESIGN_PERSON_AND_ORGANIZATION_ASSIGNMENT ( #251, #227, ( #249 ) ) ;
#58 = EDGE_CURVE ( 'NONE', #33, #33, #50, .T. ) ;
#59 = CARTESIAN_POINT ( 'NONE',  ( 8.728703347107833388E-16, 0.5949999999999993072, 0.2500000000000000000 ) ) ;
#60 = DIRECTION ( 'NONE',  ( 4.275831445896958607E-31, 1.000000000000000000, 1.224646799147353207E-16 ) ) ;
#61 = CARTESIAN_POINT ( 'NONE',  ( 4.311035480981396413E-14, 0.5153844939755791721, 12.34729635533384773 ) ) ;
#62 = CC_DESIGN_PERSON_AND_ORGANIZATION_ASSIGNMENT ( #89, #183, ( #232 ) ) ;
#63 = APPROVAL_STATUS ( 'not_yet_approved' ) ;
#64 =( LENGTH_UNIT ( ) NAMED_UNIT ( * ) SI_UNIT ( .MILLI., .METRE. ) );
#65 = CARTESIAN_POINT ( 'NONE',  ( 4.311035480981396413E-14, -1.512107695968337660E-15, 12.34729635533384773 ) ) ;
#66 = CARTESIAN_POINT ( 'NONE',  ( 6.260689839836381496E-14, -2.195954389763516969E-15, 17.93132837396403545 ) ) ;
#67 = APPROVAL_PERSON_ORGANIZATION ( #277, #73, #113 ) ;
#68 = CALENDAR_DATE ( 2021, 1, 12 ) ;
#69 = AXIS2_PLACEMENT_3D ( 'NONE', #51, #147, #31 ) ;
#70 = DIRECTION ( 'NONE',  ( 3.236857049390316185E-31, 1.000000000000000000, 9.110942625928619461E-17 ) ) ;
#71 = AXIS2_PLACEMENT_3D ( 'NONE', #35, #155, #171 ) ;
#72 = ORIENTED_EDGE ( 'NONE', *, *, #199, .F. ) ;
#73 = APPROVAL ( #63, 'UNSPECIFIED' ) ;
#74 = DIRECTION ( 'NONE',  ( -3.491481338843133355E-15, 1.224646799147353207E-16, -1.000000000000000000 ) ) ;
#75 = CARTESIAN_POINT ( 'NONE',  ( 1.745740669421566678E-14, 4.461785353419017899E-33, 5.000000000000000000 ) ) ;
#76 = DIRECTION ( 'NONE',  ( -4.275831445896958607E-31, -1.000000000000000000, -1.224646799147353207E-16 ) ) ;
#77 = EDGE_CURVE ( 'NONE', #247, #247, #4, .T. ) ;
#78 = CLOSED_SHELL ( 'NONE', ( #293, #105, #159, #26, #204, #136, #22, #135 ) ) ;
#79 = ORIENTED_EDGE ( 'NONE', *, *, #77, .T. ) ;
#80 = CYLINDRICAL_SURFACE ( 'NONE', #45, 0.4849999999999995426 ) ;
#81 = EDGE_LOOP ( 'NONE', ( #237 ) ) ;
#82 = SECURITY_CLASSIFICATION_LEVEL ( 'unclassified' ) ;
#83 = CARTESIAN_POINT ( 'NONE',  ( 1.326762908760390423E-13, 8.998558695971103225E-33, 38.00000000000000000 ) ) ;
#84 = VERTEX_POINT ( 'NONE', #61 ) ;
#85 = CONICAL_SURFACE ( 'NONE', #219, 0.4849999999999991540, 0.5235987755982932645 ) ;
#86 = PERSON_AND_ORGANIZATION_ROLE ( 'design_supplier' ) ;
#87 = DIRECTION ( 'NONE',  ( 1.000000000000000000, 0.0000000000000000000, 0.0000000000000000000 ) ) ;
#88 = EDGE_LOOP ( 'NONE', ( #175 ) ) ;
#89 = PERSON_AND_ORGANIZATION ( #129, #198 ) ;
#90 = MANIFOLD_SOLID_BREP ( 'Corps-Déplacer/Copier1[1]', #78 ) ;
#91 = CIRCLE ( 'NONE', #69, 0.4506624327025949284 ) ;
#92 = FACE_OUTER_BOUND ( 'NONE', #17, .T. ) ;
#93 = MANIFOLD_SOLID_BREP ( 'Corps-Déplacer/Copier1[2]', #137 ) ;
#94 = PERSON_AND_ORGANIZATION_ROLE ( 'creator' ) ;
#95 = EDGE_CURVE ( 'NONE', #14, #14, #125, .T. ) ;
#96 = APPLICATION_PROTOCOL_DEFINITION ( 'international standard', 'config_control_design', 1994, #24 ) ;
#97 = DATE_TIME_ROLE ( 'creation_date' ) ;
#98 = DIRECTION ( 'NONE',  ( -4.275831445896958607E-31, -1.000000000000000000, -1.224646799147353207E-16 ) ) ;
#99 = APPROVAL_PERSON_ORGANIZATION ( #210, #46, #144 ) ;
#100 = PLANE ( 'NONE',  #145 ) ;
#101 = EDGE_LOOP ( 'NONE', ( #217 ) ) ;
#102 = DIRECTION ( 'NONE',  ( -3.491481338843133355E-15, 1.224646799147353207E-16, -1.000000000000000000 ) ) ;
#103 = PRODUCT_DEFINITION ( 'UNKNOWN', '', #127, #174 ) ;
#104 = DIRECTION ( 'NONE',  ( 4.275831445896958607E-31, 1.000000000000000000, 1.224646799147353207E-16 ) ) ;
#105 = ADVANCED_FACE ( 'NONE', ( #140, #165 ), #85, .T. ) ;
#106 = PLANE ( 'NONE',  #21 ) ;
#107 = CC_DESIGN_DATE_AND_TIME_ASSIGNMENT ( #37, #223, ( #232 ) ) ;
#108 = VERTEX_POINT ( 'NONE', #173 ) ;
#109 = AXIS2_PLACEMENT_3D ( 'NONE', #120, #74, #169 ) ;
#110 = FACE_OUTER_BOUND ( 'NONE', #226, .T. ) ;
#111 = DIRECTION ( 'NONE',  ( -3.491481338843133355E-15, 1.224646799147353207E-16, -1.000000000000000000 ) ) ;
#112 = ORIENTED_EDGE ( 'NONE', *, *, #199, .T. ) ;
#113 = APPROVAL_ROLE ( '' ) ;
#114 = CARTESIAN_POINT ( 'NONE',  ( 1.745740669421566678E-14, -6.123233995736766282E-16, 5.000000000000000000 ) ) ;
#115 =( NAMED_UNIT ( * ) SI_UNIT ( $, .STERADIAN. ) SOLID_ANGLE_UNIT ( ) );
#116 = APPLICATION_PROTOCOL_DEFINITION ( 'international standard', 'config_control_design', 1994, #230 ) ;
#117 = DATE_AND_TIME ( #142, #170 ) ;
#118 = FACE_OUTER_BOUND ( 'NONE', #101, .T. ) ;
#119 = APPROVAL_STATUS ( 'not_yet_approved' ) ;
#120 = CARTESIAN_POINT ( 'NONE',  ( 4.189777606611760026E-14, -1.301042606982605321E-15, 12.00000000000000000 ) ) ;
#121 = DIRECTION ( 'NONE',  ( -3.491481338843133355E-15, 1.224646799147353207E-16, -1.000000000000000000 ) ) ;
#122 = CIRCLE ( 'NONE', #71, 1.200000000000003286 ) ;
#123 = ORIENTED_EDGE ( 'NONE', *, *, #186, .F. ) ;
#124 = CARTESIAN_POINT ( 'NONE',  ( 8.728703347107831416E-16, -3.061616997868382402E-17, 0.2499999999999999445 ) ) ;
#125 = CIRCLE ( 'NONE', #202, 0.5949999999999993072 ) ;
#126 = CARTESIAN_POINT ( 'NONE',  ( 4.189777606611760026E-14, -1.469576158976823947E-15, 12.00000000000000000 ) ) ;
#127 = PRODUCT_DEFINITION_FORMATION_WITH_SPECIFIED_SOURCE ( 'ANY', '', #249, .NOT_KNOWN. ) ;
#128 = EDGE_LOOP ( 'NONE', ( #10 ) ) ;
#129 = PERSON ( 'UNSPECIFIED', 'UNSPECIFIED', 'UNSPECIFIED', ('UNSPECIFIED'), ('UNSPECIFIED'), ('UNSPECIFIED') ) ;
#130 = CARTESIAN_POINT ( 'NONE',  ( 0.0000000000000000000, 0.0000000000000000000, 0.0000000000000000000 ) ) ;
#131 = VERTEX_POINT ( 'NONE', #196 ) ;
#132 = AXIS2_PLACEMENT_3D ( 'NONE', #286, #235, #49 ) ;
#133 = CYLINDRICAL_SURFACE ( 'NONE', #139, 0.5949999999999996403 ) ;
#134 = PERSON_AND_ORGANIZATION ( #129, #198 ) ;
#135 = ADVANCED_FACE ( 'NONE', ( #110 ), #54, .F. ) ;
#136 = ADVANCED_FACE ( 'NONE', ( #224, #295 ), #274, .T. ) ;
#137 = CLOSED_SHELL ( 'NONE', ( #47, #3, #143, #194 ) ) ;
#138 = APPROVAL_PERSON_ORGANIZATION ( #283, #242, #41 ) ;
#139 = AXIS2_PLACEMENT_3D ( 'NONE', #212, #177, #104 ) ;
#140 = FACE_OUTER_BOUND ( 'NONE', #266, .T. ) ;
#141 = CARTESIAN_POINT ( 'NONE',  ( 1.326762908760390423E-13, -4.653657836759941941E-15, 38.00000000000000000 ) ) ;
#142 = CALENDAR_DATE ( 2021, 1, 12 ) ;
#143 = ADVANCED_FACE ( 'NONE', ( #15, #38 ), #133, .T. ) ;
#144 = APPROVAL_ROLE ( '' ) ;
#145 = AXIS2_PLACEMENT_3D ( 'NONE', #207, #9, #98 ) ;
#146 = ORIENTED_EDGE ( 'NONE', *, *, #255, .F. ) ;
#147 = DIRECTION ( 'NONE',  ( -3.491481338843133355E-15, 1.224646799147353207E-16, -1.000000000000000000 ) ) ;
#148 = EDGE_CURVE ( 'NONE', #269, #269, #200, .T. ) ;
#149 = VERTEX_POINT ( 'NONE', #36 ) ;
#150 = AXIS2_PLACEMENT_3D ( 'NONE', #271, #191, #34 ) ;
#151 = CARTESIAN_POINT ( 'NONE',  ( 6.260689839836381496E-14, 1.499999999999995559, 17.93132837396403545 ) ) ;
#152 = CARTESIAN_POINT ( 'NONE',  ( 8.728703347107831416E-16, -3.061616997868382402E-17, 0.2499999999999999445 ) ) ;
#153 = ORIENTED_EDGE ( 'NONE', *, *, #255, .T. ) ;
#154 = PRODUCT_DEFINITION_SHAPE ( 'NONE', 'NONE',  #103 ) ;
#155 = DIRECTION ( 'NONE',  ( -3.491481338843133355E-15, 1.224646799147353207E-16, -1.000000000000000000 ) ) ;
#156 = AXIS2_PLACEMENT_3D ( 'NONE', #296, #52, #76 ) ;
#157 = VERTEX_POINT ( 'NONE', #11 ) ;
#158 = COORDINATED_UNIVERSAL_TIME_OFFSET ( 1, 0, .AHEAD. ) ;
#159 = ADVANCED_FACE ( 'NONE', ( #221, #197 ), #80, .T. ) ;
#160 = CC_DESIGN_APPROVAL ( #242, ( #127 ) ) ;
#161 = CALENDAR_DATE ( 2021, 1, 12 ) ;
#162 = DIRECTION ( 'NONE',  ( -3.491481338843133355E-15, 1.224646799147353207E-16, -1.000000000000000000 ) ) ;
#163 = DATE_AND_TIME ( #68, #187 ) ;
#164 = EDGE_LOOP ( 'NONE', ( #248 ) ) ;
#165 = FACE_BOUND ( 'NONE', #244, .T. ) ;
#166 = AXIS2_PLACEMENT_3D ( 'NONE', #66, #184, #278 ) ;
#167 = FACE_BOUND ( 'NONE', #53, .T. ) ;
#168 = DIRECTION ( 'NONE',  ( -3.491481338843133355E-15, 1.224646799147353207E-16, -1.000000000000000000 ) ) ;
#169 = DIRECTION ( 'NONE',  ( 4.275831445896958607E-31, 1.000000000000000000, 1.224646799147353207E-16 ) ) ;
#170 = LOCAL_TIME ( 11, 40, 18.00000000000000000, #281 ) ;
#171 = DIRECTION ( 'NONE',  ( 0.0000000000000000000, 1.000000000000000000, 0.0000000000000000000 ) ) ;
#172 = DIRECTION ( 'NONE',  ( 3.491481338843133355E-15, -1.224646799147353207E-16, 1.000000000000000000 ) ) ;
#173 = CARTESIAN_POINT ( 'NONE',  ( -9.463679131915811161E-32, 0.4506624327025949284, -2.710505431213761085E-17 ) ) ;
#174 = DESIGN_CONTEXT ( 'detailed design', #24, 'design' ) ;
#175 = ORIENTED_EDGE ( 'NONE', *, *, #181, .F. ) ;
#176 = COORDINATED_UNIVERSAL_TIME_OFFSET ( 1, 0, .AHEAD. ) ;
#177 = DIRECTION ( 'NONE',  ( -3.491481338843133355E-15, 1.224646799147353207E-16, -1.000000000000000000 ) ) ;
#178 = EDGE_LOOP ( 'NONE', ( #201 ) ) ;
#179 = DATE_AND_TIME ( #161, #43 ) ;
#180 = MECHANICAL_CONTEXT ( 'NONE', #230, 'mechanical' ) ;
#181 = EDGE_CURVE ( 'NONE', #108, #108, #91, .T. ) ;
#182 = CC_DESIGN_PERSON_AND_ORGANIZATION_ASSIGNMENT ( #134, #23, ( #127 ) ) ;
#183 = PERSON_AND_ORGANIZATION_ROLE ( 'classification_officer' ) ;
#184 = DIRECTION ( 'NONE',  ( 3.491481338843133355E-15, -1.224646799147353207E-16, 1.000000000000000000 ) ) ;
#185 = CIRCLE ( 'NONE', #229, 0.4849999999999991540 ) ;
#186 = EDGE_CURVE ( 'NONE', #149, #149, #238, .T. ) ;
#187 = LOCAL_TIME ( 11, 40, 18.00000000000000000, #7 ) ;
#188 = DIRECTION ( 'NONE',  ( 0.0000000000000000000, 1.000000000000000000, 0.0000000000000000000 ) ) ;
#189 = VERTEX_POINT ( 'NONE', #289 ) ;
#190 = DIRECTION ( 'NONE',  ( -3.491481338843133355E-15, 1.224646799147353207E-16, -1.000000000000000000 ) ) ;
#191 = DIRECTION ( 'NONE',  ( -3.491481338843133355E-15, 1.224646799147353207E-16, -1.000000000000000000 ) ) ;
#192 = CARTESIAN_POINT ( 'NONE',  ( 1.745740669421566678E-14, -6.123233995736766282E-16, 5.000000000000000000 ) ) ;
#193 = FACE_OUTER_BOUND ( 'NONE', #260, .T. ) ;
#194 = ADVANCED_FACE ( 'NONE', ( #292 ), #106, .T. ) ;
#195 = CONICAL_SURFACE ( 'NONE', #236, 1.200000000000003286, 0.7853981633974453924 ) ;
#196 = CARTESIAN_POINT ( 'NONE',  ( 1.812262323219672088E-14, 0.4849999999999984879, 5.190525588832580084 ) ) ;
#197 = FACE_OUTER_BOUND ( 'NONE', #29, .T. ) ;
#198 = ORGANIZATION ( 'UNSPECIFIED', 'UNSPECIFIED', '' ) ;
#199 = EDGE_CURVE ( 'NONE', #131, #131, #185, .T. ) ;
#200 = CIRCLE ( 'NONE', #280, 0.5949999999999999734 ) ;
#201 = ORIENTED_EDGE ( 'NONE', *, *, #186, .T. ) ;
#202 = AXIS2_PLACEMENT_3D ( 'NONE', #152, #121, #70 ) ;
#203 = PERSON_AND_ORGANIZATION ( #129, #198 ) ;
#204 = ADVANCED_FACE ( 'NONE', ( #42, #92 ), #206, .T. ) ;
#205 = PERSON_AND_ORGANIZATION ( #129, #198 ) ;
#206 = CONICAL_SURFACE ( 'NONE', #166, 1.499999999999997558, 0.1745329251994261754 ) ;
#207 = CARTESIAN_POINT ( 'NONE',  ( -1.436662257212879213E-31, 5.039132860823263814E-33, -4.114764244132842683E-17 ) ) ;
#208 = PRODUCT_RELATED_PRODUCT_CATEGORY ( 'detail', '', ( #249 ) ) ;
#209 = DIRECTION ( 'NONE',  ( 3.491481338843133355E-15, -1.224646799147353207E-16, 1.000000000000000000 ) ) ;
#210 = PERSON_AND_ORGANIZATION ( #129, #198 ) ;
#211 = LOCAL_TIME ( 11, 40, 18.00000000000000000, #176 ) ;
#212 = CARTESIAN_POINT ( 'NONE',  ( 0.0000000000000000000, 0.0000000000000000000, 0.0000000000000000000 ) ) ;
#213 = AXIS2_PLACEMENT_3D ( 'NONE', #126, #55, #265 ) ;
#214 = EDGE_LOOP ( 'NONE', ( #291 ) ) ;
#215 = DIRECTION ( 'NONE',  ( 0.0000000000000000000, 1.000000000000000000, 0.0000000000000000000 ) ) ;
#216 = DIRECTION ( 'NONE',  ( 0.0000000000000000000, 1.000000000000000000, 0.0000000000000000000 ) ) ;
#217 = ORIENTED_EDGE ( 'NONE', *, *, #181, .T. ) ;
#218 = FACE_OUTER_BOUND ( 'NONE', #257, .T. ) ;
#219 = AXIS2_PLACEMENT_3D ( 'NONE', #8, #284, #188 ) ;
#220 = ORIENTED_EDGE ( 'NONE', *, *, #58, .T. ) ;
#221 = FACE_OUTER_BOUND ( 'NONE', #250, .T. ) ;
#222 = EDGE_LOOP ( 'NONE', ( #288 ) ) ;
#223 = DATE_TIME_ROLE ( 'classification_date' ) ;
#224 = FACE_OUTER_BOUND ( 'NONE', #13, .T. ) ;
#225 = ADVANCED_BREP_SHAPE_REPRESENTATION ( '327016', ( #90, #93, #303 ), #28 ) ;
#226 = EDGE_LOOP ( 'NONE', ( #146 ) ) ;
#227 = PERSON_AND_ORGANIZATION_ROLE ( 'design_owner' ) ;
#228 = CIRCLE ( 'NONE', #6, 0.5949999999999999734 ) ;
#229 = AXIS2_PLACEMENT_3D ( 'NONE', #263, #32, #215 ) ;
#230 = APPLICATION_CONTEXT ( 'configuration controlled 3d designs of mechanical parts and assemblies' ) ;
#231 = DIRECTION ( 'NONE',  ( 0.0000000000000000000, 0.0000000000000000000, 1.000000000000000000 ) ) ;
#232 = SECURITY_CLASSIFICATION ( '', '', #82 ) ;
#233 = CC_DESIGN_DATE_AND_TIME_ASSIGNMENT ( #163, #97, ( #103 ) ) ;
#234 = FACE_OUTER_BOUND ( 'NONE', #25, .T. ) ;
#235 = DIRECTION ( 'NONE',  ( -3.491481338843133355E-15, 1.224646799147353207E-16, -1.000000000000000000 ) ) ;
#236 = AXIS2_PLACEMENT_3D ( 'NONE', #141, #190, #287 ) ;
#237 = ORIENTED_EDGE ( 'NONE', *, *, #243, .F. ) ;
#238 = CIRCLE ( 'NONE', #150, 1.500000000000003331 ) ;
#239 = ORIENTED_EDGE ( 'NONE', *, *, #243, .T. ) ;
#240 = DIRECTION ( 'NONE',  ( -4.275831445896958607E-31, -1.000000000000000000, -1.224646799147353207E-16 ) ) ;
#241 = CARTESIAN_POINT ( 'NONE',  ( 4.189777606611760026E-14, 0.4849999999999984324, 12.00000000000000000 ) ) ;
#242 = APPROVAL ( #119, 'UNSPECIFIED' ) ;
#243 = EDGE_CURVE ( 'NONE', #84, #84, #40, .T. ) ;
#244 = EDGE_LOOP ( 'NONE', ( #112 ) ) ;
#245 = DIRECTION ( 'NONE',  ( 4.275831445896958607E-31, 1.000000000000000000, 1.224646799147353207E-16 ) ) ;
#246 = CC_DESIGN_SECURITY_CLASSIFICATION ( #232, ( #127 ) ) ;
#247 = VERTEX_POINT ( 'NONE', #241 ) ;
#248 = ORIENTED_EDGE ( 'NONE', *, *, #264, .F. ) ;
#249 = PRODUCT ( '327016', '327016', '', ( #180 ) ) ;
#250 = EDGE_LOOP ( 'NONE', ( #72 ) ) ;
#251 = PERSON_AND_ORGANIZATION ( #129, #198 ) ;
#252 = CALENDAR_DATE ( 2021, 1, 12 ) ;
#253 = CARTESIAN_POINT ( 'NONE',  ( 0.0000000000000000000, 0.0000000000000000000, 0.0000000000000000000 ) ) ;
#254 = AXIS2_PLACEMENT_3D ( 'NONE', #65, #162, #44 ) ;
#255 = EDGE_CURVE ( 'NONE', #157, #157, #122, .T. ) ;
#256 = AXIS2_PLACEMENT_3D ( 'NONE', #124, #209, #12 ) ;
#257 = EDGE_LOOP ( 'NONE', ( #20 ) ) ;
#258 = APPROVAL_STATUS ( 'not_yet_approved' ) ;
#259 = CONICAL_SURFACE ( 'NONE', #256, 0.5949999999999993072, 0.5235987755982924874 ) ;
#260 = EDGE_LOOP ( 'NONE', ( #270 ) ) ;
#261 = FACE_BOUND ( 'NONE', #88, .T. ) ;
#262 = ORIENTED_EDGE ( 'NONE', *, *, #58, .F. ) ;
#263 = CARTESIAN_POINT ( 'NONE',  ( 1.812262323219672088E-14, -6.356560548256250374E-16, 5.190525588832580084 ) ) ;
#264 = EDGE_CURVE ( 'NONE', #189, #189, #228, .T. ) ;
#265 = DIRECTION ( 'NONE',  ( 0.0000000000000000000, 1.000000000000000000, 0.0000000000000000000 ) ) ;
#266 = EDGE_LOOP ( 'NONE', ( #272 ) ) ;
#267 = DIRECTION ( 'NONE',  ( 4.275831445896958607E-31, 1.000000000000000000, 1.224646799147353207E-16 ) ) ;
#268 = TOROIDAL_SURFACE ( 'NONE', #109, 2.484999999999999876, 2.000000000000000444 ) ;
#269 = VERTEX_POINT ( 'NONE', #16 ) ;
#270 = ORIENTED_EDGE ( 'NONE', *, *, #95, .T. ) ;
#271 = CARTESIAN_POINT ( 'NONE',  ( 1.316288464743861212E-13, -4.616918432785521081E-15, 37.69999999999999574 ) ) ;
#272 = ORIENTED_EDGE ( 'NONE', *, *, #148, .F. ) ;
#273 = CALENDAR_DATE ( 2021, 1, 12 ) ;
#274 = CYLINDRICAL_SURFACE ( 'NONE', #30, 1.500000000000000444 ) ;
#275 = CC_DESIGN_APPROVAL ( #73, ( #232 ) ) ;
#276 = APPROVAL_DATE_TIME ( #179, #73 ) ;
#277 = PERSON_AND_ORGANIZATION ( #129, #198 ) ;
#278 = DIRECTION ( 'NONE',  ( 0.0000000000000000000, -1.000000000000000000, 0.0000000000000000000 ) ) ;
#279 = LOCAL_TIME ( 11, 40, 18.00000000000000000, #158 ) ;
#280 = AXIS2_PLACEMENT_3D ( 'NONE', #114, #102, #18 ) ;
#281 = COORDINATED_UNIVERSAL_TIME_OFFSET ( 1, 0, .AHEAD. ) ;
#282 = EDGE_LOOP ( 'NONE', ( #123 ) ) ;
#283 = PERSON_AND_ORGANIZATION ( #129, #198 ) ;
#284 = DIRECTION ( 'NONE',  ( -3.491481338843133355E-15, 1.224646799147353207E-16, -1.000000000000000000 ) ) ;
#285 = FACE_OUTER_BOUND ( 'NONE', #282, .T. ) ;
#286 = CARTESIAN_POINT ( 'NONE',  ( 6.260689839836381496E-14, -2.195954389763516969E-15, 17.93132837396403545 ) ) ;
#287 = DIRECTION ( 'NONE',  ( 0.0000000000000000000, 1.000000000000000000, 0.0000000000000000000 ) ) ;
#288 = ORIENTED_EDGE ( 'NONE', *, *, #95, .F. ) ;
#289 = CARTESIAN_POINT ( 'NONE',  ( 1.745740669421566678E-14, 0.5949999999999993072, 5.000000000000000000 ) ) ;
#290 = FACE_OUTER_BOUND ( 'NONE', #128, .T. ) ;
#291 = ORIENTED_EDGE ( 'NONE', *, *, #264, .T. ) ;
#292 = FACE_OUTER_BOUND ( 'NONE', #164, .T. ) ;
#293 = ADVANCED_FACE ( 'NONE', ( #218 ), #294, .F. ) ;
#294 = PLANE ( 'NONE',  #156 ) ;
#295 = FACE_OUTER_BOUND ( 'NONE', #178, .T. ) ;
#296 = CARTESIAN_POINT ( 'NONE',  ( 1.745740669421566678E-14, 4.461785353419017899E-33, 5.000000000000000000 ) ) ;
#297 = UNCERTAINTY_MEASURE_WITH_UNIT (LENGTH_MEASURE( 1.000000000000000082E-05 ), #64, 'distance_accuracy_value', 'NONE');
#298 = DATE_AND_TIME ( #252, #279 ) ;
#299 = DIRECTION ( 'NONE',  ( -3.491481338843133355E-15, 1.224646799147353207E-16, -1.000000000000000000 ) ) ;
#300 = AXIS2_PLACEMENT_3D ( 'NONE', #83, #302, #267 ) ;
#301 = COORDINATED_UNIVERSAL_TIME_OFFSET ( 1, 0, .AHEAD. ) ;
#302 = DIRECTION ( 'NONE',  ( -3.491481338843133355E-15, 1.224646799147353207E-16, -1.000000000000000000 ) ) ;
#303 = AXIS2_PLACEMENT_3D ( 'NONE', #253, #231, #87 ) ;
ENDSEC;
END-ISO-10303-21;
