ISO-10303-21;
HEADER;
FILE_DESCRIPTION (( 'STEP AP203' ),
    '1' );
FILE_NAME ('327015.step',
    '2021-12-01T10:40:17',
    ( '' ),
    ( '' ),
    'SwSTEP 2.0',
    'SolidWorks 2019',
    '' );
FILE_SCHEMA (( 'CONFIG_CONTROL_DESIGN' ));
ENDSEC;

DATA;
#1 = EDGE_LOOP ( 'NONE', ( #259 ) ) ;
#2 = DATE_AND_TIME ( #278, #74 ) ;
#3 = CC_DESIGN_PERSON_AND_ORGANIZATION_ASSIGNMENT ( #11, #190, ( #164 ) ) ;
#4 = ADVANCED_FACE ( 'NONE', ( #217, #65 ), #13, .T. ) ;
#5 = CC_DESIGN_APPROVAL ( #51, ( #164 ) ) ;
#6 = CARTESIAN_POINT ( 'NONE',  ( 0.0000000000000000000, 0.0000000000000000000, 0.0000000000000000000 ) ) ;
#7 = ORIENTED_EDGE ( 'NONE', *, *, #139, .F. ) ;
#8 = APPLICATION_PROTOCOL_DEFINITION ( 'international standard', 'config_control_design', 1994, #122 ) ;
#9 = DIRECTION ( 'NONE',  ( 0.0000000000000000000, -1.000000000000000000, 0.0000000000000000000 ) ) ;
#10 = PLANE ( 'NONE',  #227 ) ;
#11 = PERSON_AND_ORGANIZATION ( #85, #128 ) ;
#12 = ORIENTED_EDGE ( 'NONE', *, *, #95, .T. ) ;
#13 = CYLINDRICAL_SURFACE ( 'NONE', #44, 0.5849999999999997424 ) ;
#14 = CIRCLE ( 'NONE', #127, 0.5103844939755813881 ) ;
#15 = FACE_BOUND ( 'NONE', #181, .T. ) ;
#16 = CYLINDRICAL_SURFACE ( 'NONE', #192, 0.4799999999999996492 ) ;
#17 = CARTESIAN_POINT ( 'NONE',  ( 1.326762908760390423E-13, -4.653657836759941941E-15, 38.00000000000000000 ) ) ;
#18 = CYLINDRICAL_SURFACE ( 'NONE', #279, 1.500000000000000444 ) ;
#19 = PRODUCT_DEFINITION_SHAPE ( 'NONE', 'NONE',  #180 ) ;
#20 = PERSON_AND_ORGANIZATION ( #85, #128 ) ;
#21 = CARTESIAN_POINT ( 'NONE',  ( 1.745740669421566678E-14, 0.5849999999999994094, 5.000000000000000000 ) ) ;
#22 = DIRECTION ( 'NONE',  ( -3.491481338843133355E-15, 1.224646799147353207E-16, -1.000000000000000000 ) ) ;
#23 = AXIS2_PLACEMENT_3D ( 'NONE', #130, #193, #292 ) ;
#24 = ADVANCED_FACE ( 'NONE', ( #291, #134 ), #16, .T. ) ;
#25 = ORIENTED_EDGE ( 'NONE', *, *, #108, .T. ) ;
#26 = CONICAL_SURFACE ( 'NONE', #280, 1.200000000000003286, 0.7853981633974453924 ) ;
#27 = CC_DESIGN_PERSON_AND_ORGANIZATION_ASSIGNMENT ( #161, #277, ( #201 ) ) ;
#28 = CALENDAR_DATE ( 2021, 1, 12 ) ;
#29 = ORIENTED_EDGE ( 'NONE', *, *, #211, .T. ) ;
#30 = DIRECTION ( 'NONE',  ( -3.491481338843133355E-15, 1.224646799147353207E-16, -1.000000000000000000 ) ) ;
#31 = LOCAL_TIME ( 11, 40, 17.00000000000000000, #282 ) ;
#32 = ADVANCED_FACE ( 'NONE', ( #84 ), #133, .F. ) ;
#33 = APPROVAL_STATUS ( 'not_yet_approved' ) ;
#34 = EDGE_LOOP ( 'NONE', ( #25 ) ) ;
#35 = ORIENTED_EDGE ( 'NONE', *, *, #139, .T. ) ;
#36 = CARTESIAN_POINT ( 'NONE',  ( 1.809238611683394584E-14, -6.345954795869001904E-16, 5.181865334794736100 ) ) ;
#37 = APPROVAL_PERSON_ORGANIZATION ( #189, #51, #234 ) ;
#38 = DIRECTION ( 'NONE',  ( -3.491481338843133355E-15, 1.224646799147353207E-16, -1.000000000000000000 ) ) ;
#39 = VERTEX_POINT ( 'NONE', #218 ) ;
#40 = CLOSED_SHELL ( 'NONE', ( #200, #138, #4, #83 ) ) ;
#41 = APPROVAL_STATUS ( 'not_yet_approved' ) ;
#42 = CARTESIAN_POINT ( 'NONE',  ( -9.463679131915802403E-32, 0.4406624327025949195, -2.710505431213760469E-17 ) ) ;
#43 = ORIENTED_EDGE ( 'NONE', *, *, #179, .T. ) ;
#44 = AXIS2_PLACEMENT_3D ( 'NONE', #268, #246, #272 ) ;
#45 = APPROVAL_PERSON_ORGANIZATION ( #210, #162, #184 ) ;
#46 = CC_DESIGN_PERSON_AND_ORGANIZATION_ASSIGNMENT ( #20, #69, ( #164 ) ) ;
#47 = MANIFOLD_SOLID_BREP ( 'Corps-Déplacer/Copier1[1]', #296 ) ;
#48 = EDGE_LOOP ( 'NONE', ( #145 ) ) ;
#49 = CONICAL_SURFACE ( 'NONE', #225, 0.4799999999999991496, 0.5235987755982931535 ) ;
#50 = EDGE_LOOP ( 'NONE', ( #283 ) ) ;
#51 = APPROVAL ( #33, 'UNSPECIFIED' ) ;
#52 = ADVANCED_FACE ( 'NONE', ( #270, #153 ), #18, .T. ) ;
#53 = DIRECTION ( 'NONE',  ( -3.491481338843133355E-15, 1.224646799147353207E-16, -1.000000000000000000 ) ) ;
#54 = DIRECTION ( 'NONE',  ( 1.000000000000000000, 0.0000000000000000000, 0.0000000000000000000 ) ) ;
#55 = DIRECTION ( 'NONE',  ( 0.0000000000000000000, 1.000000000000000000, 0.0000000000000000000 ) ) ;
#56 = ORIENTED_EDGE ( 'NONE', *, *, #108, .F. ) ;
#57 = CARTESIAN_POINT ( 'NONE',  ( 1.809238611683394584E-14, 0.4799999999999984834, 5.181865334794736100 ) ) ;
#58 = DIRECTION ( 'NONE',  ( 3.491481338843133355E-15, -1.224646799147353207E-16, 1.000000000000000000 ) ) ;
#59 = LOCAL_TIME ( 11, 40, 17.00000000000000000, #88 ) ;
#60 = DIRECTION ( 'NONE',  ( 4.275831445896958607E-31, 1.000000000000000000, 1.224646799147353207E-16 ) ) ;
#61 = DIRECTION ( 'NONE',  ( -4.275831445896958607E-31, -1.000000000000000000, -1.224646799147353207E-16 ) ) ;
#62 = CARTESIAN_POINT ( 'NONE',  ( 1.745740669421566678E-14, 0.5849999999999994094, 5.000000000000000000 ) ) ;
#63 = EDGE_CURVE ( 'NONE', #173, #173, #109, .T. ) ;
#64 = ADVANCED_FACE ( 'NONE', ( #105 ), #293, .F. ) ;
#65 = FACE_OUTER_BOUND ( 'NONE', #255, .T. ) ;
#66 = DATE_AND_TIME ( #248, #59 ) ;
#67 = VERTEX_POINT ( 'NONE', #42 ) ;
#68 = CIRCLE ( 'NONE', #172, 0.5849999999999994094 ) ;
#69 = PERSON_AND_ORGANIZATION_ROLE ( 'design_supplier' ) ;
#70 = ORIENTED_EDGE ( 'NONE', *, *, #179, .F. ) ;
#71 = LOCAL_TIME ( 11, 40, 17.00000000000000000, #258 ) ;
#72 = EDGE_LOOP ( 'NONE', ( #29 ) ) ;
#73 = DESIGN_CONTEXT ( 'detailed design', #208, 'design' ) ;
#74 = LOCAL_TIME ( 11, 40, 17.00000000000000000, #198 ) ;
#75 = PERSON_AND_ORGANIZATION_ROLE ( 'creator' ) ;
#76 = FACE_OUTER_BOUND ( 'NONE', #119, .T. ) ;
#77 = DATE_AND_TIME ( #187, #303 ) ;
#78 = DATE_AND_TIME ( #100, #71 ) ;
#79 = CONICAL_SURFACE ( 'NONE', #206, 0.5849999999999994094, 0.5235987755982928205 ) ;
#80 = EDGE_LOOP ( 'NONE', ( #56 ) ) ;
#81 = DIRECTION ( 'NONE',  ( -4.275831445896958607E-31, -1.000000000000000000, -1.224646799147353207E-16 ) ) ;
#82 = FACE_OUTER_BOUND ( 'NONE', #101, .T. ) ;
#83 = ADVANCED_FACE ( 'NONE', ( #256 ), #92, .T. ) ;
#84 = FACE_OUTER_BOUND ( 'NONE', #48, .T. ) ;
#85 = PERSON ( 'UNSPECIFIED', 'UNSPECIFIED', 'UNSPECIFIED', ('UNSPECIFIED'), ('UNSPECIFIED'), ('UNSPECIFIED') ) ;
#86 = DIRECTION ( 'NONE',  ( -3.491481338843133355E-15, 1.224646799147353207E-16, -1.000000000000000000 ) ) ;
#87 = CARTESIAN_POINT ( 'NONE',  ( 0.0000000000000000000, 0.0000000000000000000, 0.0000000000000000000 ) ) ;
#88 = COORDINATED_UNIVERSAL_TIME_OFFSET ( 1, 0, .AHEAD. ) ;
#89 = FACE_BOUND ( 'NONE', #34, .T. ) ;
#90 = AXIS2_PLACEMENT_3D ( 'NONE', #224, #22, #202 ) ;
#91 = EDGE_LOOP ( 'NONE', ( #185 ) ) ;
#92 = PLANE ( 'NONE',  #96 ) ;
#93 = AXIS2_PLACEMENT_3D ( 'NONE', #170, #171, #262 ) ;
#94 = ORIENTED_EDGE ( 'NONE', *, *, #243, .F. ) ;
#95 = EDGE_CURVE ( 'NONE', #154, #154, #176, .T. ) ;
#96 = AXIS2_PLACEMENT_3D ( 'NONE', #222, #113, #247 ) ;
#97 =( NAMED_UNIT ( * ) PLANE_ANGLE_UNIT ( ) SI_UNIT ( $, .RADIAN. ) );
#98 = CARTESIAN_POINT ( 'NONE',  ( -1.415283099983394060E-31, 4.964144871690169702E-33, -4.053531904175473926E-17 ) ) ;
#99 = EDGE_LOOP ( 'NONE', ( #235 ) ) ;
#100 = CALENDAR_DATE ( 2021, 1, 12 ) ;
#101 = EDGE_LOOP ( 'NONE', ( #169 ) ) ;
#102 = DIRECTION ( 'NONE',  ( 3.491481338843133355E-15, -1.224646799147353207E-16, 1.000000000000000000 ) ) ;
#103 = CIRCLE ( 'NONE', #252, 1.200000000000003286 ) ;
#104 = DIRECTION ( 'NONE',  ( 4.275831445896957731E-31, 1.000000000000000000, 1.224646799147352961E-16 ) ) ;
#105 = FACE_OUTER_BOUND ( 'NONE', #80, .T. ) ;
#106 = CC_DESIGN_DATE_AND_TIME_ASSIGNMENT ( #77, #231, ( #180 ) ) ;
#107 = DIRECTION ( 'NONE',  ( -3.491481338843133355E-15, 1.224646799147353207E-16, -1.000000000000000000 ) ) ;
#108 = EDGE_CURVE ( 'NONE', #221, #221, #103, .T. ) ;
#109 = CIRCLE ( 'NONE', #245, 0.4799999999999991496 ) ;
#110 = CARTESIAN_POINT ( 'NONE',  ( 1.745740669421566678E-14, -6.123233995736766282E-16, 5.000000000000000000 ) ) ;
#111 = UNCERTAINTY_MEASURE_WITH_UNIT (LENGTH_MEASURE( 1.000000000000000082E-05 ), #216, 'distance_accuracy_value', 'NONE');
#112 = CARTESIAN_POINT ( 'NONE',  ( 1.326762908760390423E-13, 1.199999999999998845, 38.00000000000000000 ) ) ;
#113 = DIRECTION ( 'NONE',  ( 3.491481338843133355E-15, -1.224646799147353207E-16, 1.000000000000000000 ) ) ;
#114 = VERTEX_POINT ( 'NONE', #21 ) ;
#115 = AXIS2_PLACEMENT_3D ( 'NONE', #299, #86, #60 ) ;
#116 = PERSON_AND_ORGANIZATION_ROLE ( 'design_owner' ) ;
#117 = ORIENTED_EDGE ( 'NONE', *, *, #197, .T. ) ;
#118 = AXIS2_PLACEMENT_3D ( 'NONE', #288, #53, #55 ) ;
#119 = EDGE_LOOP ( 'NONE', ( #237 ) ) ;
#120 =( GEOMETRIC_REPRESENTATION_CONTEXT ( 3 ) GLOBAL_UNCERTAINTY_ASSIGNED_CONTEXT ( ( #111 ) ) GLOBAL_UNIT_ASSIGNED_CONTEXT ( ( #216, #97, #165 ) ) REPRESENTATION_CONTEXT ( 'NONE', 'WORKASPACE' ) );
#121 = DIRECTION ( 'NONE',  ( 0.0000000000000000000, 1.000000000000000000, 0.0000000000000000000 ) ) ;
#122 = APPLICATION_CONTEXT ( 'configuration controlled 3d designs of mechanical parts and assemblies' ) ;
#123 = APPROVAL_DATE_TIME ( #78, #51 ) ;
#124 = ORIENTED_EDGE ( 'NONE', *, *, #211, .F. ) ;
#125 = DIRECTION ( 'NONE',  ( -3.491481338843133355E-15, 1.224646799147353207E-16, -1.000000000000000000 ) ) ;
#126 = DIRECTION ( 'NONE',  ( 3.491481338843133355E-15, -1.224646799147353207E-16, 1.000000000000000000 ) ) ;
#127 = AXIS2_PLACEMENT_3D ( 'NONE', #230, #30, #121 ) ;
#128 = ORGANIZATION ( 'UNSPECIFIED', 'UNSPECIFIED', '' ) ;
#129 = DIRECTION ( 'NONE',  ( 0.0000000000000000000, 1.000000000000000000, 0.0000000000000000000 ) ) ;
#130 = CARTESIAN_POINT ( 'NONE',  ( 4.189777606611760026E-14, -1.469576158976823947E-15, 12.00000000000000000 ) ) ;
#131 = ADVANCED_BREP_SHAPE_REPRESENTATION ( '327015', ( #47, #151, #297 ), #120 ) ;
#132 = DIRECTION ( 'NONE',  ( 3.491481338843133355E-15, -1.224646799147353207E-16, 1.000000000000000000 ) ) ;
#133 = PLANE ( 'NONE',  #212 ) ;
#134 = FACE_OUTER_BOUND ( 'NONE', #276, .T. ) ;
#135 = CARTESIAN_POINT ( 'NONE',  ( 1.316288464743861212E-13, 1.499999999999998668, 37.69999999999999574 ) ) ;
#136 = CARTESIAN_POINT ( 'NONE',  ( 8.728703347107833388E-16, 0.5849999999999994094, 0.2500000000000000000 ) ) ;
#137 = CONICAL_SURFACE ( 'NONE', #301, 1.499999999999997558, 0.1745329251994259256 ) ;
#138 = ADVANCED_FACE ( 'NONE', ( #261, #82 ), #79, .T. ) ;
#139 = EDGE_CURVE ( 'NONE', #271, #271, #232, .T. ) ;
#140 = SECURITY_CLASSIFICATION_LEVEL ( 'unclassified' ) ;
#141 = TOROIDAL_SURFACE ( 'NONE', #115, 2.479999999999999982, 2.000000000000000000 ) ;
#142 = MECHANICAL_CONTEXT ( 'NONE', #122, 'mechanical' ) ;
#143 = EDGE_LOOP ( 'NONE', ( #117 ) ) ;
#144 = COORDINATED_UNIVERSAL_TIME_OFFSET ( 1, 0, .AHEAD. ) ;
#145 = ORIENTED_EDGE ( 'NONE', *, *, #253, .T. ) ;
#146 = FACE_BOUND ( 'NONE', #160, .T. ) ;
#147 = DIRECTION ( 'NONE',  ( -3.491481338843133355E-15, 1.224646799147353207E-16, -1.000000000000000000 ) ) ;
#148 = PERSON_AND_ORGANIZATION ( #85, #128 ) ;
#149 = APPROVAL_PERSON_ORGANIZATION ( #163, #298, #203 ) ;
#150 = EDGE_CURVE ( 'NONE', #175, #175, #186, .T. ) ;
#151 = MANIFOLD_SOLID_BREP ( 'Corps-Déplacer/Copier1[2]', #40 ) ;
#152 = EDGE_LOOP ( 'NONE', ( #7 ) ) ;
#153 = FACE_OUTER_BOUND ( 'NONE', #226, .T. ) ;
#154 = VERTEX_POINT ( 'NONE', #135 ) ;
#155 = CC_DESIGN_PERSON_AND_ORGANIZATION_ASSIGNMENT ( #148, #116, ( #182 ) ) ;
#156 = DIRECTION ( 'NONE',  ( -3.491481338843133355E-15, 1.224646799147353207E-16, -1.000000000000000000 ) ) ;
#157 = DIRECTION ( 'NONE',  ( -3.491481338843133355E-15, 1.224646799147353207E-16, -1.000000000000000000 ) ) ;
#158 = AXIS2_PLACEMENT_3D ( 'NONE', #286, #177, #166 ) ;
#159 = CIRCLE ( 'NONE', #274, 0.5849999999999999645 ) ;
#160 = EDGE_LOOP ( 'NONE', ( #228 ) ) ;
#161 = PERSON_AND_ORGANIZATION ( #85, #128 ) ;
#162 = APPROVAL ( #205, 'UNSPECIFIED' ) ;
#163 = PERSON_AND_ORGANIZATION ( #85, #128 ) ;
#164 = PRODUCT_DEFINITION_FORMATION_WITH_SPECIFIED_SOURCE ( 'ANY', '', #182, .NOT_KNOWN. ) ;
#165 =( NAMED_UNIT ( * ) SI_UNIT ( $, .STERADIAN. ) SOLID_ANGLE_UNIT ( ) );
#166 = DIRECTION ( 'NONE',  ( 4.275831445896958607E-31, 1.000000000000000000, 1.224646799147353207E-16 ) ) ;
#167 = DIRECTION ( 'NONE',  ( 0.0000000000000000000, 0.0000000000000000000, 1.000000000000000000 ) ) ;
#168 = DIRECTION ( 'NONE',  ( 4.275831445896958607E-31, 1.000000000000000000, 1.224646799147353207E-16 ) ) ;
#169 = ORIENTED_EDGE ( 'NONE', *, *, #243, .T. ) ;
#170 = CARTESIAN_POINT ( 'NONE',  ( 1.745740669421566678E-14, -6.123233995736766282E-16, 5.000000000000000000 ) ) ;
#171 = DIRECTION ( 'NONE',  ( -3.491481338843133355E-15, 1.224646799147353207E-16, -1.000000000000000000 ) ) ;
#172 = AXIS2_PLACEMENT_3D ( 'NONE', #287, #107, #241 ) ;
#173 = VERTEX_POINT ( 'NONE', #57 ) ;
#174 = DIRECTION ( 'NONE',  ( -3.491481338843133355E-15, 1.224646799147353207E-16, -1.000000000000000000 ) ) ;
#175 = VERTEX_POINT ( 'NONE', #194 ) ;
#176 = CIRCLE ( 'NONE', #90, 1.500000000000003331 ) ;
#177 = DIRECTION ( 'NONE',  ( -3.491481338843133355E-15, 1.224646799147353207E-16, -1.000000000000000000 ) ) ;
#178 = ORIENTED_EDGE ( 'NONE', *, *, #63, .T. ) ;
#179 = EDGE_CURVE ( 'NONE', #39, #39, #251, .T. ) ;
#180 = PRODUCT_DEFINITION ( 'UNKNOWN', '', #164, #73 ) ;
#181 = EDGE_LOOP ( 'NONE', ( #178 ) ) ;
#182 = PRODUCT ( '327015', '327015', '', ( #142 ) ) ;
#183 = PRODUCT_RELATED_PRODUCT_CATEGORY ( 'detail', '', ( #182 ) ) ;
#184 = APPROVAL_ROLE ( '' ) ;
#185 = ORIENTED_EDGE ( 'NONE', *, *, #253, .F. ) ;
#186 = CIRCLE ( 'NONE', #118, 1.499999999999997558 ) ;
#187 = CALENDAR_DATE ( 2021, 1, 12 ) ;
#188 = ADVANCED_FACE ( 'NONE', ( #195, #15 ), #49, .T. ) ;
#189 = PERSON_AND_ORGANIZATION ( #85, #128 ) ;
#190 = PERSON_AND_ORGANIZATION_ROLE ( 'creator' ) ;
#191 = CARTESIAN_POINT ( 'NONE',  ( 6.270590427156641191E-14, -2.199427048327246547E-15, 17.95968478306213001 ) ) ;
#192 = AXIS2_PLACEMENT_3D ( 'NONE', #220, #157, #104 ) ;
#193 = DIRECTION ( 'NONE',  ( -3.491481338843133355E-15, 1.224646799147353207E-16, -1.000000000000000000 ) ) ;
#194 = CARTESIAN_POINT ( 'NONE',  ( 6.270590427156641191E-14, 1.499999999999995559, 17.95968478306213001 ) ) ;
#195 = FACE_OUTER_BOUND ( 'NONE', #91, .T. ) ;
#196 = CC_DESIGN_APPROVAL ( #162, ( #180 ) ) ;
#197 = EDGE_CURVE ( 'NONE', #273, #273, #14, .T. ) ;
#198 = COORDINATED_UNIVERSAL_TIME_OFFSET ( 1, 0, .AHEAD. ) ;
#199 = DIRECTION ( 'NONE',  ( 0.0000000000000000000, 1.000000000000000000, 0.0000000000000000000 ) ) ;
#200 = ADVANCED_FACE ( 'NONE', ( #214 ), #10, .F. ) ;
#201 = SECURITY_CLASSIFICATION ( '', '', #140 ) ;
#202 = DIRECTION ( 'NONE',  ( 0.0000000000000000000, 1.000000000000000000, 0.0000000000000000000 ) ) ;
#203 = APPROVAL_ROLE ( '' ) ;
#204 = EDGE_LOOP ( 'NONE', ( #124 ) ) ;
#205 = APPROVAL_STATUS ( 'not_yet_approved' ) ;
#206 = AXIS2_PLACEMENT_3D ( 'NONE', #289, #102, #290 ) ;
#207 = EDGE_LOOP ( 'NONE', ( #70 ) ) ;
#208 = APPLICATION_CONTEXT ( 'configuration controlled 3d designs of mechanical parts and assemblies' ) ;
#209 = DATE_AND_TIME ( #28, #31 ) ;
#210 = PERSON_AND_ORGANIZATION ( #85, #128 ) ;
#211 = EDGE_CURVE ( 'NONE', #67, #67, #266, .T. ) ;
#212 = AXIS2_PLACEMENT_3D ( 'NONE', #263, #58, #81 ) ;
#213 = AXIS2_PLACEMENT_3D ( 'NONE', #267, #156, #168 ) ;
#214 = FACE_OUTER_BOUND ( 'NONE', #72, .T. ) ;
#215 = DIRECTION ( 'NONE',  ( 0.0000000000000000000, 1.000000000000000000, 0.0000000000000000000 ) ) ;
#216 =( LENGTH_UNIT ( ) NAMED_UNIT ( * ) SI_UNIT ( .MILLI., .METRE. ) );
#217 = FACE_OUTER_BOUND ( 'NONE', #250, .T. ) ;
#218 = CARTESIAN_POINT ( 'NONE',  ( 4.189777606611760026E-14, 0.4799999999999986500, 12.00000000000000000 ) ) ;
#219 = DIRECTION ( 'NONE',  ( -3.491481338843133355E-15, 1.224646799147353207E-16, -1.000000000000000000 ) ) ;
#220 = CARTESIAN_POINT ( 'NONE',  ( 0.0000000000000000000, 0.0000000000000000000, 0.0000000000000000000 ) ) ;
#221 = VERTEX_POINT ( 'NONE', #112 ) ;
#222 = CARTESIAN_POINT ( 'NONE',  ( 1.745740669421566678E-14, 4.386797364285924471E-33, 5.000000000000000000 ) ) ;
#223 = CARTESIAN_POINT ( 'NONE',  ( 4.311035480981395782E-14, 0.5103844939755798338, 12.34729635533384595 ) ) ;
#224 = CARTESIAN_POINT ( 'NONE',  ( 1.316288464743861212E-13, -4.616918432785521081E-15, 37.69999999999999574 ) ) ;
#225 = AXIS2_PLACEMENT_3D ( 'NONE', #233, #147, #236 ) ;
#226 = EDGE_LOOP ( 'NONE', ( #12 ) ) ;
#227 = AXIS2_PLACEMENT_3D ( 'NONE', #98, #132, #61 ) ;
#228 = ORIENTED_EDGE ( 'NONE', *, *, #197, .F. ) ;
#229 = ADVANCED_FACE ( 'NONE', ( #146, #76 ), #137, .T. ) ;
#230 = CARTESIAN_POINT ( 'NONE',  ( 4.311035480981395782E-14, -1.512107695968337463E-15, 12.34729635533384595 ) ) ;
#231 = DATE_TIME_ROLE ( 'creation_date' ) ;
#232 = CIRCLE ( 'NONE', #93, 0.5849999999999999645 ) ;
#233 = CARTESIAN_POINT ( 'NONE',  ( 1.809238611683394584E-14, -6.345954795869001904E-16, 5.181865334794736100 ) ) ;
#234 = APPROVAL_ROLE ( '' ) ;
#235 = ORIENTED_EDGE ( 'NONE', *, *, #150, .F. ) ;
#236 = DIRECTION ( 'NONE',  ( 0.0000000000000000000, 1.000000000000000000, 0.0000000000000000000 ) ) ;
#237 = ORIENTED_EDGE ( 'NONE', *, *, #150, .T. ) ;
#238 = DIRECTION ( 'NONE',  ( 4.275831445896958607E-31, 1.000000000000000000, 1.224646799147353207E-16 ) ) ;
#239 = CC_DESIGN_APPROVAL ( #298, ( #201 ) ) ;
#240 = CARTESIAN_POINT ( 'NONE',  ( 1.326762908760390423E-13, -4.653657836759941941E-15, 38.00000000000000000 ) ) ;
#241 = DIRECTION ( 'NONE',  ( 3.292187939123483283E-31, 1.000000000000000000, 9.266685234918850303E-17 ) ) ;
#242 = CC_DESIGN_PERSON_AND_ORGANIZATION_ASSIGNMENT ( #284, #75, ( #180 ) ) ;
#243 = EDGE_CURVE ( 'NONE', #244, #244, #68, .T. ) ;
#244 = VERTEX_POINT ( 'NONE', #136 ) ;
#245 = AXIS2_PLACEMENT_3D ( 'NONE', #36, #174, #129 ) ;
#246 = DIRECTION ( 'NONE',  ( -3.491481338843133355E-15, 1.224646799147353207E-16, -1.000000000000000000 ) ) ;
#247 = DIRECTION ( 'NONE',  ( -4.275831445896958607E-31, -1.000000000000000000, -1.224646799147353207E-16 ) ) ;
#248 = CALENDAR_DATE ( 2021, 1, 12 ) ;
#249 = DATE_TIME_ROLE ( 'classification_date' ) ;
#250 = EDGE_LOOP ( 'NONE', ( #94 ) ) ;
#251 = CIRCLE ( 'NONE', #23, 0.4800000000000000933 ) ;
#252 = AXIS2_PLACEMENT_3D ( 'NONE', #240, #125, #215 ) ;
#253 = EDGE_CURVE ( 'NONE', #114, #114, #159, .T. ) ;
#254 = APPROVAL_DATE_TIME ( #209, #162 ) ;
#255 = EDGE_LOOP ( 'NONE', ( #35 ) ) ;
#256 = FACE_OUTER_BOUND ( 'NONE', #152, .T. ) ;
#257 = APPLICATION_PROTOCOL_DEFINITION ( 'international standard', 'config_control_design', 1994, #208 ) ;
#258 = COORDINATED_UNIVERSAL_TIME_OFFSET ( 1, 0, .AHEAD. ) ;
#259 = ORIENTED_EDGE ( 'NONE', *, *, #95, .F. ) ;
#260 = CC_DESIGN_DATE_AND_TIME_ASSIGNMENT ( #66, #249, ( #201 ) ) ;
#261 = FACE_BOUND ( 'NONE', #204, .T. ) ;
#262 = DIRECTION ( 'NONE',  ( 0.0000000000000000000, 1.000000000000000000, 0.0000000000000000000 ) ) ;
#263 = CARTESIAN_POINT ( 'NONE',  ( 1.745740669421566678E-14, 4.386797364285924471E-33, 5.000000000000000000 ) ) ;
#264 = FACE_OUTER_BOUND ( 'NONE', #143, .T. ) ;
#265 = ADVANCED_FACE ( 'NONE', ( #300, #89 ), #26, .T. ) ;
#266 = CIRCLE ( 'NONE', #213, 0.4406624327025949195 ) ;
#267 = CARTESIAN_POINT ( 'NONE',  ( -2.830566199966788121E-31, 9.928289743380339403E-33, -8.107063808350947851E-17 ) ) ;
#268 = CARTESIAN_POINT ( 'NONE',  ( 0.0000000000000000000, 0.0000000000000000000, 0.0000000000000000000 ) ) ;
#269 = DIRECTION ( 'NONE',  ( -3.491481338843133355E-15, 1.224646799147353207E-16, -1.000000000000000000 ) ) ;
#270 = FACE_OUTER_BOUND ( 'NONE', #99, .T. ) ;
#271 = VERTEX_POINT ( 'NONE', #62 ) ;
#272 = DIRECTION ( 'NONE',  ( 4.275831445896958607E-31, 1.000000000000000000, 1.224646799147353207E-16 ) ) ;
#273 = VERTEX_POINT ( 'NONE', #223 ) ;
#274 = AXIS2_PLACEMENT_3D ( 'NONE', #110, #38, #199 ) ;
#275 = SHAPE_DEFINITION_REPRESENTATION ( #19, #131 ) ;
#276 = EDGE_LOOP ( 'NONE', ( #43 ) ) ;
#277 = PERSON_AND_ORGANIZATION_ROLE ( 'classification_officer' ) ;
#278 = CALENDAR_DATE ( 2021, 1, 12 ) ;
#279 = AXIS2_PLACEMENT_3D ( 'NONE', #87, #219, #238 ) ;
#280 = AXIS2_PLACEMENT_3D ( 'NONE', #17, #269, #302 ) ;
#281 = APPROVAL_DATE_TIME ( #2, #298 ) ;
#282 = COORDINATED_UNIVERSAL_TIME_OFFSET ( 1, 0, .AHEAD. ) ;
#283 = ORIENTED_EDGE ( 'NONE', *, *, #63, .F. ) ;
#284 = PERSON_AND_ORGANIZATION ( #85, #128 ) ;
#285 = CC_DESIGN_SECURITY_CLASSIFICATION ( #201, ( #164 ) ) ;
#286 = CARTESIAN_POINT ( 'NONE',  ( 1.326762908760390423E-13, 8.998558695971103225E-33, 38.00000000000000000 ) ) ;
#287 = CARTESIAN_POINT ( 'NONE',  ( 8.728703347107831416E-16, -3.061616997868382402E-17, 0.2499999999999999445 ) ) ;
#288 = CARTESIAN_POINT ( 'NONE',  ( 6.270590427156641191E-14, -2.199427048327246547E-15, 17.95968478306213001 ) ) ;
#289 = CARTESIAN_POINT ( 'NONE',  ( 8.728703347107831416E-16, -3.061616997868382402E-17, 0.2499999999999999445 ) ) ;
#290 = DIRECTION ( 'NONE',  ( -3.292187939123483283E-31, -1.000000000000000000, -9.266685234918850303E-17 ) ) ;
#291 = FACE_OUTER_BOUND ( 'NONE', #50, .T. ) ;
#292 = DIRECTION ( 'NONE',  ( 0.0000000000000000000, 1.000000000000000000, 0.0000000000000000000 ) ) ;
#293 = PLANE ( 'NONE',  #158 ) ;
#294 = FACE_OUTER_BOUND ( 'NONE', #207, .T. ) ;
#295 = ADVANCED_FACE ( 'NONE', ( #294, #264 ), #141, .F. ) ;
#296 = CLOSED_SHELL ( 'NONE', ( #32, #188, #24, #295, #229, #52, #265, #64 ) ) ;
#297 = AXIS2_PLACEMENT_3D ( 'NONE', #6, #167, #54 ) ;
#298 = APPROVAL ( #41, 'UNSPECIFIED' ) ;
#299 = CARTESIAN_POINT ( 'NONE',  ( 4.189777606611760026E-14, -1.301042606982605321E-15, 12.00000000000000000 ) ) ;
#300 = FACE_OUTER_BOUND ( 'NONE', #1, .T. ) ;
#301 = AXIS2_PLACEMENT_3D ( 'NONE', #191, #126, #9 ) ;
#302 = DIRECTION ( 'NONE',  ( 0.0000000000000000000, 1.000000000000000000, 0.0000000000000000000 ) ) ;
#303 = LOCAL_TIME ( 11, 40, 17.00000000000000000, #144 ) ;
ENDSEC;
END-ISO-10303-21;
